  0
SECTION
  2
HEADER
  9
$ACADVER
  1
AC1015
  9
$ACADMAINTVER
 70
     6
  9
$DWGCODEPAGE
  3
ANSI_1252
  9
$INSBASE
 10
0.0
 20
0.0
 30
0.0
  9
$EXTMIN
 10
0.0
 20
0.0
 30
0.0
  9
$EXTMAX
 10
279.4
 20
215.9
 30
0.0
  9
$LIMMIN
 10
0.0
 20
0.0
  9
$LIMMAX
 10
279.4
 20
215.9
  9
$ORTHOMODE
 70
     0
  9
$REGENMODE
 70
     1
  9
$FILLMODE
 70
     1
  9
$QTEXTMODE
 70
     0
  9
$MIRRTEXT
 70
     1
  9
$LTSCALE
 40
1.0
  9
$ATTMODE
 70
     1
  9
$TEXTSIZE
 40
3.5
  9
$TRACEWID
 40
1.0
  9
$TEXTSTYLE
  7
Standard
  9
$CLAYER
  8
0
  9
$CELTYPE
  6
ByLayer
  9
$CECOLOR
 62
   256
  9
$CELTSCALE
 40
1.0
  9
$DISPSILH
 70
     0
  9
$DIMSCALE
 40
1.0
  9
$DIMASZ
 40
3.556
  9
$DIMEXO
 40
1.0
  9
$DIMDLI
 40
3.75
  9
$DIMRND
 40
0.0
  9
$DIMDLE
 40
0.0
  9
$DIMEXE
 40
1.0
  9
$DIMTP
 40
0.0
  9
$DIMTM
 40
0.0
  9
$DIMTXT
 40
3.5
  9
$DIMCEN
 40
2.5
  9
$DIMTSZ
 40
0.0
  9
$DIMTOL
 70
     0
  9
$DIMLIM
 70
     0
  9
$DIMTIH
 70
     1
  9
$DIMTOH
 70
     1
  9
$DIMSE1
 70
     0
  9
$DIMSE2
 70
     0
  9
$DIMTAD
 70
     1
  9
$DIMZIN
 70
     1
  9
$DIMBLK
  1

  9
$DIMASO
 70
     1
  9
$DIMSHO
 70
     1
  9
$DIMPOST
  1

  9
$DIMAPOST
  1

  9
$DIMALT
 70
     0
  9
$DIMALTD
 70
     3
  9
$DIMALTF
 40
0.0393700787
  9
$DIMLFAC
 40
5.0
  9
$DIMTOFL
 70
     1
  9
$DIMTVP
 40
0.0
  9
$DIMTIX
 70
     0
  9
$DIMSOXD
 70
     0
  9
$DIMSAH
 70
     0
  9
$DIMBLK1
  1

  9
$DIMBLK2
  1

  9
$DIMSTYLE
  2
ISO-25
  9
$DIMCLRD
 70
     0
  9
$DIMCLRE
 70
     0
  9
$DIMCLRT
 70
     0
  9
$DIMTFAC
 40
1.0
  9
$DIMGAP
 40
1.524
  9
$DIMJUST
 70
     0
  9
$DIMSD1
 70
     0
  9
$DIMSD2
 70
     0
  9
$DIMTOLJ
 70
     0
  9
$DIMTZIN
 70
     1
  9
$DIMALTZ
 70
     0
  9
$DIMALTTZ
 70
     0
  9
$DIMUPT
 70
     0
  9
$DIMDEC
 70
     2
  9
$DIMTDEC
 70
     2
  9
$DIMALTU
 70
     2
  9
$DIMALTTD
 70
     3
  9
$DIMTXSTY
  7
Standard
  9
$DIMAUNIT
 70
     0
  9
$DIMADEC
 70
     2
  9
$DIMALTRND
 40
0.0
  9
$DIMAZIN
 70
     0
  9
$DIMDSEP
 70
    44
  9
$DIMATFIT
 70
     3
  9
$DIMFRAC
 70
     0
  9
$DIMLDRBLK
  1

  9
$DIMLUNIT
 70
     2
  9
$DIMLWD
 70
    -2
  9
$DIMLWE
 70
    -2
  9
$DIMTMOVE
 70
     0
  9
$LUNITS
 70
     2
  9
$LUPREC
 70
     2
  9
$SKETCHINC
 40
1.0
  9
$FILLETRAD
 40
10.0
  9
$AUNITS
 70
     0
  9
$AUPREC
 70
     2
  9
$MENU
  1
.
  9
$ELEVATION
 40
0.0
  9
$PELEVATION
 40
0.0
  9
$THICKNESS
 40
0.0
  9
$LIMCHECK
 70
     0
  9
$CHAMFERA
 40
0.0
  9
$CHAMFERB
 40
0.0
  9
$CHAMFERC
 40
0.0
  9
$CHAMFERD
 40
0.0
  9
$SKPOLY
 70
     0
  9
$TDCREATE
 40
2460383.712571771
  9
$TDUCREATE
 40
2460383.483405104
  9
$TDUPDATE
 40
2460383.712572222
  9
$TDUUPDATE
 40
2460383.483405556
  9
$TDINDWG
 40
0.0000000116
  9
$TDUSRTIMER
 40
0.0000000116
  9
$USRTIMER
 70
     1
  9
$ANGBASE
 50
0.0
  9
$ANGDIR
 70
     0
  9
$PDMODE
 70
     0
  9
$PDSIZE
 40
-1.0
  9
$PLINEWID
 40
0.0
  9
$SPLFRAME
 70
     0
  9
$SPLINETYPE
 70
     6
  9
$SPLINESEGS
 70
     8
  9
$HANDSEED
  5
33B
  9
$SURFTAB1
 70
     6
  9
$SURFTAB2
 70
     6
  9
$SURFTYPE
 70
     6
  9
$SURFU
 70
     6
  9
$SURFV
 70
     6
  9
$UCSBASE
  2

  9
$UCSNAME
  2

  9
$UCSORG
 10
0.0
 20
0.0
 30
0.0
  9
$UCSXDIR
 10
1.0
 20
0.0
 30
0.0
  9
$UCSYDIR
 10
0.0
 20
1.0
 30
0.0
  9
$UCSORTHOREF
  2

  9
$UCSORTHOVIEW
 70
     0
  9
$UCSORGTOP
 10
0.0
 20
0.0
 30
0.0
  9
$UCSORGBOTTOM
 10
0.0
 20
0.0
 30
0.0
  9
$UCSORGLEFT
 10
0.0
 20
0.0
 30
0.0
  9
$UCSORGRIGHT
 10
0.0
 20
0.0
 30
0.0
  9
$UCSORGFRONT
 10
0.0
 20
0.0
 30
0.0
  9
$UCSORGBACK
 10
0.0
 20
0.0
 30
0.0
  9
$PUCSBASE
  2

  9
$PUCSNAME
  2

  9
$PUCSORG
 10
0.0
 20
0.0
 30
0.0
  9
$PUCSXDIR
 10
1.0
 20
0.0
 30
0.0
  9
$PUCSYDIR
 10
0.0
 20
1.0
 30
0.0
  9
$PUCSORTHOREF
  2

  9
$PUCSORTHOVIEW
 70
     0
  9
$PUCSORGTOP
 10
0.0
 20
0.0
 30
0.0
  9
$PUCSORGBOTTOM
 10
0.0
 20
0.0
 30
0.0
  9
$PUCSORGLEFT
 10
0.0
 20
0.0
 30
0.0
  9
$PUCSORGRIGHT
 10
0.0
 20
0.0
 30
0.0
  9
$PUCSORGFRONT
 10
0.0
 20
0.0
 30
0.0
  9
$PUCSORGBACK
 10
0.0
 20
0.0
 30
0.0
  9
$USERI1
 70
     0
  9
$USERI2
 70
     0
  9
$USERI3
 70
     0
  9
$USERI4
 70
     0
  9
$USERI5
 70
     0
  9
$USERR1
 40
0.0
  9
$USERR2
 40
0.0
  9
$USERR3
 40
0.0
  9
$USERR4
 40
0.0
  9
$USERR5
 40
0.0
  9
$WORLDVIEW
 70
     1
  9
$SHADEDGE
 70
     3
  9
$SHADEDIF
 70
    70
  9
$TILEMODE
 70
     1
  9
$MAXACTVP
 70
    64
  9
$PINSBASE
 10
0.0
 20
0.0
 30
0.0
  9
$PLIMCHECK
 70
     0
  9
$PEXTMIN
 10
1.0000000000E+20
 20
1.0000000000E+20
 30
1.0000000000E+20
  9
$PEXTMAX
 10
-1.0000000000E+20
 20
-1.0000000000E+20
 30
-1.0000000000E+20
  9
$PLIMMIN
 10
0.0
 20
0.0
  9
$PLIMMAX
 10
420.0
 20
297.0
  9
$UNITMODE
 70
     0
  9
$VISRETAIN
 70
     1
  9
$PLINEGEN
 70
     0
  9
$PSLTSCALE
 70
     1
  9
$TREEDEPTH
 70
  3020
  9
$CMLSTYLE
  2
Standard
  9
$CMLJUST
 70
     0
  9
$CMLSCALE
 40
20.0
  9
$PROXYGRAPHICS
 70
     1
  9
$MEASUREMENT
 70
     1
  9
$CELWEIGHT
370
    -1
  9
$ENDCAPS
280
     0
  9
$JOINSTYLE
280
     0
  9
$LWDISPLAY
290
     1
  9
$INSUNITS
 70
     4
  9
$HYPERLINKBASE
  1

  9
$STYLESHEET
  1

  9
$XEDIT
290
     1
  9
$CEPSNTYPE
380
     0
  9
$PSTYLEMODE
290
     1
  9
$FINGERPRINTGUID
  2
{5e72d781-dd8c-4ace-8af9-4502712e42f9}
  9
$VERSIONGUID
  2
{FAEB1C32-E019-11D5-929B-00C0DF256EC4}
  9
$EXTNAMES
290
     1
  9
$PSVPSCALE
 40
0.0
  9
$OLESTARTUP
290
     0
  0
ENDSEC
  0
SECTION
  2
CLASSES
  0
CLASS
  1
ACDBDICTIONARYWDFLT
  2
AcDbDictionaryWithDefault
  3
ObjectDBX Classes
 90
        0
280
     0
281
     0
  0
CLASS
  1
VISUALSTYLE
  2
AcDbVisualStyle
  3
ObjectDBX Classes
 90
     4095
280
     0
281
     0
  0
CLASS
  1
MATERIAL
  2
AcDbMaterial
  3
ObjectDBX Classes
 90
     1153
280
     0
281
     0
  0
CLASS
  1
SCALE
  2
AcDbScale
  3
ObjectDBX Classes
 90
     1153
280
     0
281
     0
  0
CLASS
  1
TABLESTYLE
  2
AcDbTableStyle
  3
ObjectDBX Classes
 90
     4095
280
     0
281
     0
  0
CLASS
  1
MLEADERSTYLE
  2
AcDbMLeaderStyle
  3
ACDB_MLEADERSTYLE_CLASS
 90
     4095
280
     0
281
     0
  0
CLASS
  1
SUN
  2
AcDbSun
  3
SCENEOE
 90
     1153
280
     0
281
     0
  0
CLASS
  1
ACDBPLACEHOLDER
  2
AcDbPlaceHolder
  3
ObjectDBX Classes
 90
        0
280
     0
281
     0
  0
CLASS
  1
LAYOUT
  2
AcDbLayout
  3
ObjectDBX Classes
 90
        0
280
     0
281
     0
  0
ENDSEC
  0
SECTION
  2
TABLES
  0
TABLE
  2
VPORT
  5
8
330
0
100
AcDbSymbolTable
 70
     1
  0
VPORT
  5
29
330
8
100
AcDbSymbolTableRecord
100
AcDbViewportTableRecord
  2
*Active
 70
     0
 10
0.0
 20
0.0
 11
1.0
 21
1.0
 12
139.7
 22
107.95
 13
0.0
 23
0.0
 14
10.0
 24
10.0
 15
10.0
 25
10.0
 16
0.0
 26
0.0
 36
1.0
 17
0.0
 27
0.0
 37
0.0
 40
215.9
 41
1.2941176471
 42
50.0
 43
0.0
 44
0.0
 50
0.0
 51
0.0
 71
     0
 72
  2000
 73
     1
 74
     3
 75
     0
 76
     0
 77
     0
 78
     0
281
     0
 65
     1
110
0.0
120
0.0
130
0.0
111
1.0
121
0.0
131
0.0
112
0.0
122
1.0
132
0.0
 79
     0
146
0.0
  0
ENDTAB
  0
TABLE
  2
LTYPE
  5
5
330
0
100
AcDbSymbolTable
 70
     6
  0
LTYPE
  5
14
330
5
100
AcDbSymbolTableRecord
100
AcDbLinetypeTableRecord
  2
ByBlock
 70
     0
  3

 72
    65
 73
     0
 40
0.0
  0
LTYPE
  5
15
330
5
100
AcDbSymbolTableRecord
100
AcDbLinetypeTableRecord
  2
ByLayer
 70
     0
  3

 72
    65
 73
     0
 40
0.0
  0
LTYPE
  5
16
330
5
100
AcDbSymbolTableRecord
100
AcDbLinetypeTableRecord
  2
Continuous
 70
     0
  3
Solid line
 72
    65
 73
     0
 40
0.0
  0
LTYPE
  5
6E
330
5
100
AcDbSymbolTableRecord
100
AcDbLinetypeTableRecord
  2
HIDDEN
 70
     0
  3
Hidden __ __ __ __ __ __ __ __ __ __ __ __ __ __
 72
    65
 73
     2
 40
1.905
 49
1.27
 74
     0
 49
-0.635
 74
     0
  0
LTYPE
  5
6F
330
5
100
AcDbSymbolTableRecord
100
AcDbLinetypeTableRecord
  2
PHANTOM
 70
     0
  3
Phantom ______  __  __  ______  __  __  ______
 72
    65
 73
     6
 40
12.7
 49
6.35
 74
     0
 49
-1.27
 74
     0
 49
1.27
 74
     0
 49
-1.27
 74
     0
 49
1.27
 74
     0
 49
-1.27
 74
     0
  0
LTYPE
  5
70
330
5
100
AcDbSymbolTableRecord
100
AcDbLinetypeTableRecord
  2
CENTER
 70
     0
  3
Center ____ _ ____ _ ____ _ ____ _ ____ _ ____
 72
    65
 73
     4
 40
10.16
 49
6.35
 74
     0
 49
-1.27
 74
     0
 49
1.27
 74
     0
 49
-1.27
 74
     0
  0
LTYPE
  5
71
330
5
100
AcDbSymbolTableRecord
100
AcDbLinetypeTableRecord
  2
CENTERX2
 70
     0
  3
Center (2x) ________  __  ________  __  _____
 72
    65
 73
     4
 40
20.32
 49
12.7
 74
     0
 49
-2.54
 74
     0
 49
2.54
 74
     0
 49
-2.54
 74
     0
  0
LTYPE
  5
72
330
5
100
AcDbSymbolTableRecord
100
AcDbLinetypeTableRecord
  2
DOT2
 70
     0
  3
Dot (.5x) ........................................
 72
    65
 73
     2
 40
0.635
 49
0.0
 74
     0
 49
-0.635
 74
     0
  0
ENDTAB
  0
TABLE
  2
LAYER
  5
2
330
0
100
AcDbSymbolTable
 70
     1
  0
LAYER
  5
10
330
2
100
AcDbSymbolTableRecord
100
AcDbLayerTableRecord
  2
0
 70
     0
 62
     7
  6
Continuous
370
    -3
390
F
  0
ENDTAB
  0
TABLE
  2
STYLE
  5
3
330
0
100
AcDbSymbolTable
 70
     1
  0
STYLE
  5
11
330
3
100
AcDbSymbolTableRecord
100
AcDbTextStyleTableRecord
  2
Standard
 70
     0
 40
0.0
 41
1.0
 50
0.0
 71
     0
 42
3.5
  3
txt
  4

  0
ENDTAB
  0
TABLE
  2
VIEW
  5
6
330
0
100
AcDbSymbolTable
 70
     0
  0
ENDTAB
  0
TABLE
  2
UCS
  5
7
330
0
100
AcDbSymbolTable
 70
     0
  0
ENDTAB
  0
TABLE
  2
APPID
  5
9
330
0
100
AcDbSymbolTable
 70
     1
  0
APPID
  5
12
330
9
100
AcDbSymbolTableRecord
100
AcDbRegAppTableRecord
  2
ACAD
 70
     0
  0
ENDTAB
  0
TABLE
  2
DIMSTYLE
  5
A
330
0
100
AcDbSymbolTable
 70
     1
100
AcDbDimStyleTable
  0
DIMSTYLE
105
27
330
A
100
AcDbSymbolTableRecord
100
AcDbDimStyleTableRecord
  2
ISO-25
 70
     0
 41
2.5
 42
0.625
 43
3.75
 44
1.25
 73
     0
 74
     0
 77
     1
 78
     8
140
2.5
141
2.5
143
0.0393700787
147
0.625
171
     3
172
     1
178
     0
271
     2
272
     2
274
     3
278
    44
283
     0
284
     8
340
11
  0
ENDTAB
  0
TABLE
  2
BLOCK_RECORD
  5
1
330
0
100
AcDbSymbolTable
 70
     1
  0
BLOCK_RECORD
  5
1F
330
1
100
AcDbSymbolTableRecord
100
AcDbBlockTableRecord
  2
*Model_Space
340
22
  0
BLOCK_RECORD
  5
1B
330
1
100
AcDbSymbolTableRecord
100
AcDbBlockTableRecord
  2
*Paper_Space
340
1E
  0
BLOCK_RECORD
  5
23
330
1
100
AcDbSymbolTableRecord
100
AcDbBlockTableRecord
  2
*Paper_Space0
340
26
  0
ENDTAB
  0
ENDSEC
  0
SECTION
  2
BLOCKS
  0
BLOCK
  5
20
330
1F
100
AcDbEntity
  8
0
100
AcDbBlockBegin
  2
*Model_Space
 70
     0
 10
0.0
 20
0.0
 30
0.0
  3
*Model_Space
  1

  0
ENDBLK
  5
21
330
1F
100
AcDbEntity
  8
0
100
AcDbBlockEnd
  0
BLOCK
  5
1C
330
1B
100
AcDbEntity
 67
     1
  8
0
100
AcDbBlockBegin
  2
*Paper_Space
 70
     0
 10
0.0
 20
0.0
 30
0.0
  3
*Paper_Space
  1

  0
ENDBLK
  5
1D
330
1B
100
AcDbEntity
 67
     1
  8
0
100
AcDbBlockEnd
  0
BLOCK
  5
24
330
23
100
AcDbEntity
  8
0
100
AcDbBlockBegin
  2
*Paper_Space0
 70
     0
 10
0.0
 20
0.0
 30
0.0
  3
*Paper_Space0
  1

  0
ENDBLK
  5
25
330
23
100
AcDbEntity
  8
0
100
AcDbBlockEnd
  0
ENDSEC
  0
SECTION
  2
ENTITIES
  0
LINE
  5
73
330
1F
100
AcDbEntity
  8
0
  6
Continuous
 62
     7
370
    25
100
AcDbLine
 10
16.2044761905
 20
123.5887302042
 30
0.0
 11
16.2044761905
 21
113.3223881853
 31
0.0
  0
LINE
  5
74
330
1F
100
AcDbEntity
  8
0
  6
Continuous
 62
     7
370
    25
100
AcDbLine
 10
51.2044761905
 20
121.8674959802
 30
0.0
 11
51.2044761905
 21
123.5887302042
 31
0.0
  0
LINE
  5
75
330
1F
100
AcDbEntity
  8
0
  6
Continuous
 62
     7
370
    25
100
AcDbLine
 10
221.2044761905
 20
123.5887302042
 30
0.0
 11
221.2044761905
 21
121.8674959802
 31
0.0
  0
LINE
  5
76
330
1F
100
AcDbEntity
  8
0
  6
Continuous
 62
     7
370
    25
100
AcDbLine
 10
256.2044761905
 20
113.5678094741
 30
0.0
 11
256.2044761905
 21
123.5887302042
 31
0.0
  0
SPLINE
  5
77
330
1F
100
AcDbEntity
  8
0
  6
Continuous
 62
     7
370
    25
100
AcDbSpline
210
0.0
220
0.0
230
1.0
 70
     8
 71
     3
 72
     9
 73
     5
 74
     0
 42
0.00000001
 43
0.00000001
 40
0.0
 40
0.0
 40
0.0
 40
0.0
 40
0.5564974171716202
 40
1.0
 40
1.0
 40
1.0
 40
1.0
 10
49.49440430673488
 20
127.5404010875716
 30
0.0
 10
49.31834401408742
 20
127.6421134006859
 30
0.0
 10
49.00197184915936
 20
127.8248857011062
 30
0.0
 10
48.68559347002617
 20
128.0076664638087
 30
0.0
 10
48.54527884172956
 20
128.0887302041586
 30
0.0
  0
SPLINE
  5
78
330
1F
100
AcDbEntity
  8
0
  6
Continuous
 62
     7
370
    25
100
AcDbSpline
210
0.0
220
0.0
230
1.0
 70
     8
 71
     3
 72
     9
 73
     5
 74
     0
 42
0.00000001
 43
0.00000001
 40
0.0
 40
0.0
 40
0.0
 40
0.0
 40
0.5039410827083517
 40
1.0
 40
1.0
 40
1.0
 40
1.0
 10
49.49440430673488
 20
125.5865549337254
 30
0.0
 10
49.31844778118402
 20
125.6882050989725
 30
0.0
 10
48.96928687410892
 20
125.8899155146043
 30
0.0
 10
48.62011626125224
 20
126.0916457957943
 30
0.0
 10
48.44690706508849
 20
126.1917159006664
 30
0.0
  0
SPLINE
  5
79
330
1F
100
AcDbEntity
  8
0
  6
Continuous
 62
     7
370
    25
100
AcDbSpline
210
0.0
220
0.0
230
1.0
 70
     8
 71
     3
 72
     9
 73
     5
 74
     0
 42
0.00000001
 43
0.00000001
 40
0.0
 40
0.0
 40
0.0
 40
0.0
 40
0.5008951237972713
 40
1.0
 40
1.0
 40
1.0
 40
1.0
 10
18.97281974531379
 20
127.1748636588695
 30
0.0
 10
18.79612427362486
 20
127.0727816814823
 30
0.0
 10
18.44336485694416
 20
126.8689825775636
 30
0.0
 10
18.09061288320345
 20
126.6651929645517
 30
0.0
 10
17.91455265301934
 20
126.5634805749781
 30
0.0
  0
SPLINE
  5
7A
330
1F
100
AcDbEntity
  8
0
  6
Continuous
 62
     7
370
    25
100
AcDbSpline
210
0.0
220
0.0
230
1.0
 70
     8
 71
     3
 72
     9
 73
     5
 74
     0
 42
0.00000001
 43
0.00000001
 40
0.0
 40
0.0
 40
0.0
 40
0.0
 40
0.5011873997782382
 40
1.0
 40
1.0
 40
1.0
 40
1.0
 10
18.97281974531379
 20
125.2210175050233
 30
0.0
 10
18.79602040656486
 20
125.1188732949728
 30
0.0
 10
18.44325946559323
 20
124.9150688695308
 30
0.0
 10
18.09050902001005
 20
124.7112845883247
 30
0.0
 10
17.91455265301932
 20
124.6096344211319
 30
0.0
  0
SPLINE
  5
7B
330
1F
100
AcDbEntity
  8
0
  6
Continuous
 62
     7
370
    25
100
AcDbSpline
210
0.0
220
0.0
230
1.0
 70
     8
 71
     3
 72
     9
 73
     5
 74
     0
 42
0.00000001
 43
0.00000001
 40
0.0
 40
0.0
 40
0.0
 40
0.0
 40
0.5564974171716848
 40
1.0
 40
1.0
 40
1.0
 40
1.0
 10
254.4944043067349
 20
127.5404010875716
 30
0.0
 10
254.3183440140874
 20
127.642113400686
 30
0.0
 10
254.0019718491594
 20
127.8248857011062
 30
0.0
 10
253.6855934700262
 20
128.0076664638087
 30
0.0
 10
253.5452788417296
 20
128.0887302041586
 30
0.0
  0
SPLINE
  5
7C
330
1F
100
AcDbEntity
  8
0
  6
Continuous
 62
     7
370
    25
100
AcDbSpline
210
0.0
220
0.0
230
1.0
 70
     8
 71
     3
 72
     9
 73
     5
 74
     0
 42
0.00000001
 43
0.00000001
 40
0.0
 40
0.0
 40
0.0
 40
0.0
 40
0.5039410827083692
 40
1.0
 40
1.0
 40
1.0
 40
1.0
 10
254.4944043067349
 20
125.5865549337255
 30
0.0
 10
254.318447781184
 20
125.6882050989725
 30
0.0
 10
253.9692868741089
 20
125.8899155146044
 30
0.0
 10
253.6201162612522
 20
126.0916457957944
 30
0.0
 10
253.4469070650884
 20
126.1917159006664
 30
0.0
  0
SPLINE
  5
7D
330
1F
100
AcDbEntity
  8
0
  6
Continuous
 62
     7
370
    25
100
AcDbSpline
210
0.0
220
0.0
230
1.0
 70
     8
 71
     3
 72
     9
 73
     5
 74
     0
 42
0.00000001
 43
0.00000001
 40
0.0
 40
0.0
 40
0.0
 40
0.0
 40
0.5008951237972583
 40
1.0
 40
1.0
 40
1.0
 40
1.0
 10
223.9728197453138
 20
127.1748636588695
 30
0.0
 10
223.7961242736249
 20
127.0727816814824
 30
0.0
 10
223.4433648569442
 20
126.8689825775637
 30
0.0
 10
223.0906128832035
 20
126.6651929645518
 30
0.0
 10
222.9145526530193
 20
126.5634805749781
 30
0.0
  0
SPLINE
  5
7E
330
1F
100
AcDbEntity
  8
0
  6
Continuous
 62
     7
370
    25
100
AcDbSpline
210
0.0
220
0.0
230
1.0
 70
     8
 71
     3
 72
     9
 73
     5
 74
     0
 42
0.00000001
 43
0.00000001
 40
0.0
 40
0.0
 40
0.0
 40
0.0
 40
0.5011873997782588
 40
1.0
 40
1.0
 40
1.0
 40
1.0
 10
223.9728197453138
 20
125.2210175050233
 30
0.0
 10
223.7960204065649
 20
125.1188732949728
 30
0.0
 10
223.4432594655932
 20
124.9150688695309
 30
0.0
 10
223.09050902001
 20
124.7112845883247
 30
0.0
 10
222.9145526530193
 20
124.609634421132
 30
0.0
  0
SPLINE
  5
7F
330
1F
100
AcDbEntity
  8
0
  6
Continuous
 62
     7
370
    25
100
AcDbSpline
210
0.0
220
0.0
230
1.0
 70
     8
 71
     3
 72
     9
 73
     5
 74
     0
 42
0.00000001
 43
0.00000001
 40
0.0
 40
0.0
 40
0.0
 40
0.0
 40
0.4987463974916263
 40
1.0
 40
1.0
 40
1.0
 40
1.0
 10
253.4377273382902
 20
126.6631410335321
 30
0.0
 10
253.6136914601557
 20
126.7647965338082
 30
0.0
 10
253.9665042779536
 20
126.9686185579619
 30
0.0
 10
254.3191912825641
 20
127.172379896715
 30
0.0
 10
254.495976914183
 20
127.274516001817
 30
0.0
  0
SPLINE
  5
80
330
1F
100
AcDbEntity
  8
0
  6
Continuous
 62
     7
370
    25
100
AcDbSpline
210
0.0
220
0.0
230
1.0
 70
     8
 71
     3
 72
     9
 73
     5
 74
     0
 42
0.00000001
 43
0.00000001
 40
0.0
 40
0.0
 40
0.0
 40
0.0
 40
0.3237592092526325
 40
1.0
 40
1.0
 40
1.0
 40
1.0
 10
223.1946069774586
 20
128.0887302041586
 30
0.0
 10
223.2774151279528
 20
128.0408884744971
 30
0.0
 10
223.5331859234318
 20
127.8931189955318
 30
0.0
 10
223.7890297803681
 20
127.7453182983121
 30
0.0
 10
223.9620418324906
 20
127.6453694379512
 30
0.0
  0
SPLINE
  5
81
330
1F
100
AcDbEntity
  8
0
  6
Continuous
 62
     7
370
    25
100
AcDbSpline
210
0.0
220
0.0
230
1.0
 70
     8
 71
     3
 72
     9
 73
     5
 74
     0
 42
0.00000001
 43
0.00000001
 40
0.0
 40
0.0
 40
0.0
 40
0.0
 40
0.5056457376285837
 40
1.0
 40
1.0
 40
1.0
 40
1.0
 10
222.9129719073904
 20
126.2975950955346
 30
0.0
 10
223.0897573096899
 20
126.1954590393152
 30
0.0
 10
223.439380354331
 20
125.9934677070071
 30
0.0
 10
223.7891283849787
 20
125.7914163544926
 30
0.0
 10
223.9620278146854
 20
125.6915314071592
 30
0.0
  0
SPLINE
  5
82
330
1F
100
AcDbEntity
  8
0
  6
Continuous
 62
     7
370
    25
100
AcDbSpline
210
0.0
220
0.0
230
1.0
 70
     8
 71
     3
 72
     9
 73
     5
 74
     0
 42
0.00000001
 43
0.00000001
 40
0.0
 40
0.0
 40
0.0
 40
0.0
 40
0.4987463974915939
 40
1.0
 40
1.0
 40
1.0
 40
1.0
 10
48.4377273382902
 20
126.6631410335321
 30
0.0
 10
48.61369146015575
 20
126.7647965338082
 30
0.0
 10
48.96650427795361
 20
126.9686185579618
 30
0.0
 10
49.31919128256411
 20
127.172379896715
 30
0.0
 10
49.49597691418303
 20
127.2745160018169
 30
0.0
  0
SPLINE
  5
83
330
1F
100
AcDbEntity
  8
0
  6
Continuous
 62
     7
370
    25
100
AcDbSpline
210
0.0
220
0.0
230
1.0
 70
     8
 71
     3
 72
     9
 73
     5
 74
     0
 42
0.00000001
 43
0.00000001
 40
0.0
 40
0.0
 40
0.0
 40
0.0
 40
0.3237592092526685
 40
1.0
 40
1.0
 40
1.0
 40
1.0
 10
18.19460697745851
 20
128.0887302041586
 30
0.0
 10
18.27741512795275
 20
128.0408884744971
 30
0.0
 10
18.5331859234318
 20
127.8931189955317
 30
0.0
 10
18.78902978036816
 20
127.745318298312
 30
0.0
 10
18.96204183249064
 20
127.6453694379512
 30
0.0
  0
SPLINE
  5
84
330
1F
100
AcDbEntity
  8
0
  6
Continuous
 62
     7
370
    25
100
AcDbSpline
210
0.0
220
0.0
230
1.0
 70
     8
 71
     3
 72
     9
 73
     5
 74
     0
 42
0.00000001
 43
0.00000001
 40
0.0
 40
0.0
 40
0.0
 40
0.0
 40
0.505645737628568
 40
1.0
 40
1.0
 40
1.0
 40
1.0
 10
17.9129719073905
 20
126.2975950955346
 30
0.0
 10
18.08975730968998
 20
126.1954590393151
 30
0.0
 10
18.43938035433099
 20
125.9934677070071
 30
0.0
 10
18.78912838497867
 20
125.7914163544926
 30
0.0
 10
18.96202781468538
 20
125.6915314071591
 30
0.0
  0
LINE
  5
85
330
1F
100
AcDbEntity
  8
0
  6
Continuous
 62
     7
370
    25
100
AcDbLine
 10
17.9044761905
 20
124.5983632253
 30
0.0
 11
17.9044761905
 21
123.5887302042
 31
0.0
  0
LINE
  5
86
330
1F
100
AcDbEntity
  8
0
  6
Continuous
 62
     7
370
    25
100
AcDbLine
 10
17.9044761905
 20
126.5522093792
 30
0.0
 11
17.9044761905
 21
126.3079050473
 31
0.0
  0
LINE
  5
87
330
1F
100
AcDbEntity
  8
0
  6
Continuous
 62
     7
370
    25
100
AcDbLine
 10
49.5044761905
 20
127.2849227809
 30
0.0
 11
49.5044761905
 21
127.5290527774
 31
0.0
  0
LINE
  5
88
330
1F
100
AcDbEntity
  8
0
  6
Continuous
 62
     7
370
    25
100
AcDbLine
 10
49.5044761905
 20
123.5887302042
 30
0.0
 11
49.5044761905
 21
125.5752066235
 31
0.0
  0
LINE
  5
89
330
1F
100
AcDbEntity
  8
0
  6
Continuous
 62
     7
370
    25
100
AcDbLine
 10
222.9044761905
 20
124.5983632253
 30
0.0
 11
222.9044761905
 21
123.5887302042
 31
0.0
  0
LINE
  5
8A
330
1F
100
AcDbEntity
  8
0
  6
Continuous
 62
     7
370
    25
100
AcDbLine
 10
222.9044761905
 20
126.5522093792
 30
0.0
 11
222.9044761905
 21
126.3079050473
 31
0.0
  0
LINE
  5
8B
330
1F
100
AcDbEntity
  8
0
  6
Continuous
 62
     7
370
    25
100
AcDbLine
 10
254.5044761905
 20
127.2849227809
 30
0.0
 11
254.5044761905
 21
127.5290527774
 31
0.0
  0
LINE
  5
8C
330
1F
100
AcDbEntity
  8
0
  6
Continuous
 62
     7
370
    25
100
AcDbLine
 10
254.5044761905
 20
123.5887302042
 30
0.0
 11
254.5044761905
 21
125.5752066235
 31
0.0
  0
LINE
  5
8D
330
1F
100
AcDbEntity
  8
0
  6
Continuous
 62
     7
370
    25
100
AcDbLine
 10
223.9620278147
 20
125.697247937
 30
0.0
 11
223.9620278147
 21
125.2147826372
 31
0.0
  0
LINE
  5
8E
330
1F
100
AcDbEntity
  8
0
  6
Continuous
 62
     7
370
    25
100
AcDbLine
 10
223.9620418325
 20
127.651686916
 30
0.0
 11
223.9620418325
 21
127.1686369799
 31
0.0
  0
LINE
  5
8F
330
1F
100
AcDbEntity
  8
0
  6
Continuous
 62
     7
370
    25
100
AcDbLine
 10
253.4469070651
 20
126.1863513705
 30
0.0
 11
253.4469070651
 21
126.6684442672
 31
0.0
  0
LINE
  5
90
330
1F
100
AcDbEntity
  8
0
  6
Continuous
 62
     7
370
    25
100
AcDbLine
 10
18.9620278147
 20
125.697247937
 30
0.0
 11
18.9620278147
 21
125.2147826372
 31
0.0
  0
LINE
  5
91
330
1F
100
AcDbEntity
  8
0
  6
Continuous
 62
     7
370
    25
100
AcDbLine
 10
18.9620418325
 20
127.651686916
 30
0.0
 11
18.9620418325
 21
127.1686369799
 31
0.0
  0
LINE
  5
92
330
1F
100
AcDbEntity
  8
0
  6
Continuous
 62
     7
370
    25
100
AcDbLine
 10
48.4469070651
 20
126.1863513705
 30
0.0
 11
48.4469070651
 21
126.6684442672
 31
0.0
  0
LWPOLYLINE
  5
93
330
1F
100
AcDbEntity
  8
0
  6
Continuous
 62
     7
370
    25
100
AcDbPolyline
 90
        3
 70
   128
 43
0.0
 10
250.8409759855
 20
94.080979702
 10
251.778863679
 20
95.0564306981
 10
252.2069979637
 20
95.5562594198
  0
LINE
  5
94
330
1F
100
AcDbEntity
  8
0
  6
Continuous
 62
     7
370
    25
100
AcDbLine
 10
20.7193186154
 20
94.9569066993
 30
0.0
 11
21.5708185157
 21
94.0782444311
 31
0.0
  0
SPLINE
  5
95
330
1F
100
AcDbEntity
  8
0
  6
Continuous
 62
     7
370
    25
100
AcDbSpline
210
0.0
220
0.0
230
1.0
 70
     8
 71
     3
 72
    17
 73
    13
 74
     0
 42
0.00000001
 43
0.00000001
 40
0.0
 40
0.0
 40
0.0
 40
0.0
 40
0.0756332653142286
 40
0.1930136596727743
 40
0.2905901131450277
 40
0.3733958092920042
 40
0.4410795137775494
 40
0.4907881322128465
 40
0.5343533699283066
 40
0.5960599532732792
 40
0.7383464630004916
 40
1.0
 40
1.0
 40
1.0
 40
1.0
 10
-23.71736741124175
 20
102.68924063013
 30
0.0
 10
-23.71619623232352
 20
102.6567445506057
 30
0.0
 10
-23.7132074214054
 20
102.5738156011817
 30
0.0
 10
-23.65270155676477
 20
102.4609174407471
 30
0.0
 10
-23.57047248393895
 20
102.3642438232416
 30
0.0
 10
-23.48479896069275
 20
102.3025696568278
 30
0.0
 10
-23.41007293135183
 20
102.2677271465792
 30
0.0
 10
-23.35645009438458
 20
102.2509931632796
 30
0.0
 10
-23.31908335843608
 20
102.242320510906
 30
0.0
 10
-23.27742441538921
 20
102.2349780986627
 30
0.0
 10
-23.22204938527988
 20
102.2274768897066
 30
0.0
 10
-23.13143882862528
 20
102.2198327884941
 30
0.0
 10
-23.07274553284966
 20
102.2148812959752
 30
0.0
  0
SPLINE
  5
96
330
1F
100
AcDbEntity
  8
0
  6
Continuous
 62
     7
370
    25
100
AcDbSpline
210
0.0
220
0.0
230
1.0
 70
     8
 71
     3
 72
    17
 73
    13
 74
     0
 42
0.00000001
 43
0.00000001
 40
0.0
 40
0.0
 40
0.0
 40
0.0
 40
0.1531675051108888
 40
0.4506589263019984
 40
0.5802004646647976
 40
0.6279212947321188
 40
0.6630062858512644
 40
0.7130936998261287
 40
0.7788260355828612
 40
0.8627635024663847
 40
0.9533359018001779
 40
0.9999999999999999
 40
0.9999999999999999
 40
0.9999999999999999
 40
0.9999999999999999
 10
-22.71306552819705
 20
108.8000459656759
 30
0.0
 10
-22.78663384766244
 20
108.7948101571064
 30
0.0
 10
-23.0030911166903
 20
108.7794050366367
 30
0.0
 10
-23.18858567849733
 20
108.7626713589181
 30
0.0
 10
-23.2756916025727
 20
108.7523120020899
 30
0.0
 10
-23.33497940425536
 20
108.7412466756159
 30
0.0
 10
-23.39736622785998
 20
108.7238520489028
 30
0.0
 10
-23.48392210562375
 20
108.6859296042763
 30
0.0
 10
-23.58827666491811
 20
108.6089661263052
 30
0.0
 10
-23.68102410143511
 20
108.4827616172782
 30
0.0
 10
-23.73285197151845
 20
108.3429294522752
 30
0.0
 10
-23.72329264911694
 20
108.2540007819385
 30
0.0
 10
-23.72004222253737
 20
108.2237626435427
 30
0.0
  0
LINE
  5
97
330
1F
100
AcDbEntity
  8
0
  6
Continuous
 62
     7
370
    25
100
AcDbLine
 10
-19.2297448373
 20
109.0422134941
 30
0.0
 11
-22.7130655282
 21
108.8000459657
 31
0.0
  0
LINE
  5
98
330
1F
100
AcDbEntity
  8
0
  6
Continuous
 62
     7
370
    25
100
AcDbLine
 10
-22.7130655282
 20
102.186571865
 30
0.0
 11
-19.2297448373
 21
101.9444043366
 31
0.0
  0
ARC
  5
99
330
1F
100
AcDbEntity
  8
0
  6
Continuous
 62
     7
370
    25
100
AcDbCircle
 10
25.5954609853
 20
108.4652033911
 30
0.0
 40
8.99999513892304
100
AcDbArc
 50
77.1419190681
 51
90.0
  0
ARC
  5
9A
330
1F
100
AcDbEntity
  8
0
  6
Continuous
 62
     7
370
    25
100
AcDbCircle
 10
25.5954609853
 20
108.4652033911
 30
0.0
 40
8.99999513892304
100
AcDbArc
 50
90.0
 51
125.1719294169
  0
SPLINE
  5
9B
330
1F
100
AcDbEntity
  8
0
  6
Continuous
 62
     7
370
    25
100
AcDbSpline
210
0.0
220
0.0
230
1.0
 70
     8
 71
     3
 72
    17
 73
    13
 74
     0
 42
0.00000001
 43
0.00000001
 40
0.0
 40
0.0
 40
0.0
 40
0.0
 40
0.1531675051108888
 40
0.4506589263019984
 40
0.5802004646647976
 40
0.6279212947321188
 40
0.6630062858512644
 40
0.7130936998261287
 40
0.7788260355828612
 40
0.8627635024663847
 40
0.9533359018001779
 40
0.9999999999999999
 40
0.9999999999999999
 40
0.9999999999999999
 40
0.9999999999999999
 10
295.1220179091495
 20
102.4319931538129
 30
0.0
 10
295.1955862286148
 20
102.4372289623824
 30
0.0
 10
295.4120434976427
 20
102.4526340828522
 30
0.0
 10
295.5975380594498
 20
102.4693677605707
 30
0.0
 10
295.6846439835251
 20
102.479727117399
 30
0.0
 10
295.7439317852077
 20
102.490792443873
 30
0.0
 10
295.8063186088124
 20
102.508187070586
 30
0.0
 10
295.8928744865762
 20
102.5461095152126
 30
0.0
 10
295.9972290458705
 20
102.6230729931836
 30
0.0
 10
296.0899764823876
 20
102.7492775022107
 30
0.0
 10
296.1418043524708
 20
102.8891096672136
 30
0.0
 10
296.1322450300693
 20
102.9780383375504
 30
0.0
 10
296.1289946034898
 20
103.0082764759462
 30
0.0
  0
SPLINE
  5
9C
330
1F
100
AcDbEntity
  8
0
  6
Continuous
 62
     7
370
    25
100
AcDbSpline
210
0.0
220
0.0
230
1.0
 70
     8
 71
     3
 72
    17
 73
    13
 74
     0
 42
0.00000001
 43
0.00000001
 40
0.0
 40
0.0
 40
0.0
 40
0.0
 40
0.0756332653142286
 40
0.1930136596727743
 40
0.2905901131450277
 40
0.3733958092920042
 40
0.4410795137775494
 40
0.4907881322128465
 40
0.5343533699283066
 40
0.5960599532732792
 40
0.7383464630004916
 40
1.0
 40
1.0
 40
1.0
 40
1.0
 10
296.1263197921942
 20
108.5427984893588
 30
0.0
 10
296.1251486132759
 20
108.5752945688832
 30
0.0
 10
296.1221598023578
 20
108.6582235183072
 30
0.0
 10
296.0616539377172
 20
108.7711216787417
 30
0.0
 10
295.9794248648914
 20
108.8677952962472
 30
0.0
 10
295.8937513416452
 20
108.9294694626611
 30
0.0
 10
295.8190253123042
 20
108.9643119729096
 30
0.0
 10
295.765402475337
 20
108.9810459562092
 30
0.0
 10
295.7280357393885
 20
108.9897186085828
 30
0.0
 10
295.6863767963416
 20
108.9970610208262
 30
0.0
 10
295.6310017662323
 20
109.0045622297822
 30
0.0
 10
295.5403912095777
 20
109.0122063309947
 30
0.0
 10
295.4816979138021
 20
109.0171578235136
 30
0.0
  0
LINE
  5
9D
330
1F
100
AcDbEntity
  8
0
  6
Continuous
 62
     7
370
    25
100
AcDbLine
 10
291.6386972183
 20
102.1898256254
 30
0.0
 11
295.1220179091
 21
102.4319931538
 31
0.0
  0
LINE
  5
9E
330
1F
100
AcDbEntity
  8
0
  6
Continuous
 62
     7
370
    25
100
AcDbLine
 10
295.1220179091
 20
109.0454672545
 30
0.0
 11
291.6386972183
 21
109.2876347829
 31
0.0
  0
ARC
  5
9F
330
1F
100
AcDbEntity
  8
0
  6
Continuous
 62
     7
370
    25
100
AcDbCircle
 10
246.8134913957
 20
102.7668357284
 30
0.0
 40
8.999995138923026
100
AcDbArc
 50
257.1419190681
 51
270.0
  0
ARC
  5
A0
330
1F
100
AcDbEntity
  8
0
  6
Continuous
 62
     7
370
    25
100
AcDbCircle
 10
246.8134913957
 20
102.7668357284
 30
0.0
 40
8.999995138923026
100
AcDbArc
 50
270.0
 51
305.1719294169
  0
LINE
  5
A1
330
1F
100
AcDbEntity
  8
0
  6
Continuous
 62
     7
370
    25
100
AcDbLine
 10
13.6044761905
 20
129.7053109579
 30
0.0
 11
16.4044761905
 21
128.0887302042
 31
0.0
  0
LINE
  5
A2
330
1F
100
AcDbEntity
  8
0
  6
Continuous
 62
     7
370
    25
100
AcDbLine
 10
51.0044761905
 20
128.0887302042
 30
0.0
 11
53.8044761905
 21
129.7053109579
 31
0.0
  0
LINE
  5
A3
330
1F
100
AcDbEntity
  8
0
  6
Continuous
 62
     7
370
    25
100
AcDbLine
 10
53.8044761905
 20
142.3721494504
 30
0.0
 11
51.0044761905
 21
143.9887302042
 31
0.0
  0
LINE
  5
A4
330
1F
100
AcDbEntity
  8
0
  6
Continuous
 62
     7
370
    25
100
AcDbLine
 10
16.4044761905
 20
143.9887302042
 30
0.0
 11
13.6044761905
 21
142.3721494504
 31
0.0
  0
LINE
  5
A5
330
1F
100
AcDbEntity
  8
0
  6
Continuous
 62
     7
370
    25
100
AcDbLine
 10
258.8044761905
 20
142.3721494504
 30
0.0
 11
256.0044761905
 21
143.9887302042
 31
0.0
  0
LINE
  5
A6
330
1F
100
AcDbEntity
  8
0
  6
Continuous
 62
     7
370
    25
100
AcDbLine
 10
221.4044761905
 20
143.9887302042
 30
0.0
 11
218.6044761905
 21
142.3721494504
 31
0.0
  0
LINE
  5
A7
330
1F
100
AcDbEntity
  8
0
  6
Continuous
 62
     7
370
    25
100
AcDbLine
 10
218.6044761905
 20
129.7053109579
 30
0.0
 11
221.4044761905
 21
128.0887302042
 31
0.0
  0
LINE
  5
A8
330
1F
100
AcDbEntity
  8
0
  6
Continuous
 62
     7
370
    25
100
AcDbLine
 10
256.0044761905
 20
128.0887302042
 30
0.0
 11
258.8044761905
 21
129.7053109579
 31
0.0
  0
LINE
  5
A9
330
1F
100
AcDbEntity
  8
0
  6
Continuous
 62
     7
370
    25
100
AcDbLine
 10
7.9044761905
 20
167.6887302042
 30
0.0
 11
7.9044761905
 21
165.1887302042
 31
0.0
  0
LINE
  5
AA
330
1F
100
AcDbEntity
  8
0
  6
Continuous
 62
     7
370
    25
100
AcDbLine
 10
59.5044761905
 20
165.1887302042
 30
0.0
 11
59.5044761905
 21
167.6887302042
 31
0.0
  0
ARC
  5
AB
330
1F
100
AcDbEntity
  8
0
  6
Continuous
 62
     7
370
    25
100
AcDbCircle
 10
8.4044761905
 20
167.6887302042
 30
0.0
 40
0.5
100
AcDbArc
 50
90.0
 51
180.0
  0
ARC
  5
AC
330
1F
100
AcDbEntity
  8
0
  6
Continuous
 62
     7
370
    25
100
AcDbCircle
 10
59.0044761905
 20
167.6887302042
 30
0.0
 40
0.5
100
AcDbArc
 50
0.0
 51
90.0
  0
ARC
  5
AD
330
1F
100
AcDbEntity
  8
0
  6
Continuous
 62
     7
370
    25
100
AcDbCircle
 10
58.5044761905
 20
165.1887302042
 30
0.0
 40
1.0
100
AcDbArc
 50
270.0
 51
0.0
  0
ARC
  5
AE
330
1F
100
AcDbEntity
  8
0
  6
Continuous
 62
     7
370
    25
100
AcDbCircle
 10
8.9044761905
 20
165.1887302042
 30
0.0
 40
1.0
100
AcDbArc
 50
180.0
 51
270.0
  0
LINE
  5
AF
330
1F
100
AcDbEntity
  8
0
  6
Continuous
 62
     7
370
    25
100
AcDbLine
 10
18.0016393072
 20
149.2986035586
 30
0.0
 11
19.9073130738
 21
148.9038568498
 31
0.0
  0
LINE
  5
B0
330
1F
100
AcDbEntity
  8
0
  6
Continuous
 62
     7
370
    25
100
AcDbLine
 10
47.5016393072
 20
148.9038568498
 30
0.0
 11
49.4073130738
 21
149.2986035586
 31
0.0
  0
ARC
  5
B1
330
1F
100
AcDbEntity
  8
0
  6
Continuous
 62
     7
370
    25
100
AcDbCircle
 10
19.7044761905
 20
147.9246443096
 30
0.0
 40
1.000000000000008
100
AcDbArc
 50
0.0
 51
78.2970985198
  0
ARC
  5
B2
330
1F
100
AcDbEntity
  8
0
  6
Continuous
 62
     7
370
    25
100
AcDbCircle
 10
47.7044761905
 20
147.9246443096
 30
0.0
 40
1.000000000000008
100
AcDbArc
 50
101.7029014802
 51
180.0
  0
LINE
  5
B3
330
1F
100
AcDbEntity
  8
0
  6
Continuous
 62
     7
370
    25
100
AcDbLine
 10
20.7044761905
 20
147.9246443096
 30
0.0
 11
20.7044761905
 21
143.9887302042
 31
0.0
  0
LINE
  5
B4
330
1F
100
AcDbEntity
  8
0
  6
Continuous
 62
     7
370
    25
100
AcDbLine
 10
46.7044761905
 20
143.9887302042
 30
0.0
 11
46.7044761905
 21
147.9246443096
 31
0.0
  0
ARC
  5
B5
330
1F
100
AcDbEntity
  8
0
  6
Continuous
 62
     7
370
    25
100
AcDbCircle
 10
49.2044761905
 20
150.2778160987
 30
0.0
 40
1.000000000000025
100
AcDbArc
 50
281.7164470145
 51
360.0
  0
ARC
  5
B6
330
1F
100
AcDbEntity
  8
0
  6
Continuous
 62
     7
370
    25
100
AcDbCircle
 10
18.2044761905
 20
150.2778160987
 30
0.0
 40
1.000000000000011
100
AcDbArc
 50
180.0
 51
258.3073379187
  0
LINE
  5
B7
330
1F
100
AcDbEntity
  8
0
  6
Continuous
 62
     7
370
    25
100
AcDbLine
 10
212.9044761905
 20
167.6887302042
 30
0.0
 11
212.9044761905
 21
165.1887302042
 31
0.0
  0
LINE
  5
B8
330
1F
100
AcDbEntity
  8
0
  6
Continuous
 62
     7
370
    25
100
AcDbLine
 10
264.5044761905
 20
165.1887302042
 30
0.0
 11
264.5044761905
 21
167.6887302042
 31
0.0
  0
ARC
  5
B9
330
1F
100
AcDbEntity
  8
0
  6
Continuous
 62
     7
370
    25
100
AcDbCircle
 10
263.5044761905
 20
165.1887302042
 30
0.0
 40
1.0
100
AcDbArc
 50
270.0
 51
0.0
  0
ARC
  5
BA
330
1F
100
AcDbEntity
  8
0
  6
Continuous
 62
     7
370
    25
100
AcDbCircle
 10
213.9044761905
 20
165.1887302042
 30
0.0
 40
1.0
100
AcDbArc
 50
180.0
 51
270.0
  0
ARC
  5
BB
330
1F
100
AcDbEntity
  8
0
  6
Continuous
 62
     7
370
    25
100
AcDbCircle
 10
213.4044761905
 20
167.6887302042
 30
0.0
 40
0.5
100
AcDbArc
 50
90.0
 51
180.0
  0
ARC
  5
BC
330
1F
100
AcDbEntity
  8
0
  6
Continuous
 62
     7
370
    25
100
AcDbCircle
 10
264.0044761905
 20
167.6887302042
 30
0.0
 40
0.5
100
AcDbArc
 50
0.0
 51
90.0
  0
LINE
  5
BD
330
1F
100
AcDbEntity
  8
0
  6
Continuous
 62
     7
370
    25
100
AcDbLine
 10
223.0016393072
 20
149.2986035586
 30
0.0
 11
224.9073130738
 21
148.9038568498
 31
0.0
  0
LINE
  5
BE
330
1F
100
AcDbEntity
  8
0
  6
Continuous
 62
     7
370
    25
100
AcDbLine
 10
252.5016393072
 20
148.9038568498
 30
0.0
 11
254.4073130738
 21
149.2986035586
 31
0.0
  0
ARC
  5
BF
330
1F
100
AcDbEntity
  8
0
  6
Continuous
 62
     7
370
    25
100
AcDbCircle
 10
224.7044761905
 20
147.9246443096
 30
0.0
 40
1.00000000000001
100
AcDbArc
 50
0.0
 51
78.2970985198
  0
ARC
  5
C0
330
1F
100
AcDbEntity
  8
0
  6
Continuous
 62
     7
370
    25
100
AcDbCircle
 10
252.7044761905
 20
147.9246443096
 30
0.0
 40
1.00000000000001
100
AcDbArc
 50
101.7029014802
 51
180.0
  0
LINE
  5
C1
330
1F
100
AcDbEntity
  8
0
  6
Continuous
 62
     7
370
    25
100
AcDbLine
 10
225.7044761905
 20
147.9246443096
 30
0.0
 11
225.7044761905
 21
143.9887302042
 31
0.0
  0
LINE
  5
C2
330
1F
100
AcDbEntity
  8
0
  6
Continuous
 62
     7
370
    25
100
AcDbLine
 10
251.7044761905
 20
143.9887302042
 30
0.0
 11
251.7044761905
 21
147.9246443096
 31
0.0
  0
ARC
  5
C3
330
1F
100
AcDbEntity
  8
0
  6
Continuous
 62
     7
370
    25
100
AcDbCircle
 10
223.2044761905
 20
150.2778160987
 30
0.0
 40
1.000000000000013
100
AcDbArc
 50
180.0
 51
258.3073379187
  0
ARC
  5
C4
330
1F
100
AcDbEntity
  8
0
  6
Continuous
 62
     7
370
    25
100
AcDbCircle
 10
254.2044761905
 20
150.2778160987
 30
0.0
 40
1.000000000000026
100
AcDbArc
 50
281.7164470145
 51
0.0
  0
SPLINE
  5
C5
330
1F
100
AcDbEntity
  8
0
  6
Continuous
 62
     7
370
    25
100
AcDbSpline
210
0.0
220
0.0
230
1.0
 70
     8
 71
     3
 72
    23
 73
    19
 74
     0
 42
0.00000001
 43
0.00000001
 40
0.0
 40
0.0
 40
0.0
 40
0.0
 40
0.0440245992921993
 40
0.1083040443456759
 40
0.1725834893998126
 40
0.2368784870632891
 40
0.3011729598823284
 40
0.3650307480790104
 40
0.4288885362760406
 40
0.492735009265206
 40
0.556578561944479
 40
0.6201435815369316
 40
0.6837086011293156
 40
0.7471080038898024
 40
0.8105046990843079
 40
0.873775407479518
 40
0.9370461158742392
 40
1.0
 40
1.0
 40
1.0
 40
1.0
 10
46.77852157813673
 20
99.12875008305438
 30
0.0
 10
47.01102360016675
 20
99.64226212981924
 30
0.0
 10
47.58299721739986
 20
100.9055429405254
 30
0.0
 10
48.13328111455026
 20
103.0581405632147
 30
0.0
 10
48.36666222817612
 20
105.5236490239758
 30
0.0
 10
48.16686614629875
 20
107.9950818960451
 30
0.0
 10
47.56329034341822
 20
110.3934694422847
 30
0.0
 10
46.55809325961721
 20
112.6471169603106
 30
0.0
 10
45.19919838695848
 20
114.6999009669572
 30
0.0
 10
43.50869362424457
 20
116.4893605081515
 30
0.0
 10
41.54869110377521
 20
117.9727883719151
 30
0.0
 10
39.36565931337613
 20
119.0944131540412
 30
0.0
 10
37.03296950757268
 20
119.8391947706867
 30
0.0
 10
34.60967530233033
 20
120.1723310107721
 30
0.0
 10
32.16697562361785
 20
120.103509800863
 30
0.0
 10
29.77908438444847
 20
119.6088519940877
 30
0.0
 10
27.49340332565108
 20
118.7513195825986
 30
0.0
 10
26.1355759225779
 20
117.870551131391
 30
0.0
 10
25.45836629734595
 20
117.4312722720835
 30
0.0
  0
SPLINE
  5
C6
330
1F
100
AcDbEntity
  8
0
  6
Continuous
 62
     7
370
    25
100
AcDbSpline
210
0.0
220
0.0
230
1.0
 70
     8
 71
     3
 72
    15
 73
    11
 74
     0
 42
0.00000001
 43
0.00000001
 40
0.0
 40
0.0
 40
0.0
 40
0.0
 40
0.0816432728346518
 40
0.3132704761942798
 40
0.4317017666303061
 40
0.5501192765019126
 40
0.660918236742538
 40
0.7717068183732516
 40
0.8858584601500215
 40
0.9999999999999999
 40
0.9999999999999999
 40
0.9999999999999999
 40
0.9999999999999999
 10
227.2635642930742
 20
93.05497089537818
 30
0.0
 10
226.9176207950376
 20
93.12562724277855
 30
0.0
 10
225.5902133969326
 20
93.39674018114759
 30
0.0
 10
223.2674818350962
 20
93.7898524044535
 30
0.0
 10
220.4596330523567
 20
94.18382466750138
 30
0.0
 10
218.1810705726483
 20
94.45028746091685
 30
0.0
 10
215.7869057733345
 20
94.67362719877143
 30
0.0
 10
213.2692192648698
 20
94.84553364024977
 30
0.0
 10
210.5907105514052
 20
94.96435159590469
 30
0.0
 10
208.6833340872001
 20
94.98060424113271
 30
0.0
 10
207.7296880556076
 20
94.9887302041586
 30
0.0
  0
SPLINE
  5
C7
330
1F
100
AcDbEntity
  8
0
  6
Continuous
 62
     7
370
    25
100
AcDbSpline
210
0.0
220
0.0
230
1.0
 70
     8
 71
     3
 72
    15
 73
    11
 74
     0
 42
0.00000001
 43
0.00000001
 40
0.0
 40
0.0
 40
0.0
 40
0.0
 40
0.1250000000000001
 40
0.2500000000000003
 40
0.3749999999999999
 40
0.4999999999999999
 40
0.6250000000000001
 40
0.75
 40
0.875
 40
1.0
 40
1.0
 40
1.0
 40
1.0
 10
207.7296880556076
 20
94.9887302041586
 30
0.0
 10
207.4876931715542
 20
95.0287386052726
 30
0.0
 10
207.0037034034474
 20
95.10875540750061
 30
0.0
 10
206.3056310133204
 20
95.74797880478222
 30
0.0
 10
205.6622320207576
 20
96.74148075134411
 30
0.0
 10
205.0984803889861
 20
98.08868942127877
 30
0.0
 10
204.6351121689363
 20
99.72775540196011
 30
0.0
 10
204.2934002731714
 20
101.598390166068
 30
0.0
 10
204.0735413794286
 20
103.6279837711712
 30
0.0
 10
204.0460198498765
 20
105.0351480598295
 30
0.0
 10
204.0322590851004
 20
105.7387302041586
 30
0.0
  0
SPLINE
  5
C8
330
1F
100
AcDbEntity
  8
0
  6
Continuous
 62
     7
370
    25
100
AcDbSpline
210
0.0
220
0.0
230
1.0
 70
     8
 71
     3
 72
    15
 73
    11
 74
     0
 42
0.00000001
 43
0.00000001
 40
0.0
 40
0.0
 40
0.0
 40
0.0
 40
0.125
 40
0.2500000000000002
 40
0.3749999999999999
 40
0.5
 40
0.6250000000000001
 40
0.75
 40
0.8750000000000001
 40
1.0
 40
1.0
 40
1.0
 40
1.0
 10
64.6792643253448
 20
94.9887302041586
 30
0.0
 10
64.92125920939822
 20
95.0287386052726
 30
0.0
 10
65.40524897750502
 20
95.10875540750061
 30
0.0
 10
66.103321367632
 20
95.74797880478222
 30
0.0
 10
66.7467203601948
 20
96.74148075134411
 30
0.0
 10
67.31047199196634
 20
98.08868942127876
 30
0.0
 10
67.7738402120161
 20
99.72775540196012
 30
0.0
 10
68.11555210778107
 20
101.598390166068
 30
0.0
 10
68.33541100152385
 20
103.6279837711712
 30
0.0
 10
68.36293253107596
 20
105.0351480598295
 30
0.0
 10
68.37669329585202
 20
105.7387302041586
 30
0.0
  0
SPLINE
  5
C9
330
1F
100
AcDbEntity
  8
0
  6
Continuous
 62
     7
370
    25
100
AcDbSpline
210
0.0
220
0.0
230
1.0
 70
     8
 71
     3
 72
    15
 73
    11
 74
     0
 42
0.00000001
 43
0.00000001
 40
0.0
 40
0.0
 40
0.0
 40
0.0
 40
0.0816432728346542
 40
0.3132704761942816
 40
0.4317017666303077
 40
0.5501192765019138
 40
0.660918236742539
 40
0.7717068183732523
 40
0.8858584601500218
 40
0.9999999999999999
 40
0.9999999999999999
 40
0.9999999999999999
 40
0.9999999999999999
 10
45.14538808787821
 20
93.05497089537816
 30
0.0
 10
45.49133158591476
 20
93.12562724277855
 30
0.0
 10
46.81873898401978
 20
93.39674018114758
 30
0.0
 10
49.14147054585624
 20
93.7898524044535
 30
0.0
 10
51.94931932859573
 20
94.18382466750138
 30
0.0
 10
54.22788180830404
 20
94.45028746091685
 30
0.0
 10
56.62204660761795
 20
94.67362719877143
 30
0.0
 10
59.13973311608256
 20
94.84553364024977
 30
0.0
 10
61.8182418295473
 20
94.96435159590469
 30
0.0
 10
63.72561829375233
 20
94.98060424113271
 30
0.0
 10
64.67926432534479
 20
94.9887302041586
 30
0.0
  0
SPLINE
  5
CA
330
1F
100
AcDbEntity
  8
0
  6
Continuous
 62
     7
370
    25
100
AcDbSpline
210
0.0
220
0.0
230
1.0
 70
     8
 71
     3
 72
    15
 73
    11
 74
     0
 42
0.00000001
 43
0.00000001
 40
0.0
 40
0.0
 40
0.0
 40
0.0
 40
0.125
 40
0.2500000000000002
 40
0.3749999999999999
 40
0.5
 40
0.6250000000000001
 40
0.75
 40
0.8750000000000001
 40
1.0
 40
1.0
 40
1.0
 40
1.0
 10
207.7296880556076
 20
116.4887302041586
 30
0.0
 10
207.4876931715542
 20
116.4487218030446
 30
0.0
 10
207.0037034034474
 20
116.3687050008166
 30
0.0
 10
206.3056310133204
 20
115.729481603535
 30
0.0
 10
205.6622320207576
 20
114.7359796569731
 30
0.0
 10
205.0984803889861
 20
113.3887709870384
 30
0.0
 10
204.6351121689363
 20
111.7497050063571
 30
0.0
 10
204.2934002731713
 20
109.8790702422492
 30
0.0
 10
204.0735413794286
 20
107.849476637146
 30
0.0
 10
204.0460198498765
 20
106.4423123484877
 30
0.0
 10
204.0322590851004
 20
105.7387302041586
 30
0.0
  0
SPLINE
  5
CB
330
1F
100
AcDbEntity
  8
0
  6
Continuous
 62
     7
370
    25
100
AcDbSpline
210
0.0
220
0.0
230
1.0
 70
     8
 71
     3
 72
    12
 73
     8
 74
     0
 42
0.00000001
 43
0.00000001
 40
0.0
 40
0.0
 40
0.0
 40
0.0
 40
0.0911986768867012
 40
0.3150229849906386
 40
0.538826327327591
 40
0.7694233670843406
 40
1.0
 40
1.0
 40
1.0
 40
1.0
 10
219.0093714139046
 20
117.126922937299
 30
0.0
 10
218.7084036039672
 20
117.0935942568423
 30
0.0
 10
217.6687856938264
 20
116.9784686786905
 30
0.0
 10
215.7855986083527
 20
116.8040381281074
 30
0.0
 10
213.2695796645104
 20
116.6318702697853
 30
0.0
 10
210.5906193411304
 20
116.51312311105
 30
0.0
 10
208.6833036846721
 20
116.4968609332564
 30
0.0
 10
207.7296880556077
 20
116.4887302041586
 30
0.0
  0
LINE
  5
CC
330
1F
100
AcDbEntity
  8
0
  6
Continuous
 62
     7
370
    25
100
AcDbLine
 10
225.3757456026
 20
118.0579593393
 30
0.0
 11
225.1656530141
 21
118.0207831595
 31
0.0
  0
SPLINE
  5
CD
330
1F
100
AcDbEntity
  8
0
  6
Continuous
 62
     7
370
    25
100
AcDbSpline
210
0.0
220
0.0
230
1.0
 70
     8
 71
     3
 72
     9
 73
     5
 74
     0
 42
0.00000001
 43
0.00000001
 40
0.0
 40
0.0
 40
0.0
 40
0.0
 40
0.5895181626039666
 40
1.0
 40
1.0
 40
1.0
 40
1.0
 10
227.2634301718126
 20
118.4222572080996
 30
0.0
 10
226.9215841496893
 20
118.3518514173251
 30
0.0
 10
226.3417105447552
 20
118.2324220337359
 30
0.0
 10
225.656863057529
 20
118.1087318948107
 30
0.0
 10
225.3757456026364
 20
118.057959339317
 30
0.0
  0
LINE
  5
CE
330
1F
100
AcDbEntity
  8
0
  6
Continuous
 62
     7
370
    25
100
AcDbLine
 10
47.0332067783
 20
118.0579593393
 30
0.0
 11
47.3638122184
 21
117.9994582404
 31
0.0
  0
SPLINE
  5
CF
330
1F
100
AcDbEntity
  8
0
  6
Continuous
 62
     7
370
    25
100
AcDbSpline
210
0.0
220
0.0
230
1.0
 70
     8
 71
     3
 72
    12
 73
     8
 74
     0
 42
0.00000001
 43
0.00000001
 40
0.0
 40
0.0
 40
0.0
 40
0.0
 40
0.0911986768867012
 40
0.3150229849906386
 40
0.538826327327591
 40
0.7694233670843406
 40
1.0
 40
1.0
 40
1.0
 40
1.0
 10
53.39958096704783
 20
117.126922937299
 30
0.0
 10
53.7005487769852
 20
117.0935942568423
 30
0.0
 10
54.74016668712601
 20
116.9784686786905
 30
0.0
 10
56.62335377259968
 20
116.8040381281074
 30
0.0
 10
59.139372716442
 20
116.6318702697853
 30
0.0
 10
61.81833303982201
 20
116.51312311105
 30
0.0
 10
63.72564869628031
 20
116.4968609332564
 30
0.0
 10
64.67926432534477
 20
116.4887302041586
 30
0.0
  0
SPLINE
  5
D0
330
1F
100
AcDbEntity
  8
0
  6
Continuous
 62
     7
370
    25
100
AcDbSpline
210
0.0
220
0.0
230
1.0
 70
     8
 71
     3
 72
    15
 73
    11
 74
     0
 42
0.00000001
 43
0.00000001
 40
0.0
 40
0.0
 40
0.0
 40
0.0
 40
0.1250000000000001
 40
0.2500000000000003
 40
0.3749999999999999
 40
0.4999999999999999
 40
0.6250000000000001
 40
0.75
 40
0.875
 40
1.0
 40
1.0
 40
1.0
 40
1.0
 10
64.6792643253448
 20
116.4887302041586
 30
0.0
 10
64.92125920939822
 20
116.4487218030446
 30
0.0
 10
65.40524897750504
 20
116.3687050008166
 30
0.0
 10
66.103321367632
 20
115.729481603535
 30
0.0
 10
66.74672036019479
 20
114.7359796569731
 30
0.0
 10
67.31047199196634
 20
113.3887709870384
 30
0.0
 10
67.77384021201611
 20
111.7497050063571
 30
0.0
 10
68.11555210778103
 20
109.8790702422492
 30
0.0
 10
68.33541100152387
 20
107.849476637146
 30
0.0
 10
68.36293253107596
 20
106.4423123484877
 30
0.0
 10
68.37669329585202
 20
105.7387302041586
 30
0.0
  0
SPLINE
  5
D1
330
1F
100
AcDbEntity
  8
0
  6
Continuous
 62
     7
370
    25
100
AcDbSpline
210
0.0
220
0.0
230
1.0
 70
     8
 71
     3
 72
     9
 73
     5
 74
     0
 42
0.00000001
 43
0.00000001
 40
0.0
 40
0.0
 40
0.0
 40
0.0
 40
0.589518162603974
 40
1.0
 40
1.0
 40
1.0
 40
1.0
 10
45.14552220913978
 20
118.4222572080996
 30
0.0
 10
45.48736823126308
 20
118.3518514173251
 30
0.0
 10
46.06724183619716
 20
118.2324220337359
 30
0.0
 10
46.75208932342341
 20
118.1087318948107
 30
0.0
 10
47.03320677831609
 20
118.057959339317
 30
0.0
  0
LINE
  5
D2
330
1F
100
AcDbEntity
  8
0
  6
Continuous
 62
     7
370
    25
100
AcDbLine
 10
234.4764692475
 20
123.5887302042
 30
0.0
 11
238.7044761905
 21
123.5887302042
 31
0.0
  0
LINE
  5
D3
330
1F
100
AcDbEntity
  8
0
  6
Continuous
 62
     7
370
    25
100
AcDbLine
 10
37.9324831335
 20
123.5887302042
 30
0.0
 11
33.7044761905
 21
123.5887302042
 31
0.0
  0
LINE
  5
D4
330
1F
100
AcDbEntity
  8
0
  6
Continuous
 62
     7
370
    25
100
AcDbLine
 10
238.7044761905
 20
123.5887302042
 30
0.0
 11
245.7207689579
 21
123.5887302042
 31
0.0
  0
LINE
  5
D5
330
1F
100
AcDbEntity
  8
0
  6
Continuous
 62
     7
370
    25
100
AcDbLine
 10
33.7044761905
 20
123.5887302042
 30
0.0
 11
26.6881834231
 21
123.5887302042
 31
0.0
  0
LINE
  5
D6
330
1F
100
AcDbEntity
  8
0
  6
Continuous
 62
     7
370
    25
100
AcDbLine
 10
42.3459750766
 20
123.5887302042
 30
0.0
 11
37.9324831335
 21
123.5887302042
 31
0.0
  0
LINE
  5
D7
330
1F
100
AcDbEntity
  8
0
  6
Continuous
 62
     7
370
    25
100
AcDbLine
 10
230.0629773043
 20
123.5887302042
 30
0.0
 11
234.4764692475
 21
123.5887302042
 31
0.0
  0
SPLINE
  5
D8
330
1F
100
AcDbEntity
  8
0
  6
Continuous
 62
     7
370
    25
100
AcDbSpline
210
0.0
220
0.0
230
1.0
 70
     8
 71
     3
 72
     9
 73
     5
 74
     0
 42
0.00000001
 43
0.00000001
 40
0.0
 40
0.0
 40
0.0
 40
0.0
 40
0.673253769858657
 40
1.0
 40
1.0
 40
1.0
 40
1.0
 10
44.75750221895834
 20
122.9794978825591
 30
0.0
 10
44.23414544427179
 20
123.1036003308239
 30
0.0
 10
43.4567910526337
 20
123.2879326789232
 30
0.0
 10
42.61954279009176
 20
123.514650885014
 30
0.0
 10
42.3459750766138
 20
123.5887302041586
 30
0.0
  0
LWPOLYLINE
  5
D9
330
1F
100
AcDbEntity
  8
0
  6
Continuous
 62
     7
370
    25
100
AcDbPolyline
 90
        9
 70
   128
 43
0.0
 10
44.757502219
 20
122.9794978826
 10
44.7130887099
 20
122.0812357384
 10
44.774911066
 20
121.2127721928
 10
44.9409184167
 20
120.4029173172
 10
45.2056036986
 20
119.6785369218
 10
45.5601863454
 20
119.0636613197
 10
45.9929035703
 20
118.5786881547
 10
46.4894005808
 20
118.2397057377
 10
47.0332067783
 20
118.0579593393
  0
SPLINE
  5
DA
330
1F
100
AcDbEntity
  8
0
  6
Continuous
 62
     7
370
    25
100
AcDbSpline
210
0.0
220
0.0
230
1.0
 70
     8
 71
     3
 72
     9
 73
     5
 74
     0
 42
0.00000001
 43
0.00000001
 40
0.0
 40
0.0
 40
0.0
 40
0.0
 40
0.673253769858657
 40
1.0
 40
1.0
 40
1.0
 40
1.0
 10
227.6514501619941
 20
122.9794978825591
 30
0.0
 10
228.1748069366806
 20
123.1036003308239
 30
0.0
 10
228.9521613283187
 20
123.2879326789232
 30
0.0
 10
229.7894095908606
 20
123.514650885014
 30
0.0
 10
230.0629773043386
 20
123.5887302041586
 30
0.0
  0
LWPOLYLINE
  5
DB
330
1F
100
AcDbEntity
  8
0
  6
Continuous
 62
     7
370
    25
100
AcDbPolyline
 90
        9
 70
   128
 43
0.0
 10
227.651450162
 20
122.9794978826
 10
227.6958636711
 20
122.0812357384
 10
227.6340413149
 20
121.2127721928
 10
227.4680339643
 20
120.4029173172
 10
227.2033486823
 20
119.6785369218
 10
226.8487660356
 20
119.0636613197
 10
226.4160488106
 20
118.5786881547
 10
225.9195518001
 20
118.2397057377
 10
225.3757456026
 20
118.0579593393
  0
SPLINE
  5
DC
330
1F
100
AcDbEntity
  8
0
  6
Continuous
 62
     7
370
    25
100
AcDbSpline
210
0.0
220
0.0
230
1.0
 70
     8
 71
     3
 72
    10
 73
     6
 74
     0
 42
0.00000001
 43
0.00000001
 40
0.0
 40
0.0
 40
0.0
 40
0.0
 40
0.822194138410185
 40
0.9999856333282495
 40
1.0
 40
1.0
 40
1.0
 40
1.0
 10
149.6665841392343
 20
115.5537038530432
 30
0.0
 10
148.8882943071273
 20
115.8257620715181
 30
0.0
 10
147.9417068598154
 20
116.1566502367266
 30
0.0
 10
146.9821855028218
 20
116.3191883277182
 30
0.0
 10
146.8110323042115
 20
116.345270381332
 30
0.0
 10
146.8110184750734
 20
116.3452724887558
 30
0.0
  0
SPLINE
  5
DD
330
1F
100
AcDbEntity
  8
0
  6
Continuous
 62
     7
370
    25
100
AcDbSpline
210
0.0
220
0.0
230
1.0
 70
     8
 71
     3
 72
    10
 73
     6
 74
     0
 42
0.00000001
 43
0.00000001
 40
0.0
 40
0.0
 40
0.0
 40
0.0
 40
0.0000143666717489
 40
0.1778058615897024
 40
1.0
 40
1.0
 40
1.0
 40
1.0
 10
125.5979339058791
 20
95.1321879195615
 30
0.0
 10
125.5979200767408
 20
95.1321900269853
 30
0.0
 10
125.4267668762232
 20
95.15827208055596
 30
0.0
 10
124.4672455253413
 20
95.32081017168557
 30
0.0
 10
123.5206580757222
 20
95.65169833684193
 30
0.0
 10
122.7423682417181
 20
95.92375655527397
 30
0.0
  0
SPLINE
  5
DE
330
1F
100
AcDbEntity
  8
0
  6
Continuous
 62
     7
370
    25
100
AcDbSpline
210
0.0
220
0.0
230
1.0
 70
     8
 71
     3
 72
    10
 73
     6
 74
     0
 42
0.00000001
 43
0.00000001
 40
0.0
 40
0.0
 40
0.0
 40
0.0
 40
0.0000143666717489
 40
0.1778058615897024
 40
1.0
 40
1.0
 40
1.0
 40
1.0
 10
146.8110184750733
 20
95.1321879195615
 30
0.0
 10
146.8110323042116
 20
95.1321900269853
 30
0.0
 10
146.9821855047292
 20
95.15827208055596
 30
0.0
 10
147.9417068556111
 20
95.32081017168557
 30
0.0
 10
148.8882943052302
 20
95.65169833684193
 30
0.0
 10
149.6665841392343
 20
95.92375655527397
 30
0.0
  0
SPLINE
  5
DF
330
1F
100
AcDbEntity
  8
0
  6
Continuous
 62
     7
370
    25
100
AcDbSpline
210
0.0
220
0.0
230
1.0
 70
     8
 71
     3
 72
    10
 73
     6
 74
     0
 42
0.00000001
 43
0.00000001
 40
0.0
 40
0.0
 40
0.0
 40
0.0
 40
0.822194138410185
 40
0.9999856333282495
 40
1.0
 40
1.0
 40
1.0
 40
1.0
 10
122.7423682417181
 20
115.5537038530432
 30
0.0
 10
123.5206580738251
 20
115.8257620715181
 30
0.0
 10
124.467245521137
 20
116.1566502367266
 30
0.0
 10
125.4267668781306
 20
116.3191883277182
 30
0.0
 10
125.5979200767409
 20
116.345270381332
 30
0.0
 10
125.5979339058791
 20
116.3452724887558
 30
0.0
  0
SPLINE
  5
E0
330
1F
100
AcDbEntity
  8
0
  6
Continuous
 62
     7
370
    25
100
AcDbSpline
210
0.0
220
0.0
230
1.0
 70
     8
 71
     3
 72
    16
 73
    12
 74
     0
 42
0.00000001
 43
0.00000001
 40
0.0
 40
0.0
 40
0.0
 40
0.0
 40
0.0624272887184103
 40
0.2142379262836522
 40
0.3543756579305877
 40
0.4949796458254478
 40
0.6192990557321093
 40
0.7435282848146417
 40
0.8455984262736979
 40
0.9474255412487883
 40
1.0
 40
1.0
 40
1.0
 40
1.0
 10
154.7246620159404
 20
106.6041001494289
 30
0.0
 10
154.5841768439967
 20
106.8300848973976
 30
0.0
 10
154.102059928002
 20
107.6056191993104
 30
0.0
 10
153.5704035366524
 20
109.0436604013215
 30
0.0
 10
153.1257676187074
 20
110.7079526339972
 30
0.0
 10
152.7404740815089
 20
112.1189363886113
 30
0.0
 10
152.2625034227655
 20
113.2968021583256
 30
0.0
 10
151.7029717651719
 20
114.199673121202
 30
0.0
 10
151.0155217454606
 20
114.8797811433881
 30
0.0
 10
150.3379437286662
 20
115.3030411092359
 30
0.0
 10
149.8371177349329
 20
115.4900324321206
 30
0.0
 10
149.6665841392343
 20
115.5537038530432
 30
0.0
  0
SPLINE
  5
E1
330
1F
100
AcDbEntity
  8
0
  6
Continuous
 62
     7
370
    25
100
AcDbSpline
210
0.0
220
0.0
230
1.0
 70
     8
 71
     3
 72
    11
 73
     7
 74
     0
 42
0.00000001
 43
0.00000001
 40
0.0
 40
0.0
 40
0.0
 40
0.0
 40
0.0208399923946955
 40
0.3043832614294072
 40
0.5943798184347352
 40
1.0
 40
1.0
 40
1.0
 40
1.0
 10
151.3091444071484
 20
105.7387302041586
 30
0.0
 10
151.3278632425362
 20
105.7481610685542
 30
0.0
 10
151.6012654615769
 20
105.8859057091693
 30
0.0
 10
152.1725131225939
 20
106.145260185819
 30
0.0
 10
153.2695905347731
 20
106.4239807685703
 30
0.0
 10
154.1887134406705
 20
106.5377565183434
 30
0.0
 10
154.7246620159404
 20
106.6041001494289
 30
0.0
  0
SPLINE
  5
E2
330
1F
100
AcDbEntity
  8
0
  6
Continuous
 62
     7
370
    25
100
AcDbSpline
210
0.0
220
0.0
230
1.0
 70
     8
 71
     3
 72
    11
 73
     7
 74
     0
 42
0.00000001
 43
0.00000001
 40
0.0
 40
0.0
 40
0.0
 40
0.0
 40
0.4056165424583451
 40
0.688433376435867
 40
0.9791601945992291
 40
1.0
 40
1.0
 40
1.0
 40
1.0
 10
154.7246620159329
 20
104.8733602588771
 30
0.0
 10
154.1887030102977
 20
104.9397553750615
 30
0.0
 10
153.279045663375
 20
105.0524446005469
 30
0.0
 10
152.1800317806592
 20
105.329435826233
 30
0.0
 10
151.6077179538062
 20
105.5882992839406
 30
0.0
 10
151.3278631022998
 20
105.7292991257244
 30
0.0
 10
151.3091444071484
 20
105.7387302041586
 30
0.0
  0
SPLINE
  5
E3
330
1F
100
AcDbEntity
  8
0
  6
Continuous
 62
     7
370
    25
100
AcDbSpline
210
0.0
220
0.0
230
1.0
 70
     8
 71
     3
 72
    16
 73
    12
 74
     0
 42
0.00000001
 43
0.00000001
 40
0.0
 40
0.0
 40
0.0
 40
0.0
 40
0.0989384758571001
 40
0.1981552343929994
 40
0.256441724224095
 40
0.3806791327730121
 40
0.5050067280837189
 40
0.6456199735872837
 40
0.7857669321438094
 40
0.939462694429105
 40
0.9999999999999999
 40
0.9999999999999999
 40
0.9999999999999999
 40
0.9999999999999999
 10
149.6665841392343
 20
95.92375655527397
 30
0.0
 10
149.9789718883443
 20
96.05045469412876
 30
0.0
 10
150.6046260346219
 20
96.30420733368011
 30
0.0
 10
151.2102366778019
 20
96.77847286767555
 30
0.0
 10
151.7726541533306
 20
97.3909122386011
 30
0.0
 10
152.262572403555
 20
98.18053182710953
 30
0.0
 10
152.7404466133577
 20
99.35856103372126
 30
0.0
 10
153.125802453973
 20
100.7695053952718
 30
0.0
 10
153.572217229067
 20
102.440984624206
 30
0.0
 10
154.1053771565216
 20
103.8795581247327
 30
0.0
 10
154.5882214080827
 20
104.6544061455885
 30
0.0
 10
154.7246620159329
 20
104.8733602588771
 30
0.0
  0
SPLINE
  5
E4
330
1F
100
AcDbEntity
  8
0
  6
Continuous
 62
     7
370
    25
100
AcDbSpline
210
0.0
220
0.0
230
1.0
 70
     8
 71
     3
 72
    11
 73
     7
 74
     0
 42
0.00000001
 43
0.00000001
 40
0.0
 40
0.0
 40
0.0
 40
0.0
 40
0.4056165424583468
 40
0.6884333764358724
 40
0.979160194599229
 40
1.0
 40
1.0
 40
1.0
 40
1.0
 10
117.6842903650196
 20
104.8733602588771
 30
0.0
 10
118.2202493706547
 20
104.9397553750615
 30
0.0
 10
119.1299067175774
 20
105.0524446005468
 30
0.0
 10
120.2289206002931
 20
105.3294358262333
 30
0.0
 10
120.8012344271463
 20
105.5882992839406
 30
0.0
 10
121.0810892786526
 20
105.7292991257244
 30
0.0
 10
121.099807973804
 20
105.7387302041586
 30
0.0
  0
SPLINE
  5
E5
330
1F
100
AcDbEntity
  8
0
  6
Continuous
 62
     7
370
    25
100
AcDbSpline
210
0.0
220
0.0
230
1.0
 70
     8
 71
     3
 72
    16
 73
    12
 74
     0
 42
0.00000001
 43
0.00000001
 40
0.0
 40
0.0
 40
0.0
 40
0.0
 40
0.0989384758571001
 40
0.1981552343929994
 40
0.256441724224095
 40
0.3806791327730121
 40
0.5050067280837189
 40
0.6456199735872837
 40
0.7857669321438094
 40
0.939462694429105
 40
0.9999999999999999
 40
0.9999999999999999
 40
0.9999999999999999
 40
0.9999999999999999
 10
122.7423682417181
 20
95.92375655527397
 30
0.0
 10
122.4299804926082
 20
96.05045469412876
 30
0.0
 10
121.8043263463305
 20
96.30420733368011
 30
0.0
 10
121.1987157031505
 20
96.77847286767555
 30
0.0
 10
120.6362982276219
 20
97.3909122386011
 30
0.0
 10
120.1463799773974
 20
98.18053182710953
 30
0.0
 10
119.6685057675947
 20
99.35856103372126
 30
0.0
 10
119.2831499269794
 20
100.7695053952718
 30
0.0
 10
118.8367351518854
 20
102.440984624206
 30
0.0
 10
118.3035752244309
 20
103.8795581247327
 30
0.0
 10
117.8207309728697
 20
104.6544061455885
 30
0.0
 10
117.6842903650196
 20
104.8733602588771
 30
0.0
  0
SPLINE
  5
E6
330
1F
100
AcDbEntity
  8
0
  6
Continuous
 62
     7
370
    25
100
AcDbSpline
210
0.0
220
0.0
230
1.0
 70
     8
 71
     3
 72
    11
 73
     7
 74
     0
 42
0.00000001
 43
0.00000001
 40
0.0
 40
0.0
 40
0.0
 40
0.0
 40
0.0208399923946953
 40
0.3043832614294023
 40
0.5943798184347383
 40
1.0
 40
1.0
 40
1.0
 40
1.0
 10
121.099807973804
 20
105.7387302041586
 30
0.0
 10
121.0810891384162
 20
105.7481610685542
 30
0.0
 10
120.8076869193755
 20
105.8859057091693
 30
0.0
 10
120.2364392583587
 20
106.1452601858196
 30
0.0
 10
119.1393618461793
 20
106.42398076857
 30
0.0
 10
118.220238940282
 20
106.5377565183433
 30
0.0
 10
117.684290365012
 20
106.6041001494289
 30
0.0
  0
SPLINE
  5
E7
330
1F
100
AcDbEntity
  8
0
  6
Continuous
 62
     7
370
    25
100
AcDbSpline
210
0.0
220
0.0
230
1.0
 70
     8
 71
     3
 72
    16
 73
    12
 74
     0
 42
0.00000001
 43
0.00000001
 40
0.0
 40
0.0
 40
0.0
 40
0.0
 40
0.0624248131099613
 40
0.2142294304922876
 40
0.3517572753501816
 40
0.4949828669895426
 40
0.6178117588422439
 40
0.7435294175532033
 40
0.8439850676452121
 40
0.9474276261346927
 40
1.0
 40
1.0
 40
1.0
 40
1.0
 10
117.684290365012
 20
106.6041001494289
 30
0.0
 10
117.8247395527356
 20
106.8300999359199
 30
0.0
 10
118.3067329781085
 20
107.6056858470231
 30
0.0
 10
118.8363668402933
 20
109.0323706759978
 30
0.0
 10
119.2753811494913
 20
110.7006834874076
 30
0.0
 10
119.6651401938502
 20
112.1048480274488
 30
0.0
 10
120.1441170492404
 20
113.2940068200036
 30
0.0
 10
120.7005464850267
 20
114.1914887990055
 30
0.0
 10
121.3891141504513
 20
114.8788476962466
 30
0.0
 10
122.0658309048906
 20
115.300824528554
 30
0.0
 10
122.5718536766179
 20
115.4899681126918
 30
0.0
 10
122.7423682417181
 20
115.5537038530432
 30
0.0
  0
SPLINE
  5
E8
330
1F
100
AcDbEntity
  8
0
  6
Continuous
 62
     7
370
    25
100
AcDbSpline
210
0.0
220
0.0
230
1.0
 70
     8
 71
     3
 72
    10
 73
     6
 74
     0
 42
0.00000001
 43
0.00000001
 40
0.0
 40
0.0
 40
0.0
 40
0.0
 40
0.4002088599189573
 40
0.8141959364606278
 40
1.0
 40
1.0
 40
1.0
 40
1.0
 10
49.46154536952123
 20
122.095013300642
 30
0.0
 10
48.96731523125509
 20
122.1600519871248
 30
0.0
 10
47.96183981440867
 20
122.2923684837106
 30
0.0
 10
46.26347723340746
 20
122.6298909543162
 30
0.0
 10
45.11368600926646
 20
122.8968110387371
 30
0.0
 10
44.75750221895834
 20
122.9794978825591
 30
0.0
  0
ARC
  5
E9
330
1F
100
AcDbEntity
  8
0
  6
Continuous
 62
     7
370
    25
100
AcDbCircle
 10
54.1583781518
 20
121.7732139162
 30
0.0
 40
4.707843776969129
100
AcDbArc
 50
176.080555057
 51
260.7247669696
  0
ARC
  5
EA
330
1F
100
AcDbEntity
  8
0
  6
Continuous
 62
     7
370
    25
100
AcDbCircle
 10
218.2505742292
 20
121.7732139162
 30
0.0
 40
4.70784377696915
100
AcDbArc
 50
279.2752330304
 51
3.919444943
  0
SPLINE
  5
EB
330
1F
100
AcDbEntity
  8
0
  6
Continuous
 62
     7
370
    25
100
AcDbSpline
210
0.0
220
0.0
230
1.0
 70
     8
 71
     3
 72
    10
 73
     6
 74
     0
 42
0.00000001
 43
0.00000001
 40
0.0
 40
0.0
 40
0.0
 40
0.0
 40
0.4002088599189573
 40
0.8141959364606278
 40
1.0
 40
1.0
 40
1.0
 40
1.0
 10
222.9474070114312
 20
122.095013300642
 30
0.0
 10
223.4416371496973
 20
122.1600519871248
 30
0.0
 10
224.4471125665438
 20
122.2923684837106
 30
0.0
 10
226.145475147545
 20
122.6298909543162
 30
0.0
 10
227.295266371686
 20
122.8968110387371
 30
0.0
 10
227.6514501619941
 20
122.9794978825591
 30
0.0
  0
SPLINE
  5
EC
330
1F
100
AcDbEntity
  8
0
  6
Continuous
 62
     7
370
    25
100
AcDbSpline
210
0.0
220
0.0
230
1.0
 70
     8
 71
     3
 72
    10
 73
     6
 74
     0
 42
0.00000001
 43
0.00000001
 40
0.0
 40
0.0
 40
0.0
 40
0.0
 40
0.3644327143101643
 40
0.7393133379813291
 40
1.0
 40
1.0
 40
1.0
 40
1.0
 10
51.2044761904762
 20
121.8674959801796
 30
0.0
 10
51.15767271034327
 20
121.8729195098839
 30
0.0
 10
51.06272394266274
 20
121.883922056285
 30
0.0
 10
50.40664037678499
 20
121.9617135231941
 30
0.0
 10
49.73643806412417
 20
122.0562413943987
 30
0.0
 10
49.46154536952124
 20
122.095013300642
 30
0.0
  0
LINE
  5
ED
330
1F
100
AcDbEntity
  8
0
  6
Continuous
 62
     7
370
    25
100
AcDbLine
 10
26.6881834231
 20
123.5887302042
 30
0.0
 11
16.2044761905
 21
123.5887302042
 31
0.0
  0
LINE
  5
EE
330
1F
100
AcDbEntity
  8
0
  6
Continuous
 62
     7
370
    25
100
AcDbLine
 10
51.2044761905
 20
123.5887302042
 30
0.0
 11
42.3459750766
 21
123.5887302042
 31
0.0
  0
SPLINE
  5
EF
330
1F
100
AcDbEntity
  8
0
  6
Continuous
 62
     7
370
    25
100
AcDbSpline
210
0.0
220
0.0
230
1.0
 70
     8
 71
     3
 72
    10
 73
     6
 74
     0
 42
0.00000001
 43
0.00000001
 40
0.0
 40
0.0
 40
0.0
 40
0.0
 40
0.3644327143101643
 40
0.7393133379813291
 40
1.0
 40
1.0
 40
1.0
 40
1.0
 10
221.2044761904762
 20
121.8674959801796
 30
0.0
 10
221.2512796706091
 20
121.8729195098839
 30
0.0
 10
221.3462284382897
 20
121.883922056285
 30
0.0
 10
222.0023120041674
 20
121.9617135231941
 30
0.0
 10
222.6725143168283
 20
122.0562413943987
 30
0.0
 10
222.9474070114312
 20
122.095013300642
 30
0.0
  0
LINE
  5
F0
330
1F
100
AcDbEntity
  8
0
  6
Continuous
 62
     7
370
    25
100
AcDbLine
 10
245.7207689579
 20
123.5887302042
 30
0.0
 11
256.2044761905
 21
123.5887302042
 31
0.0
  0
LINE
  5
F1
330
1F
100
AcDbEntity
  8
0
  6
Continuous
 62
     7
370
    25
100
AcDbLine
 10
221.2044761905
 20
123.5887302042
 30
0.0
 11
230.0629773043
 21
123.5887302042
 31
0.0
  0
SPLINE
  5
F2
330
1F
100
AcDbEntity
  8
0
  6
Continuous
 62
     7
370
    25
100
AcDbSpline
210
0.0
220
0.0
230
1.0
 70
     8
 71
     3
 72
    24
 73
    20
 74
     0
 42
0.00000001
 43
0.00000001
 40
0.0
 40
0.0
 40
0.0
 40
0.0
 40
0.0119027689399423
 40
0.0760511018545449
 40
0.139449970489724
 40
0.2037774306143404
 40
0.2680279951711012
 40
0.3314065178609074
 40
0.3956508567638553
 40
0.4599831610153599
 40
0.5233849586280886
 40
0.5875256962957212
 40
0.6519190912914636
 40
0.7153877402724123
 40
0.7794045947773794
 40
0.8438383138384391
 40
0.9074172631584061
 40
0.9712901881930248
 40
1.0
 40
1.0
 40
1.0
 40
1.0
 10
49.45585684046246
 20
127.5290527773946
 30
0.0
 10
49.47113781325764
 20
127.5251272301173
 30
0.0
 10
49.56877348310455
 20
127.5000454867581
 30
0.0
 10
49.12594937314611
 20
127.453997880025
 30
0.0
 10
48.11139892945432
 20
127.3937898464398
 30
0.0
 10
46.45999449617192
 20
127.3299390703808
 30
0.0
 10
44.30801537377596
 20
127.2663919222394
 30
0.0
 10
41.72779854598381
 20
127.2062065990825
 30
0.0
 10
38.82469721393354
 20
127.1426788880019
 30
0.0
 10
35.71366275632484
 20
127.0788255602151
 30
0.0
 10
32.52451682549222
 20
127.0185497607603
 30
0.0
 10
29.38096238207635
 20
126.9554111165489
 30
0.0
 10
26.41121744103773
 20
126.8913385093682
 30
0.0
 10
23.73675325047965
 20
126.8307997736284
 30
0.0
 10
21.46374450139346
 20
126.7681316888661
 30
0.0
 10
19.67430362383664
 20
126.7039207318048
 30
0.0
 10
18.48814730696499
 20
126.6429562829458
 30
0.0
 10
17.90780747354134
 20
126.5923860103916
 30
0.0
 10
17.96628270050989
 20
126.5617191432402
 30
0.0
 10
17.98441580846188
 20
126.5522093791669
 30
0.0
  0
SPLINE
  5
F3
330
1F
100
AcDbEntity
  8
0
  6
Continuous
 62
     7
370
    25
100
AcDbSpline
210
0.0
220
0.0
230
1.0
 70
     8
 71
     3
 72
    24
 73
    20
 74
     0
 42
0.00000001
 43
0.00000001
 40
0.0
 40
0.0
 40
0.0
 40
0.0
 40
0.0119027689399423
 40
0.0760511018545449
 40
0.1394499704897239
 40
0.2037774306143403
 40
0.268027995171101
 40
0.3314065178609071
 40
0.395650856763855
 40
0.4599831610153596
 40
0.5233849586280882
 40
0.5875256962957208
 40
0.6519190912914632
 40
0.7153877402724117
 40
0.7794045947773789
 40
0.8438383138384384
 40
0.9074172631584055
 40
0.9712901881930242
 40
1.0
 40
1.0
 40
1.0
 40
1.0
 10
49.45585684046245
 20
125.5752066235484
 30
0.0
 10
49.47113781325766
 20
125.5712810762712
 30
0.0
 10
49.56877348310454
 20
125.5461993329119
 30
0.0
 10
49.12594937314611
 20
125.5001517261788
 30
0.0
 10
48.1113989294543
 20
125.4399436925936
 30
0.0
 10
46.45999449617193
 20
125.3760929165346
 30
0.0
 10
44.30801537377596
 20
125.3125457683933
 30
0.0
 10
41.72779854598382
 20
125.2523604452363
 30
0.0
 10
38.82469721393354
 20
125.1888327341557
 30
0.0
 10
35.71366275632487
 20
125.1249794063689
 30
0.0
 10
32.52451682549219
 20
125.0647036069141
 30
0.0
 10
29.38096238207639
 20
125.0015649627028
 30
0.0
 10
26.41121744103771
 20
124.937492355522
 30
0.0
 10
23.73675325047961
 20
124.8769536197822
 30
0.0
 10
21.46374450139352
 20
124.8142855350199
 30
0.0
 10
19.67430362383663
 20
124.7500745779586
 30
0.0
 10
18.48814730696502
 20
124.6891101290996
 30
0.0
 10
17.90780747354134
 20
124.6385398565455
 30
0.0
 10
17.96628270050987
 20
124.6078729893941
 30
0.0
 10
17.98441580846186
 20
124.5983632253208
 30
0.0
  0
SPLINE
  5
F4
330
1F
100
AcDbEntity
  8
0
  6
Continuous
 62
     7
370
    25
100
AcDbSpline
210
0.0
220
0.0
230
1.0
 70
     8
 71
     3
 72
    20
 73
    16
 74
     0
 42
0.00000001
 43
0.00000001
 40
0.0
 40
0.0
 40
0.0
 40
0.0
 40
0.0069330587271362
 40
0.091677556462827
 40
0.1775816789511676
 40
0.2628865167009386
 40
0.3480782199631229
 40
0.4340214809744664
 40
0.518766176419683
 40
0.6046690117050917
 40
0.6899771267366329
 40
0.775165621662011
 40
0.8611098976058458
 40
0.945854802389898
 40
1.0
 40
1.0
 40
1.0
 40
1.0
 10
48.21886900156316
 20
128.0887302041586
 30
0.0
 10
48.21411274163806
 20
128.0865869524407
 30
0.0
 10
48.15121953605649
 20
128.0582462029807
 30
0.0
 10
47.16562996348802
 20
128.006737514734
 30
0.0
 10
45.26996292179948
 20
127.9262323514411
 30
0.0
 10
42.54354055927475
 20
127.8487205226468
 30
0.0
 10
39.28919537690972
 20
127.7716233284624
 30
0.0
 10
35.6830283940899
 20
127.6911125322516
 30
0.0
 10
31.94627649720089
 20
127.6159402631285
 30
0.0
 10
28.32611996982287
 20
127.5356434191733
 30
0.0
 10
25.04203295203575
 20
127.4580622740996
 30
0.0
 10
22.29039803125715
 20
127.3809987541126
 30
0.0
 10
20.29960249231234
 20
127.3004575390579
 30
0.0
 10
19.16345729564721
 20
127.2346572109517
 30
0.0
 10
19.10488819017498
 20
127.1915032746545
 30
0.0
 10
19.08205549198429
 20
127.174680057102
 30
0.0
  0
SPLINE
  5
F5
330
1F
100
AcDbEntity
  8
0
  6
Continuous
 62
     7
370
    25
100
AcDbSpline
210
0.0
220
0.0
230
1.0
 70
     8
 71
     3
 72
    20
 73
    16
 74
     0
 42
0.00000001
 43
0.00000001
 40
0.0
 40
0.0
 40
0.0
 40
0.0
 40
0.0586454525875323
 40
0.1389191211244828
 40
0.2202840057657663
 40
0.3011028503746719
 40
0.3817839920646601
 40
0.4631968529784931
 40
0.5434707638691261
 40
0.6248343924503925
 40
0.7056563061035979
 40
0.78633446271527
 40
0.8677482481054616
 40
0.9480224123648212
 40
1.0
 40
1.0
 40
1.0
 40
1.0
 10
48.35219684707981
 20
126.186461124896
 30
0.0
 10
48.3443052680777
 20
126.167191464281
 30
0.0
 10
48.32561172627887
 20
126.1215455667923
 30
0.0
 10
47.22101452359018
 20
126.0533786631437
 30
0.0
 10
45.27865982786292
 20
125.9731184196831
 30
0.0
 10
42.5720127545226
 20
125.8954802490026
 30
0.0
 10
39.31767102206686
 20
125.818466032534
 30
0.0
 10
35.71470602994047
 20
125.7379240578641
 30
0.0
 10
31.97775050315038
 20
125.6627478941883
 30
0.0
 10
28.35562031474917
 20
125.5824849571463
 30
0.0
 10
25.06778774332295
 20
125.5048340591154
 30
0.0
 10
22.31087669226515
 20
125.427838086144
 30
0.0
 10
20.31299399959434
 20
125.3472703247389
 30
0.0
 10
19.16806756277842
 20
125.2812492727183
 30
0.0
 10
19.10552386505017
 20
125.2378738753701
 30
0.0
 10
19.08094293902739
 20
125.2208264753578
 30
0.0
  0
SPLINE
  5
F6
330
1F
100
AcDbEntity
  8
0
  6
Continuous
 62
     7
370
    25
100
AcDbSpline
210
0.0
220
0.0
230
1.0
 70
     8
 71
     3
 72
    24
 73
    20
 74
     0
 42
0.00000001
 43
0.00000001
 40
0.0
 40
0.0
 40
0.0
 40
0.0
 40
0.0119027689399423
 40
0.0760511018545448
 40
0.139449970489724
 40
0.2037774306143404
 40
0.2680279951711009
 40
0.3314065178609071
 40
0.3956508567638549
 40
0.4599831610153593
 40
0.5233849586280885
 40
0.5875256962957213
 40
0.6519190912914639
 40
0.7153877402724117
 40
0.7794045947773789
 40
0.8438383138384385
 40
0.907417263158406
 40
0.9712901881930248
 40
1.0
 40
1.0
 40
1.0
 40
1.0
 10
254.4558568404624
 20
127.5290527773946
 30
0.0
 10
254.4711378132576
 20
127.5251272301174
 30
0.0
 10
254.5687734831046
 20
127.5000454867581
 30
0.0
 10
254.1259493731461
 20
127.453997880025
 30
0.0
 10
253.1113989294543
 20
127.3937898464399
 30
0.0
 10
251.4599944961718
 20
127.3299390703808
 30
0.0
 10
249.308015373776
 20
127.2663919222395
 30
0.0
 10
246.7277985459838
 20
127.2062065990825
 30
0.0
 10
243.8246972139335
 20
127.1426788880019
 30
0.0
 10
240.7136627563249
 20
127.0788255602151
 30
0.0
 10
237.5245168254921
 20
127.0185497607603
 30
0.0
 10
234.3809623820763
 20
126.955411116549
 30
0.0
 10
231.4112174410377
 20
126.8913385093682
 30
0.0
 10
228.7367532504796
 20
126.8307997736284
 30
0.0
 10
226.4637445013935
 20
126.7681316888661
 30
0.0
 10
224.6743036238366
 20
126.7039207318048
 30
0.0
 10
223.4881473069649
 20
126.6429562829458
 30
0.0
 10
222.9078074735413
 20
126.5923860103917
 30
0.0
 10
222.9662827005099
 20
126.5617191432403
 30
0.0
 10
222.9844158084618
 20
126.552209379167
 30
0.0
  0
SPLINE
  5
F7
330
1F
100
AcDbEntity
  8
0
  6
Continuous
 62
     7
370
    25
100
AcDbSpline
210
0.0
220
0.0
230
1.0
 70
     8
 71
     3
 72
    24
 73
    20
 74
     0
 42
0.00000001
 43
0.00000001
 40
0.0
 40
0.0
 40
0.0
 40
0.0
 40
0.0119027689399423
 40
0.0760511018545448
 40
0.139449970489724
 40
0.2037774306143404
 40
0.2680279951711009
 40
0.3314065178609071
 40
0.3956508567638549
 40
0.4599831610153593
 40
0.5233849586280885
 40
0.5875256962957213
 40
0.6519190912914639
 40
0.7153877402724117
 40
0.7794045947773789
 40
0.8438383138384385
 40
0.907417263158406
 40
0.9712901881930248
 40
1.0
 40
1.0
 40
1.0
 40
1.0
 10
254.4558568404624
 20
125.5752066235485
 30
0.0
 10
254.4711378132576
 20
125.5712810762712
 30
0.0
 10
254.5687734831046
 20
125.546199332912
 30
0.0
 10
254.1259493731461
 20
125.5001517261789
 30
0.0
 10
253.1113989294543
 20
125.4399436925937
 30
0.0
 10
251.4599944961718
 20
125.3760929165346
 30
0.0
 10
249.308015373776
 20
125.3125457683933
 30
0.0
 10
246.7277985459838
 20
125.2523604452364
 30
0.0
 10
243.8246972139335
 20
125.1888327341558
 30
0.0
 10
240.7136627563249
 20
125.124979406369
 30
0.0
 10
237.5245168254921
 20
125.0647036069142
 30
0.0
 10
234.3809623820763
 20
125.0015649627028
 30
0.0
 10
231.4112174410377
 20
124.937492355522
 30
0.0
 10
228.7367532504796
 20
124.8769536197823
 30
0.0
 10
226.4637445013935
 20
124.81428553502
 30
0.0
 10
224.6743036238366
 20
124.7500745779586
 30
0.0
 10
223.4881473069649
 20
124.6891101290997
 30
0.0
 10
222.9078074735413
 20
124.6385398565455
 30
0.0
 10
222.9662827005099
 20
124.6078729893941
 30
0.0
 10
222.9844158084618
 20
124.5983632253208
 30
0.0
  0
SPLINE
  5
F8
330
1F
100
AcDbEntity
  8
0
  6
Continuous
 62
     7
370
    25
100
AcDbSpline
210
0.0
220
0.0
230
1.0
 70
     8
 71
     3
 72
    20
 73
    16
 74
     0
 42
0.00000001
 43
0.00000001
 40
0.0
 40
0.0
 40
0.0
 40
0.0
 40
0.0069330587270731
 40
0.0916775564627694
 40
0.1775816789511149
 40
0.2628865167008912
 40
0.3480782199630809
 40
0.4340214809744298
 40
0.5187661764196517
 40
0.604669011705066
 40
0.6899771267366124
 40
0.7751656216619958
 40
0.8611098976058355
 40
0.9458548023898935
 40
1.0
 40
1.0
 40
1.0
 40
1.0
 10
253.218869001563
 20
128.0887302041586
 30
0.0
 10
253.214112741638
 20
128.0865869524407
 30
0.0
 10
253.1512195360565
 20
128.0582462029808
 30
0.0
 10
252.1656299634878
 20
128.0067375147341
 30
0.0
 10
250.2699629217995
 20
127.9262323514412
 30
0.0
 10
247.5435405592747
 20
127.8487205226469
 30
0.0
 10
244.2891953769098
 20
127.7716233284624
 30
0.0
 10
240.6830283940899
 20
127.6911125322516
 30
0.0
 10
236.9462764972008
 20
127.6159402631286
 30
0.0
 10
233.3261199698228
 20
127.5356434191733
 30
0.0
 10
230.0420329520358
 20
127.4580622740996
 30
0.0
 10
227.2903980312571
 20
127.3809987541127
 30
0.0
 10
225.2996024923124
 20
127.3004575390579
 30
0.0
 10
224.1634572956471
 20
127.2346572109517
 30
0.0
 10
224.104888190175
 20
127.1915032746545
 30
0.0
 10
224.0820554919843
 20
127.174680057102
 30
0.0
  0
SPLINE
  5
F9
330
1F
100
AcDbEntity
  8
0
  6
Continuous
 62
     7
370
    25
100
AcDbSpline
210
0.0
220
0.0
230
1.0
 70
     8
 71
     3
 72
    20
 73
    16
 74
     0
 42
0.00000001
 43
0.00000001
 40
0.0
 40
0.0
 40
0.0
 40
0.0
 40
0.0586454525875301
 40
0.1389191211244807
 40
0.2202840057657649
 40
0.3011028503746695
 40
0.3817839920646583
 40
0.4631968529784914
 40
0.543470763869125
 40
0.6248343924503906
 40
0.7056563061035964
 40
0.7863344627152687
 40
0.8677482481054601
 40
0.9480224123648198
 40
0.9999999999999999
 40
0.9999999999999999
 40
0.9999999999999999
 40
0.9999999999999999
 10
253.3521968470798
 20
126.186461124896
 30
0.0
 10
253.3443052680777
 20
126.1671914642811
 30
0.0
 10
253.3256117262789
 20
126.1215455667923
 30
0.0
 10
252.2210145235902
 20
126.0533786631438
 30
0.0
 10
250.2786598278628
 20
125.9731184196831
 30
0.0
 10
247.5720127545227
 20
125.8954802490027
 30
0.0
 10
244.3176710220668
 20
125.8184660325341
 30
0.0
 10
240.7147060299405
 20
125.7379240578642
 30
0.0
 10
236.9777505031503
 20
125.6627478941884
 30
0.0
 10
233.3556203147492
 20
125.5824849571464
 30
0.0
 10
230.0677877433229
 20
125.5048340591154
 30
0.0
 10
227.3108766922651
 20
125.4278380861441
 30
0.0
 10
225.3129939995944
 20
125.3472703247389
 30
0.0
 10
224.1680675627784
 20
125.2812492727183
 30
0.0
 10
224.1055238650501
 20
125.2378738753702
 30
0.0
 10
224.0809429390274
 20
125.2208264753578
 30
0.0
  0
SPLINE
  5
FA
330
1F
100
AcDbEntity
  8
0
  6
Continuous
 62
     7
370
    25
100
AcDbSpline
210
0.0
220
0.0
230
1.0
 70
     8
 71
     3
 72
    13
 73
     9
 74
     0
 42
0.00000001
 43
0.00000001
 40
0.0
 40
0.0
 40
0.0
 40
0.0
 40
0.1456674500853205
 40
0.3243652381005666
 40
0.5028124666657896
 40
0.6828428468771748
 40
0.8603608653762194
 40
1.0
 40
1.0
 40
1.0
 40
1.0
 10
236.2939948910079
 20
128.0887302041586
 30
0.0
 10
235.3059141833593
 20
128.0672279974686
 30
0.0
 10
233.1057038150765
 20
128.0193479227602
 30
0.0
 10
230.0447762321804
 20
127.9464688827981
 30
0.0
 10
227.2910923664738
 20
127.8694693773353
 30
0.0
 10
225.2940030713422
 20
127.7889375844659
 30
0.0
 10
224.1196285887193
 20
127.7193803624166
 30
0.0
 10
224.0668557223393
 20
127.6722938293626
 30
0.0
 10
224.0436206878449
 20
127.6515623949197
 30
0.0
  0
SPLINE
  5
FB
330
1F
100
AcDbEntity
  8
0
  6
Continuous
 62
     7
370
    25
100
AcDbSpline
210
0.0
220
0.0
230
1.0
 70
     8
 71
     3
 72
    20
 73
    16
 74
     0
 42
0.00000001
 43
0.00000001
 40
0.0
 40
0.0
 40
0.0
 40
0.0
 40
0.0467053052147077
 40
0.1269356768893559
 40
0.2082566777875781
 40
0.28903192820642
 40
0.3696695569844121
 40
0.4510385057644767
 40
0.5312691196366315
 40
0.612588865226843
 40
0.6933671828817978
 40
0.7740018283355461
 40
0.8553717010536286
 40
0.9356025681312367
 40
0.9999999999999999
 40
0.9999999999999999
 40
0.9999999999999999
 40
0.9999999999999999
 10
253.3228411468137
 20
126.6632737338354
 30
0.0
 10
253.3126523042615
 20
126.6479343613799
 30
0.0
 10
253.2849610683273
 20
126.6062450154536
 30
0.0
 10
252.214703045995
 20
126.5418647825797
 30
0.0
 10
250.2803424784566
 20
126.4615731866803
 30
0.0
 10
247.5715576014591
 20
126.3839434057279
 30
0.0
 10
244.3177836982669
 20
126.3069269425795
 30
0.0
 10
240.714674728125
 20
126.226385535176
 30
0.0
 10
236.9777209962318
 20
126.151209362785
 30
0.0
 10
233.3557270576955
 20
126.0709458886444
 30
0.0
 10
230.0673523932155
 20
125.9932971154885
 30
0.0
 10
227.3124786237863
 20
125.9162932136413
 30
0.0
 10
225.3069674666803
 20
125.8357551049759
 30
0.0
 10
224.1216074738596
 20
125.7657834732642
 30
0.0
 10
224.0646981570627
 20
125.7182784901165
 30
0.0
 10
224.0393586220075
 20
125.6971263439738
 30
0.0
  0
SPLINE
  5
FC
330
1F
100
AcDbEntity
  8
0
  6
Continuous
 62
     7
370
    25
100
AcDbSpline
210
0.0
220
0.0
230
1.0
 70
     8
 71
     3
 72
    23
 73
    19
 74
     0
 42
0.00000001
 43
0.00000001
 40
0.0
 40
0.0
 40
0.0
 40
0.0
 40
0.0494021434004004
 40
0.1134814506221776
 40
0.1782966302749782
 40
0.2433783182047401
 40
0.3075281416825183
 40
0.3722167521238309
 40
0.4373377803017868
 40
0.5016020194821071
 40
0.5661438185160163
 40
0.6312831168368532
 40
0.6957048839843053
 40
0.7600804762327343
 40
0.8252169392496721
 40
0.8898001488618887
 40
0.9540293516193415
 40
0.9999999999999999
 40
0.9999999999999999
 40
0.9999999999999999
 40
0.9999999999999999
 10
254.4370557942566
 20
127.2744687409778
 30
0.0
 10
254.397813231326
 20
127.258243968901
 30
0.0
 10
254.3076693092013
 20
127.2209741149119
 30
0.0
 10
253.4229535293989
 20
127.1656225232458
 30
0.0
 10
251.9466415578085
 20
127.1024893095278
 30
0.0
 10
249.913114817103
 20
127.0384112658414
 30
0.0
 10
247.4362540452604
 20
126.9778472202444
 30
0.0
 10
244.6068122339809
 20
126.9152135149711
 30
0.0
 10
241.5370681093202
 20
126.8509980996376
 30
0.0
 10
238.3562313697202
 20
126.789991725142
 30
0.0
 10
235.1888031108878
 20
126.7279119404789
 30
0.0
 10
232.1604329771511
 20
126.6636489243839
 30
0.0
 10
229.398716554129
 20
126.602030276932
 30
0.0
 10
227.0117645639685
 20
126.5405903212506
 30
0.0
 10
225.0879225606926
 20
126.4763348997011
 30
0.0
 10
223.7386941079423
 20
126.4140886212695
 30
0.0
 10
222.9864087458872
 20
126.3592594437529
 30
0.0
 10
222.9759329274075
 20
126.3230218261569
 30
0.0
 10
222.9715628655349
 20
126.3079050473277
 30
0.0
  0
SPLINE
  5
FD
330
1F
100
AcDbEntity
  8
0
  6
Continuous
 62
     7
370
    25
100
AcDbSpline
210
0.0
220
0.0
230
1.0
 70
     8
 71
     3
 72
    13
 73
     9
 74
     0
 42
0.00000001
 43
0.00000001
 40
0.0
 40
0.0
 40
0.0
 40
0.0
 40
0.1456674500854202
 40
0.3243652381006474
 40
0.5028124666658518
 40
0.6828428468772181
 40
0.860360865376244
 40
0.9999999999999999
 40
0.9999999999999999
 40
0.9999999999999999
 40
0.9999999999999999
 10
31.29399489101027
 20
128.0887302041586
 30
0.0
 10
30.3059141833608
 20
128.0672279974686
 30
0.0
 10
28.10570381507728
 20
128.0193479227601
 30
0.0
 10
25.04477623218032
 20
127.9464688827981
 30
0.0
 10
22.29109236647384
 20
127.8694693773352
 30
0.0
 10
20.29400307134215
 20
127.7889375844659
 30
0.0
 10
19.11962858871941
 20
127.7193803624166
 30
0.0
 10
19.06685572233927
 20
127.6722938293626
 30
0.0
 10
19.04362068784493
 20
127.6515623949196
 30
0.0
  0
SPLINE
  5
FE
330
1F
100
AcDbEntity
  8
0
  6
Continuous
 62
     7
370
    25
100
AcDbSpline
210
0.0
220
0.0
230
1.0
 70
     8
 71
     3
 72
    20
 73
    16
 74
     0
 42
0.00000001
 43
0.00000001
 40
0.0
 40
0.0
 40
0.0
 40
0.0
 40
0.0467053052147077
 40
0.1269356768893564
 40
0.2082566777875789
 40
0.2890319282064204
 40
0.3696695569844131
 40
0.4510385057644767
 40
0.5312691196366321
 40
0.6125888652268429
 40
0.6933671828817985
 40
0.774001828335547
 40
0.8553717010536296
 40
0.9356025681312379
 40
1.0
 40
1.0
 40
1.0
 40
1.0
 10
48.32284114681372
 20
126.6632737338354
 30
0.0
 10
48.31265230426155
 20
126.6479343613799
 30
0.0
 10
48.28496106832733
 20
126.6062450154535
 30
0.0
 10
47.21470304599497
 20
126.5418647825796
 30
0.0
 10
45.28034247845661
 20
126.4615731866803
 30
0.0
 10
42.57155760145911
 20
126.3839434057279
 30
0.0
 10
39.31778369826686
 20
126.3069269425794
 30
0.0
 10
35.71467472812503
 20
126.2263855351759
 30
0.0
 10
31.97772099623183
 20
126.151209362785
 30
0.0
 10
28.35572705769551
 20
126.0709458886443
 30
0.0
 10
25.06735239321546
 20
125.9932971154885
 30
0.0
 10
22.31247862378635
 20
125.9162932136413
 30
0.0
 10
20.30696746668026
 20
125.8357551049759
 30
0.0
 10
19.12160747385958
 20
125.7657834732642
 30
0.0
 10
19.06469815706271
 20
125.7182784901165
 30
0.0
 10
19.03935862200751
 20
125.6971263439738
 30
0.0
  0
SPLINE
  5
FF
330
1F
100
AcDbEntity
  8
0
  6
Continuous
 62
     7
370
    25
100
AcDbSpline
210
0.0
220
0.0
230
1.0
 70
     8
 71
     3
 72
    23
 73
    19
 74
     0
 42
0.00000001
 43
0.00000001
 40
0.0
 40
0.0
 40
0.0
 40
0.0
 40
0.0494021434004004
 40
0.1134814506221776
 40
0.1782966302749785
 40
0.2433783182047401
 40
0.3075281416825182
 40
0.3722167521238313
 40
0.4373377803017872
 40
0.5016020194821076
 40
0.5661438185160163
 40
0.6312831168368535
 40
0.6957048839843055
 40
0.7600804762327357
 40
0.8252169392496743
 40
0.8898001488618913
 40
0.9540293516193448
 40
1.0
 40
1.0
 40
1.0
 40
1.0
 10
49.43705579425656
 20
127.2744687409777
 30
0.0
 10
49.39781323132607
 20
127.258243968901
 30
0.0
 10
49.30766930920132
 20
127.2209741149118
 30
0.0
 10
48.42295352939897
 20
127.1656225232458
 30
0.0
 10
46.94664155780839
 20
127.1024893095277
 30
0.0
 10
44.91311481710306
 20
127.0384112658414
 30
0.0
 10
42.43625404526036
 20
126.9778472202443
 30
0.0
 10
39.60681223398088
 20
126.9152135149711
 30
0.0
 10
36.53706810932015
 20
126.8509980996376
 30
0.0
 10
33.35623136972024
 20
126.789991725142
 30
0.0
 10
30.18880311088785
 20
126.7279119404788
 30
0.0
 10
27.16043297715116
 20
126.6636489243839
 30
0.0
 10
24.39871655412895
 20
126.602030276932
 30
0.0
 10
22.01176456396844
 20
126.5405903212505
 30
0.0
 10
20.08792256069263
 20
126.4763348997011
 30
0.0
 10
18.73869410794223
 20
126.4140886212695
 30
0.0
 10
17.98640874588721
 20
126.3592594437529
 30
0.0
 10
17.97593292740753
 20
126.3230218261568
 30
0.0
 10
17.97156286553488
 20
126.3079050473276
 30
0.0
  0
ARC
  5
100
330
1F
100
AcDbEntity
  8
0
  6
Continuous
 62
     7
370
    25
100
AcDbCircle
 10
137.331968163
 20
105.7387302042
 30
0.0
 40
17.41420869871835
100
AcDbArc
 50
357.1516090285
 51
2.848390971
  0
ARC
  5
101
330
1F
100
AcDbEntity
  8
0
  6
Continuous
 62
     7
370
    25
100
AcDbCircle
 10
135.0769842179
 20
105.7387302042
 30
0.0
 40
17.41420869872728
100
AcDbArc
 50
177.151609029
 51
182.8483909715
  0
SPLINE
  5
102
330
1F
100
AcDbEntity
  8
0
  6
Continuous
 62
     7
370
    25
100
AcDbSpline
210
0.0
220
0.0
230
1.0
 70
    24
 71
     3
 72
    10
 73
     6
 74
     0
 42
0.00000001
 43
0.00000001
 40
0.0
 40
0.0
 40
0.0
 40
0.0
 40
0.3383039829547538
 40
0.6713211380777825
 40
1.0
 40
1.0
 40
1.0
 40
1.0
 10
193.7138526557779
 20
105.7387302041586
 30
0.0
 10
194.9011641024611
 20
105.7387302041586
 30
0.0
 10
197.2572323481807
 20
105.7387302041586
 30
0.0
 10
200.7272351823733
 20
105.7387302041586
 30
0.0
 10
202.935410287697
 20
105.7387302041586
 30
0.0
 10
204.0322590851004
 20
105.7387302041586
 30
0.0
  0
SPLINE
  5
103
330
1F
100
AcDbEntity
  8
0
  6
Continuous
 62
     7
370
    25
100
AcDbSpline
210
0.0
220
0.0
230
1.0
 70
    24
 71
     3
 72
    15
 73
    11
 74
     0
 42
0.00000001
 43
0.00000001
 40
0.0
 40
0.0
 40
0.0
 40
0.0
 40
0.1250000000000001
 40
0.2500000000000002
 40
0.3750000000000002
 40
0.5000000000000001
 40
0.6250000000000001
 40
0.7500000000000001
 40
0.8750000000000001
 40
1.0
 40
1.0
 40
1.0
 40
1.0
 10
193.7138526557779
 20
116.4887302041586
 30
0.0
 10
193.7138526557779
 20
116.4487218030446
 30
0.0
 10
193.7138526557779
 20
116.3687050008166
 30
0.0
 10
193.7138526557779
 20
115.729481603535
 30
0.0
 10
193.7138526557779
 20
114.7359796569731
 30
0.0
 10
193.7138526557779
 20
113.3887709870384
 30
0.0
 10
193.7138526557779
 20
111.7497050063571
 30
0.0
 10
193.7138526557779
 20
109.8790702422492
 30
0.0
 10
193.7138526557779
 20
107.849476637146
 30
0.0
 10
193.7138526557779
 20
106.4423123484877
 30
0.0
 10
193.7138526557779
 20
105.7387302041586
 30
0.0
  0
SPLINE
  5
104
330
1F
100
AcDbEntity
  8
0
  6
Continuous
 62
     7
370
    25
100
AcDbSpline
210
0.0
220
0.0
230
1.0
 70
    24
 71
     3
 72
    10
 73
     6
 74
     0
 42
0.00000001
 43
0.00000001
 40
0.0
 40
0.0
 40
0.0
 40
0.0
 40
0.3294727588569358
 40
0.6629978812425853
 40
1.0
 40
1.0
 40
1.0
 40
1.0
 10
207.7296880556077
 20
116.4887302041586
 30
0.0
 10
206.2361371000225
 20
116.4887302041586
 30
0.0
 10
203.2306651984418
 20
116.4887302041586
 30
0.0
 10
198.5170540612673
 20
116.4887302041586
 30
0.0
 10
195.3204450935689
 20
116.4887302041586
 30
0.0
 10
193.7138526557779
 20
116.4887302041586
 30
0.0
  0
SPLINE
  5
105
330
1F
100
AcDbEntity
  8
0
  6
Continuous
 62
     7
370
    25
100
AcDbSpline
210
0.0
220
0.0
230
1.0
 70
    24
 71
     3
 72
    10
 73
     6
 74
     0
 42
0.00000001
 43
0.00000001
 40
0.0
 40
0.0
 40
0.0
 40
0.0
 40
0.3383039829547538
 40
0.6713211380777825
 40
1.0
 40
1.0
 40
1.0
 40
1.0
 10
78.6950997251745
 20
105.7387302041586
 30
0.0
 10
77.50778827849128
 20
105.7387302041586
 30
0.0
 10
75.1517200327717
 20
105.7387302041586
 30
0.0
 10
71.68171719857908
 20
105.7387302041586
 30
0.0
 10
69.47354209325543
 20
105.7387302041586
 30
0.0
 10
68.37669329585196
 20
105.7387302041586
 30
0.0
  0
SPLINE
  5
106
330
1F
100
AcDbEntity
  8
0
  6
Continuous
 62
     7
370
    25
100
AcDbSpline
210
0.0
220
0.0
230
1.0
 70
    24
 71
     3
 72
    15
 73
    11
 74
     0
 42
0.00000001
 43
0.00000001
 40
0.0
 40
0.0
 40
0.0
 40
0.0
 40
0.1250000000000001
 40
0.2500000000000002
 40
0.3750000000000002
 40
0.5000000000000001
 40
0.6250000000000001
 40
0.7500000000000001
 40
0.8750000000000001
 40
1.0
 40
1.0
 40
1.0
 40
1.0
 10
78.69509972517452
 20
94.9887302041586
 30
0.0
 10
78.69509972517452
 20
95.0287386052726
 30
0.0
 10
78.6950997251745
 20
95.1087554075006
 30
0.0
 10
78.69509972517452
 20
95.74797880478222
 30
0.0
 10
78.69509972517452
 20
96.74148075134411
 30
0.0
 10
78.69509972517452
 20
98.08868942127876
 30
0.0
 10
78.69509972517452
 20
99.72775540196012
 30
0.0
 10
78.69509972517452
 20
101.598390166068
 30
0.0
 10
78.69509972517452
 20
103.6279837711712
 30
0.0
 10
78.6950997251745
 20
105.0351480598295
 30
0.0
 10
78.69509972517452
 20
105.7387302041586
 30
0.0
  0
SPLINE
  5
107
330
1F
100
AcDbEntity
  8
0
  6
Continuous
 62
     7
370
    25
100
AcDbSpline
210
0.0
220
0.0
230
1.0
 70
    24
 71
     3
 72
    10
 73
     6
 74
     0
 42
0.00000001
 43
0.00000001
 40
0.0
 40
0.0
 40
0.0
 40
0.0
 40
0.3294727588569358
 40
0.6629978812425853
 40
1.0
 40
1.0
 40
1.0
 40
1.0
 10
64.67926432534473
 20
94.9887302041586
 30
0.0
 10
66.17281528092988
 20
94.9887302041586
 30
0.0
 10
69.17828718251059
 20
94.9887302041586
 30
0.0
 10
73.89189831968515
 20
94.9887302041586
 30
0.0
 10
77.0885072873835
 20
94.9887302041586
 30
0.0
 10
78.69509972517452
 20
94.9887302041586
 30
0.0
  0
SPLINE
  5
108
330
1F
100
AcDbEntity
  8
0
  6
Continuous
 62
     7
370
    25
100
AcDbSpline
210
0.0
220
0.0
230
1.0
 70
    24
 71
     3
 72
    10
 73
     6
 74
     0
 42
0.00000001
 43
0.00000001
 40
0.0
 40
0.0
 40
0.0
 40
0.0
 40
0.3294727588569358
 40
0.6629978812425853
 40
1.0
 40
1.0
 40
1.0
 40
1.0
 10
64.67926432534473
 20
116.4887302041586
 30
0.0
 10
66.17281528092988
 20
116.4887302041586
 30
0.0
 10
69.17828718251059
 20
116.4887302041586
 30
0.0
 10
73.89189831968515
 20
116.4887302041586
 30
0.0
 10
77.0885072873835
 20
116.4887302041586
 30
0.0
 10
78.69509972517452
 20
116.4887302041586
 30
0.0
  0
SPLINE
  5
109
330
1F
100
AcDbEntity
  8
0
  6
Continuous
 62
     7
370
    25
100
AcDbSpline
210
0.0
220
0.0
230
1.0
 70
    24
 71
     3
 72
    15
 73
    11
 74
     0
 42
0.00000001
 43
0.00000001
 40
0.0
 40
0.0
 40
0.0
 40
0.0
 40
0.1250000000000002
 40
0.2500000000000003
 40
0.3749999999999998
 40
0.5
 40
0.6250000000000001
 40
0.7499999999999997
 40
0.8749999999999999
 40
1.0
 40
1.0
 40
1.0
 40
1.0
 10
78.69509972517452
 20
116.4887302041586
 30
0.0
 10
78.69509972517452
 20
116.4487218030446
 30
0.0
 10
78.6950997251745
 20
116.3687050008166
 30
0.0
 10
78.69509972517452
 20
115.729481603535
 30
0.0
 10
78.69509972517452
 20
114.7359796569731
 30
0.0
 10
78.6950997251745
 20
113.3887709870384
 30
0.0
 10
78.69509972517452
 20
111.7497050063571
 30
0.0
 10
78.69509972517452
 20
109.8790702422492
 30
0.0
 10
78.69509972517452
 20
107.849476637146
 30
0.0
 10
78.69509972517452
 20
106.4423123484877
 30
0.0
 10
78.69509972517452
 20
105.7387302041586
 30
0.0
  0
SPLINE
  5
10A
330
1F
100
AcDbEntity
  8
0
  6
Continuous
 62
     7
370
    25
100
AcDbSpline
210
0.0
220
0.0
230
1.0
 70
    24
 71
     3
 72
    10
 73
     6
 74
     0
 42
0.00000001
 43
0.00000001
 40
0.0
 40
0.0
 40
0.0
 40
0.0
 40
0.3294727588569358
 40
0.6629978812425853
 40
1.0
 40
1.0
 40
1.0
 40
1.0
 10
207.7296880556077
 20
94.9887302041586
 30
0.0
 10
206.2361371000225
 20
94.9887302041586
 30
0.0
 10
203.2306651984418
 20
94.9887302041586
 30
0.0
 10
198.5170540612673
 20
94.9887302041586
 30
0.0
 10
195.3204450935689
 20
94.9887302041586
 30
0.0
 10
193.7138526557779
 20
94.9887302041586
 30
0.0
  0
SPLINE
  5
10B
330
1F
100
AcDbEntity
  8
0
  6
Continuous
 62
     7
370
    25
100
AcDbSpline
210
0.0
220
0.0
230
1.0
 70
    24
 71
     3
 72
    15
 73
    11
 74
     0
 42
0.00000001
 43
0.00000001
 40
0.0
 40
0.0
 40
0.0
 40
0.0
 40
0.1250000000000002
 40
0.2500000000000003
 40
0.3749999999999998
 40
0.5
 40
0.6250000000000001
 40
0.7499999999999997
 40
0.8749999999999999
 40
1.0
 40
1.0
 40
1.0
 40
1.0
 10
193.7138526557779
 20
94.9887302041586
 30
0.0
 10
193.7138526557779
 20
95.0287386052726
 30
0.0
 10
193.7138526557779
 20
95.1087554075006
 30
0.0
 10
193.7138526557779
 20
95.74797880478222
 30
0.0
 10
193.7138526557779
 20
96.7414807513441
 30
0.0
 10
193.7138526557779
 20
98.08868942127876
 30
0.0
 10
193.7138526557779
 20
99.72775540196011
 30
0.0
 10
193.7138526557779
 20
101.598390166068
 30
0.0
 10
193.7138526557779
 20
103.6279837711712
 30
0.0
 10
193.7138526557779
 20
105.0351480598294
 30
0.0
 10
193.7138526557779
 20
105.7387302041586
 30
0.0
  0
ARC
  5
10C
330
1F
100
AcDbEntity
  8
0
  6
Continuous
 62
     7
370
    25
100
AcDbCircle
 10
149.5861989711
 20
92.2288473007
 30
0.0
 40
3.695783567043727
100
AcDbArc
 50
71.647830712
 51
88.7536894373
  0
SPLINE
  5
10D
330
1F
100
AcDbEntity
  8
0
  6
Continuous
 62
     7
370
    25
100
AcDbSpline
210
0.0
220
0.0
230
1.0
 70
     8
 71
     3
 72
    12
 73
     8
 74
     0
 42
0.00000001
 43
0.00000001
 40
0.0
 40
0.0
 40
0.0
 40
0.0
 40
0.0083795365781655
 40
0.0958567924053454
 40
0.1830705552997304
 40
0.3564922358642273
 40
1.0
 40
1.0
 40
1.0
 40
1.0
 10
157.0593913619654
 20
105.7387302041586
 30
0.0
 10
157.0533771596771
 20
105.7350460245249
 30
0.0
 10
156.984578350237
 20
105.6929012544607
 30
0.0
 10
156.8490536378058
 20
105.6191913829145
 30
0.0
 10
156.5848380585593
 20
105.4927809978612
 30
0.0
 10
155.8817777031209
 20
105.1990410087162
 30
0.0
 10
155.234518190648
 20
105.0168639233161
 30
0.0
 10
154.7246620159329
 20
104.8733602588771
 30
0.0
  0
SPLINE
  5
10E
330
1F
100
AcDbEntity
  8
0
  6
Continuous
 62
     7
370
    25
100
AcDbSpline
210
0.0
220
0.0
230
1.0
 70
     8
 71
     3
 72
    16
 73
    12
 74
     0
 42
0.00000001
 43
0.00000001
 40
0.0
 40
0.0
 40
0.0
 40
0.0
 40
0.0036460627524313
 40
0.1285407933881969
 40
0.2538626077876389
 40
0.3804080544728599
 40
0.5069784733327949
 40
0.6239525322835107
 40
0.7409191154634804
 40
0.8705485012177803
 40
1.0
 40
1.0
 40
1.0
 40
1.0
 10
157.0593913619654
 20
105.7387302041586
 30
0.0
 10
157.0529816407308
 20
105.722153568239
 30
0.0
 10
156.827008938438
 20
105.13774949253
 30
0.0
 10
156.5630273513164
 20
103.920119373829
 30
0.0
 10
156.227064260606
 20
102.1635524971259
 30
0.0
 10
155.6799282659887
 20
100.546267353397
 30
0.0
 10
155.0349457696256
 20
99.13149379003839
 30
0.0
 10
154.2665794505597
 20
97.95669791484436
 30
0.0
 10
153.3449405034383
 20
96.98268340705135
 30
0.0
 10
152.2156999722477
 20
96.21432782047981
 30
0.0
 10
151.2382373238065
 20
95.89580991234658
 30
0.0
 10
150.7498415663552
 20
95.73666030672983
 30
0.0
  0
SPLINE
  5
10F
330
1F
100
AcDbEntity
  8
0
  6
Continuous
 62
     7
370
    25
100
AcDbSpline
210
0.0
220
0.0
230
1.0
 70
     8
 71
     3
 72
    12
 73
     8
 74
     0
 42
0.00000001
 43
0.00000001
 40
0.0
 40
0.0
 40
0.0
 40
0.0
 40
0.0083795365781655
 40
0.0958567924053454
 40
0.1830705552997304
 40
0.3564922358642273
 40
1.0
 40
1.0
 40
1.0
 40
1.0
 10
115.349561018987
 20
105.7387302041586
 30
0.0
 10
115.3555752212753
 20
105.7350460245249
 30
0.0
 10
115.4243740307154
 20
105.6929012544607
 30
0.0
 10
115.5598987431466
 20
105.6191913829145
 30
0.0
 10
115.8241143223931
 20
105.4927809978612
 30
0.0
 10
116.5271746778315
 20
105.1990410087162
 30
0.0
 10
117.1744341903044
 20
105.0168639233161
 30
0.0
 10
117.6842903650196
 20
104.8733602588771
 30
0.0
  0
ARC
  5
110
330
1F
100
AcDbEntity
  8
0
  6
Continuous
 62
     7
370
    25
100
AcDbCircle
 10
122.8227534099
 20
92.2288473007
 30
0.0
 40
3.695783567043685
100
AcDbArc
 50
91.2463105627
 51
108.352169288
  0
SPLINE
  5
111
330
1F
100
AcDbEntity
  8
0
  6
Continuous
 62
     7
370
    25
100
AcDbSpline
210
0.0
220
0.0
230
1.0
 70
     8
 71
     3
 72
    16
 73
    12
 74
     0
 42
0.00000001
 43
0.00000001
 40
0.0
 40
0.0
 40
0.0
 40
0.0
 40
0.0036460627524313
 40
0.1285407933881969
 40
0.2538626077876389
 40
0.3804080544728599
 40
0.5069784733327949
 40
0.6239525322835107
 40
0.7409191154634804
 40
0.8705485012177803
 40
1.0
 40
1.0
 40
1.0
 40
1.0
 10
115.349561018987
 20
105.7387302041586
 30
0.0
 10
115.3559707402216
 20
105.722153568239
 30
0.0
 10
115.5819434425144
 20
105.13774949253
 30
0.0
 10
115.845925029636
 20
103.920119373829
 30
0.0
 10
116.1818881203464
 20
102.1635524971259
 30
0.0
 10
116.7290241149637
 20
100.546267353397
 30
0.0
 10
117.3740066113269
 20
99.13149379003839
 30
0.0
 10
118.1423729303927
 20
97.95669791484436
 30
0.0
 10
119.0640118775142
 20
96.98268340705135
 30
0.0
 10
120.1932524087047
 20
96.21432782047981
 30
0.0
 10
121.1707150571459
 20
95.89580991234658
 30
0.0
 10
121.6591108145972
 20
95.73666030672983
 30
0.0
  0
ARC
  5
112
330
1F
100
AcDbEntity
  8
0
  6
Continuous
 62
     7
370
    25
100
AcDbCircle
 10
149.5861989711
 20
119.2486131076
 30
0.0
 40
3.695783567043014
100
AcDbArc
 50
271.2463105627
 51
288.352169288
  0
SPLINE
  5
113
330
1F
100
AcDbEntity
  8
0
  6
Continuous
 62
     7
370
    25
100
AcDbSpline
210
0.0
220
0.0
230
1.0
 70
     8
 71
     3
 72
    15
 73
    11
 74
     0
 42
0.00000001
 43
0.00000001
 40
0.0
 40
0.0
 40
0.0
 40
0.0
 40
0.1294530873601727
 40
0.2590840638753839
 40
0.3760520824233251
 40
0.493027576833752
 40
0.6195995489161581
 40
0.7461465485174016
 40
0.8733701645101339
 40
1.0
 40
1.0
 40
1.0
 40
1.0
 10
150.7498415663552
 20
115.7408001015874
 30
0.0
 10
151.2382332470612
 20
115.581649193241
 30
0.0
 10
152.2156877364097
 20
115.2631286778584
 30
0.0
 10
153.3449875297083
 20
114.4947920285756
 30
0.0
 10
154.2664222214511
 20
113.5207122506932
 30
0.0
 10
155.0355552228961
 20
112.3461613699164
 30
0.0
 10
155.6774445646383
 20
110.9303993847098
 30
0.0
 10
156.2390756587373
 20
109.3087474232747
 30
0.0
 10
156.5327199097929
 20
107.5200729558364
 30
0.0
 10
156.8841081849395
 20
106.3315844695612
 30
0.0
 10
157.0593913619654
 20
105.7387302041586
 30
0.0
  0
SPLINE
  5
114
330
1F
100
AcDbEntity
  8
0
  6
Continuous
 62
     7
370
    25
100
AcDbSpline
210
0.0
220
0.0
230
1.0
 70
     8
 71
     3
 72
    12
 73
     8
 74
     0
 42
0.00000001
 43
0.00000001
 40
0.0
 40
0.0
 40
0.0
 40
0.0
 40
0.6435077641343194
 40
0.8169294446995046
 40
0.904143207594223
 40
0.9916204634217569
 40
1.0
 40
1.0
 40
1.0
 40
1.0
 10
154.7246620159404
 20
106.6041001494289
 30
0.0
 10
155.2345181906542
 20
106.460596484996
 30
0.0
 10
155.8817777031262
 20
106.2784193996033
 30
0.0
 10
156.5848380585578
 20
105.9846794104536
 30
0.0
 10
156.8490536378081
 20
105.8582690254068
 30
0.0
 10
156.9845783502313
 20
105.7845591538471
 30
0.0
 10
157.0533771596766
 20
105.7424143837916
 30
0.0
 10
157.0593913619654
 20
105.7387302041586
 30
0.0
  0
SPLINE
  5
115
330
1F
100
AcDbEntity
  8
0
  6
Continuous
 62
     7
370
    25
100
AcDbSpline
210
0.0
220
0.0
230
1.0
 70
     8
 71
     3
 72
    12
 73
     8
 74
     0
 42
0.00000001
 43
0.00000001
 40
0.0
 40
0.0
 40
0.0
 40
0.0
 40
0.6435077641343194
 40
0.8169294446995046
 40
0.904143207594223
 40
0.9916204634217569
 40
1.0
 40
1.0
 40
1.0
 40
1.0
 10
117.684290365012
 20
106.6041001494289
 30
0.0
 10
117.1744341902982
 20
106.460596484996
 30
0.0
 10
116.5271746778263
 20
106.2784193996033
 30
0.0
 10
115.8241143223946
 20
105.9846794104536
 30
0.0
 10
115.5598987431443
 20
105.8582690254068
 30
0.0
 10
115.4243740307212
 20
105.7845591538471
 30
0.0
 10
115.3555752212758
 20
105.7424143837916
 30
0.0
 10
115.349561018987
 20
105.7387302041586
 30
0.0
  0
SPLINE
  5
116
330
1F
100
AcDbEntity
  8
0
  6
Continuous
 62
     7
370
    25
100
AcDbSpline
210
0.0
220
0.0
230
1.0
 70
     8
 71
     3
 72
    15
 73
    11
 74
     0
 42
0.00000001
 43
0.00000001
 40
0.0
 40
0.0
 40
0.0
 40
0.0
 40
0.1294530873601727
 40
0.2590840638753839
 40
0.3760520824233251
 40
0.493027576833752
 40
0.6195995489161581
 40
0.7461465485174016
 40
0.8733701645101339
 40
1.0
 40
1.0
 40
1.0
 40
1.0
 10
121.6591108145972
 20
115.7408001015874
 30
0.0
 10
121.1707191338913
 20
115.581649193241
 30
0.0
 10
120.1932646445428
 20
115.2631286778584
 30
0.0
 10
119.0639648512441
 20
114.4947920285756
 30
0.0
 10
118.1425301595013
 20
113.5207122506932
 30
0.0
 10
117.3733971580563
 20
112.3461613699164
 30
0.0
 10
116.7315078163141
 20
110.9303993847098
 30
0.0
 10
116.1698767222152
 20
109.3087474232747
 30
0.0
 10
115.8762324711595
 20
107.5200729558364
 30
0.0
 10
115.5248441960129
 20
106.3315844695612
 30
0.0
 10
115.349561018987
 20
105.7387302041586
 30
0.0
  0
ARC
  5
117
330
1F
100
AcDbEntity
  8
0
  6
Continuous
 62
     7
370
    25
100
AcDbCircle
 10
122.8227534099
 20
119.2486131076
 30
0.0
 40
3.69578356704289
100
AcDbArc
 50
251.647830712
 51
268.7536894373
  0
LINE
  5
118
330
1F
100
AcDbEntity
  8
0
  6
Continuous
 62
     7
370
    25
100
AcDbLine
 10
193.7138526558
 20
94.9887302042
 30
0.0
 11
145.7479621888
 21
94.9887302042
 31
0.0
  0
LINE
  5
119
330
1F
100
AcDbEntity
  8
0
  6
Continuous
 62
     7
370
    25
100
AcDbLine
 10
193.7138526558
 20
116.4887302042
 30
0.0
 11
145.7479621888
 21
116.4887302042
 31
0.0
  0
LINE
  5
11A
330
1F
100
AcDbEntity
  8
0
  6
Continuous
 62
     7
370
    25
100
AcDbLine
 10
78.6950997252
 20
94.9887302042
 30
0.0
 11
126.6609901922
 21
94.9887302042
 31
0.0
  0
LINE
  5
11B
330
1F
100
AcDbEntity
  8
0
  6
Continuous
 62
     7
370
    25
100
AcDbLine
 10
78.6950997252
 20
116.4887302042
 30
0.0
 11
126.6609901922
 21
116.4887302042
 31
0.0
  0
ARC
  5
11C
330
1F
100
AcDbEntity
  8
0
  6
Continuous
 62
     7
370
    25
100
AcDbCircle
 10
216.2044761905
 20
121.8674959802
 30
0.0
 40
5.000000000000028
100
AcDbArc
 50
275.1180625961
 51
0.0
  0
ARC
  5
11D
330
1F
100
AcDbEntity
  8
0
  6
Continuous
 62
     7
370
    25
100
AcDbCircle
 10
56.2044761905
 20
121.8674959802
 30
0.0
 40
5.000000000000007
100
AcDbArc
 50
180.0
 51
264.8819374039
  0
SPLINE
  5
11E
330
1F
100
AcDbEntity
  8
0
  6
Continuous
 62
     7
370
    25
100
AcDbSpline
210
0.0
220
0.0
230
1.0
 70
     8
 71
     3
 72
     9
 73
     5
 74
     0
 42
0.00000001
 43
0.00000001
 40
0.0
 40
0.0
 40
0.0
 40
0.0
 40
0.2667177525656821
 40
1.0
 40
1.0
 40
1.0
 40
1.0
 10
55.0590273471017
 20
116.9536503159325
 30
0.0
 10
55.18985531495473
 20
116.940810113545
 30
0.0
 10
55.68036622618773
 20
116.8926685771682
 30
0.0
 10
55.7254070633748
 20
116.8896468211021
 30
0.0
 10
55.75843470969365
 20
116.8874310210228
 30
0.0
  0
ARC
  5
11F
330
1F
100
AcDbEntity
  8
0
  6
Continuous
 62
     7
370
    25
100
AcDbCircle
 10
46.6033649879
 20
88.2532028781
 30
0.0
 40
5.00000000000002
100
AcDbArc
 50
100.968694682
 51
108.2613620338
  0
ARC
  5
120
330
1F
100
AcDbEntity
  8
0
  6
Continuous
 62
     7
370
    25
100
AcDbCircle
 10
225.805587393
 20
88.2532028781
 30
0.0
 40
5.000000000000026
100
AcDbArc
 50
71.7386379662
 51
79.031305318
  0
CIRCLE
  5
121
330
1F
100
AcDbEntity
  8
0
  6
Continuous
 62
     7
370
    25
100
AcDbCircle
 10
136.2044761905
 20
105.7387302042
 30
0.0
 40
0.1754446796632146
  0
CIRCLE
  5
122
330
1F
100
AcDbEntity
  8
0
  6
Continuous
 62
     7
370
    25
100
AcDbCircle
 10
136.2044761905
 20
105.7387302042
 30
0.0
 40
0.8079002116969
  0
CIRCLE
  5
123
330
1F
100
AcDbEntity
  8
0
  6
Continuous
 62
     7
370
    25
100
AcDbCircle
 10
136.2044761905
 20
105.7387302042
 30
0.0
 40
3.250519151701774
  0
CIRCLE
  5
124
330
1F
100
AcDbEntity
  8
0
  6
Continuous
 62
     7
370
    25
100
AcDbCircle
 10
136.2044761905
 20
105.7387302042
 30
0.0
 40
3.753506830612027
  0
CIRCLE
  5
125
330
1F
100
AcDbEntity
  8
0
  6
Continuous
 62
     7
370
    25
100
AcDbCircle
 10
136.2044761905
 20
105.7387302042
 30
0.0
 40
12.90685799625161
  0
CIRCLE
  5
126
330
1F
100
AcDbEntity
  8
0
  6
Continuous
 62
     7
370
    25
100
AcDbCircle
 10
136.2044761905
 20
105.7387302042
 30
0.0
 40
14.375
  0
LINE
  5
127
330
1F
100
AcDbEntity
  8
0
  6
Continuous
 62
     7
370
    25
100
AcDbLine
 10
33.1044761905
 20
108.3387302042
 30
0.0
 11
34.3044761905
 21
108.3387302042
 31
0.0
  0
LINE
  5
128
330
1F
100
AcDbEntity
  8
0
  6
Continuous
 62
     7
370
    25
100
AcDbLine
 10
33.1044761905
 20
107.0887302042
 30
0.0
 11
33.1044761905
 21
108.3387302042
 31
0.0
  0
SPLINE
  5
129
330
1F
100
AcDbEntity
  8
0
  6
Continuous
 62
     7
370
    25
100
AcDbSpline
210
0.0
220
0.0
230
1.0
 70
     8
 71
     3
 72
    12
 73
     8
 74
     0
 42
0.00000001
 43
0.00000001
 40
0.0
 40
0.0
 40
0.0
 40
0.0
 40
0.213353439547616
 40
0.4267919313634489
 40
0.6383539739091507
 40
0.8490950351927565
 40
1.0
 40
1.0
 40
1.0
 40
1.0
 10
32.3544761904762
 20
106.3387302041586
 30
0.0
 10
32.43796997863334
 20
106.3468317642746
 30
0.0
 10
32.60499083932344
 20
106.3630381141525
 30
0.0
 10
32.82882760092107
 20
106.4904392391685
 30
0.0
 10
32.99791332179823
 20
106.6778332550742
 30
0.0
 10
33.09057490800826
 20
106.8888092803655
 30
0.0
 10
33.10038338297246
 20
107.0298696019844
 30
0.0
 10
33.10447619047618
 20
107.0887302041586
 30
0.0
  0
LINE
  5
12A
330
1F
100
AcDbEntity
  8
0
  6
Continuous
 62
     7
370
    25
100
AcDbLine
 10
31.1044761905
 20
106.3387302042
 30
0.0
 11
32.3544761905
 21
106.3387302042
 31
0.0
  0
LINE
  5
12B
330
1F
100
AcDbEntity
  8
0
  6
Continuous
 62
     7
370
    25
100
AcDbLine
 10
31.1044761905
 20
105.1387302042
 30
0.0
 11
31.1044761905
 21
106.3387302042
 31
0.0
  0
LINE
  5
12C
330
1F
100
AcDbEntity
  8
0
  6
Continuous
 62
     7
370
    25
100
AcDbLine
 10
32.3544761905
 20
105.1387302042
 30
0.0
 11
31.1044761905
 21
105.1387302042
 31
0.0
  0
LINE
  5
12D
330
1F
100
AcDbEntity
  8
0
  6
Continuous
 62
     7
370
    25
100
AcDbLine
 10
33.1044761905
 20
103.1387302042
 30
0.0
 11
33.1044761905
 21
104.3887302042
 31
0.0
  0
LINE
  5
12E
330
1F
100
AcDbEntity
  8
0
  6
Continuous
 62
     7
370
    25
100
AcDbLine
 10
34.3044761905
 20
103.1387302042
 30
0.0
 11
33.1044761905
 21
103.1387302042
 31
0.0
  0
LINE
  5
12F
330
1F
100
AcDbEntity
  8
0
  6
Continuous
 62
     7
370
    25
100
AcDbLine
 10
34.3044761905
 20
104.3887302042
 30
0.0
 11
34.3044761905
 21
103.1387302042
 31
0.0
  0
LINE
  5
130
330
1F
100
AcDbEntity
  8
0
  6
Continuous
 62
     7
370
    25
100
AcDbLine
 10
36.3044761905
 20
105.1387302042
 30
0.0
 11
35.0544761905
 21
105.1387302042
 31
0.0
  0
LINE
  5
131
330
1F
100
AcDbEntity
  8
0
  6
Continuous
 62
     7
370
    25
100
AcDbLine
 10
36.3044761905
 20
106.3387302042
 30
0.0
 11
36.3044761905
 21
105.1387302042
 31
0.0
  0
LINE
  5
132
330
1F
100
AcDbEntity
  8
0
  6
Continuous
 62
     7
370
    25
100
AcDbLine
 10
35.0544761905
 20
106.3387302042
 30
0.0
 11
36.3044761905
 21
106.3387302042
 31
0.0
  0
SPLINE
  5
133
330
1F
100
AcDbEntity
  8
0
  6
Continuous
 62
     7
370
    25
100
AcDbSpline
210
0.0
220
0.0
230
1.0
 70
     8
 71
     3
 72
    12
 73
     8
 74
     0
 42
0.00000001
 43
0.00000001
 40
0.0
 40
0.0
 40
0.0
 40
0.0
 40
0.2133534395476114
 40
0.4267919313634442
 40
0.638353973909146
 40
0.8490950351927519
 40
1.0
 40
1.0
 40
1.0
 40
1.0
 10
34.30447619047619
 20
107.0887302041586
 30
0.0
 10
34.3125777505922
 20
107.0052364160015
 30
0.0
 10
34.32878410047013
 20
106.8382155553114
 30
0.0
 10
34.45618522548607
 20
106.6143787937138
 30
0.0
 10
34.64357924139179
 20
106.4452930728365
 30
0.0
 10
34.85455526668309
 20
106.3526314866265
 30
0.0
 10
34.99561558830204
 20
106.3428230116623
 30
0.0
 10
35.05447619047621
 20
106.3387302041586
 30
0.0
  0
LINE
  5
134
330
1F
100
AcDbEntity
  8
0
  6
Continuous
 62
     7
370
    25
100
AcDbLine
 10
34.3044761905
 20
108.3387302042
 30
0.0
 11
34.3044761905
 21
107.0887302042
 31
0.0
  0
CIRCLE
  5
135
330
1F
100
AcDbEntity
  8
0
  6
Continuous
 62
     7
370
    25
100
AcDbCircle
 10
33.7044761905
 20
105.7387302042
 30
0.0
 40
4.197433366238901
  0
SPLINE
  5
136
330
1F
100
AcDbEntity
  8
0
  6
Continuous
 62
     7
370
    25
100
AcDbSpline
210
0.0
220
0.0
230
1.0
 70
     8
 71
     3
 72
    12
 73
     8
 74
     0
 42
0.00000001
 43
0.00000001
 40
0.0
 40
0.0
 40
0.0
 40
0.0
 40
0.213353439547616
 40
0.426791931363449
 40
0.6383539739091509
 40
0.8490950351927566
 40
0.9999999999999999
 40
0.9999999999999999
 40
0.9999999999999999
 40
0.9999999999999999
 10
35.05447619047621
 20
105.1387302041586
 30
0.0
 10
34.97098240231908
 20
105.1306286440426
 30
0.0
 10
34.80396154162899
 20
105.1144222941647
 30
0.0
 10
34.58012478003136
 20
104.9870211691487
 30
0.0
 10
34.41103905915414
 20
104.799627153243
 30
0.0
 10
34.31837747294416
 20
104.5886511279517
 30
0.0
 10
34.30856899797996
 20
104.4475908063328
 30
0.0
 10
34.30447619047619
 20
104.3887302041586
 30
0.0
  0
SPLINE
  5
137
330
1F
100
AcDbEntity
  8
0
  6
Continuous
 62
     7
370
    25
100
AcDbSpline
210
0.0
220
0.0
230
1.0
 70
     8
 71
     3
 72
    12
 73
     8
 74
     0
 42
0.00000001
 43
0.00000001
 40
0.0
 40
0.0
 40
0.0
 40
0.0
 40
0.2133534395476115
 40
0.4267919313634443
 40
0.638353973909146
 40
0.849095035192752
 40
1.0
 40
1.0
 40
1.0
 40
1.0
 10
33.1044761904762
 20
104.3887302041586
 30
0.0
 10
33.0963746303602
 20
104.4722239923157
 30
0.0
 10
33.08016828048225
 20
104.6392448530058
 30
0.0
 10
32.95276715546634
 20
104.8630816146034
 30
0.0
 10
32.76537313956064
 20
105.0321673354807
 30
0.0
 10
32.55439711426927
 20
105.1248289216907
 30
0.0
 10
32.41333679265035
 20
105.1346373966549
 30
0.0
 10
32.35447619047618
 20
105.1387302041586
 30
0.0
  0
CIRCLE
  5
138
330
1F
100
AcDbEntity
  8
0
  6
Continuous
 62
     7
370
    25
100
AcDbCircle
 10
33.7044761905
 20
105.7387302042
 30
0.0
 40
4.500000000000004
  0
LINE
  5
139
330
1F
100
AcDbEntity
  8
0
  6
Continuous
 62
     7
370
    25
100
AcDbLine
 10
239.3044761905
 20
103.1387302042
 30
0.0
 11
238.1044761905
 21
103.1387302042
 31
0.0
  0
LINE
  5
13A
330
1F
100
AcDbEntity
  8
0
  6
Continuous
 62
     7
370
    25
100
AcDbLine
 10
239.3044761905
 20
104.3887302042
 30
0.0
 11
239.3044761905
 21
103.1387302042
 31
0.0
  0
LINE
  5
13B
330
1F
100
AcDbEntity
  8
0
  6
Continuous
 62
     7
370
    25
100
AcDbLine
 10
241.3044761905
 20
105.1387302042
 30
0.0
 11
240.0544761905
 21
105.1387302042
 31
0.0
  0
LINE
  5
13C
330
1F
100
AcDbEntity
  8
0
  6
Continuous
 62
     7
370
    25
100
AcDbLine
 10
241.3044761905
 20
106.3387302042
 30
0.0
 11
241.3044761905
 21
105.1387302042
 31
0.0
  0
LINE
  5
13D
330
1F
100
AcDbEntity
  8
0
  6
Continuous
 62
     7
370
    25
100
AcDbLine
 10
240.0544761905
 20
106.3387302042
 30
0.0
 11
241.3044761905
 21
106.3387302042
 31
0.0
  0
LINE
  5
13E
330
1F
100
AcDbEntity
  8
0
  6
Continuous
 62
     7
370
    25
100
AcDbLine
 10
239.3044761905
 20
108.3387302042
 30
0.0
 11
239.3044761905
 21
107.0887302042
 31
0.0
  0
LINE
  5
13F
330
1F
100
AcDbEntity
  8
0
  6
Continuous
 62
     7
370
    25
100
AcDbLine
 10
238.1044761905
 20
108.3387302042
 30
0.0
 11
239.3044761905
 21
108.3387302042
 31
0.0
  0
LINE
  5
140
330
1F
100
AcDbEntity
  8
0
  6
Continuous
 62
     7
370
    25
100
AcDbLine
 10
238.1044761905
 20
107.0887302042
 30
0.0
 11
238.1044761905
 21
108.3387302042
 31
0.0
  0
LINE
  5
141
330
1F
100
AcDbEntity
  8
0
  6
Continuous
 62
     7
370
    25
100
AcDbLine
 10
236.1044761905
 20
106.3387302042
 30
0.0
 11
237.3544761905
 21
106.3387302042
 31
0.0
  0
LINE
  5
142
330
1F
100
AcDbEntity
  8
0
  6
Continuous
 62
     7
370
    25
100
AcDbLine
 10
236.1044761905
 20
105.1387302042
 30
0.0
 11
236.1044761905
 21
106.3387302042
 31
0.0
  0
LINE
  5
143
330
1F
100
AcDbEntity
  8
0
  6
Continuous
 62
     7
370
    25
100
AcDbLine
 10
237.3544761905
 20
105.1387302042
 30
0.0
 11
236.1044761905
 21
105.1387302042
 31
0.0
  0
LINE
  5
144
330
1F
100
AcDbEntity
  8
0
  6
Continuous
 62
     7
370
    25
100
AcDbLine
 10
238.1044761905
 20
103.1387302042
 30
0.0
 11
238.1044761905
 21
104.3887302042
 31
0.0
  0
CIRCLE
  5
145
330
1F
100
AcDbEntity
  8
0
  6
Continuous
 62
     7
370
    25
100
AcDbCircle
 10
238.7044761905
 20
105.7387302042
 30
0.0
 40
4.197433366238897
  0
SPLINE
  5
146
330
1F
100
AcDbEntity
  8
0
  6
Continuous
 62
     7
370
    25
100
AcDbSpline
210
0.0
220
0.0
230
1.0
 70
     8
 71
     3
 72
    12
 73
     8
 74
     0
 42
0.00000001
 43
0.00000001
 40
0.0
 40
0.0
 40
0.0
 40
0.0
 40
0.213353439547616
 40
0.426791931363449
 40
0.6383539739091509
 40
0.8490950351927566
 40
0.9999999999999999
 40
0.9999999999999999
 40
0.9999999999999999
 40
0.9999999999999999
 10
237.3544761904762
 20
106.3387302041586
 30
0.0
 10
237.4379699786333
 20
106.3468317642746
 30
0.0
 10
237.6049908393234
 20
106.3630381141525
 30
0.0
 10
237.828827600921
 20
106.4904392391685
 30
0.0
 10
237.9979133217983
 20
106.6778332550742
 30
0.0
 10
238.0905749080083
 20
106.8888092803655
 30
0.0
 10
238.1003833829725
 20
107.0298696019844
 30
0.0
 10
238.1044761904762
 20
107.0887302041586
 30
0.0
  0
SPLINE
  5
147
330
1F
100
AcDbEntity
  8
0
  6
Continuous
 62
     7
370
    25
100
AcDbSpline
210
0.0
220
0.0
230
1.0
 70
     8
 71
     3
 72
    12
 73
     8
 74
     0
 42
0.00000001
 43
0.00000001
 40
0.0
 40
0.0
 40
0.0
 40
0.0
 40
0.2133534395476115
 40
0.4267919313634443
 40
0.638353973909146
 40
0.849095035192752
 40
1.0
 40
1.0
 40
1.0
 40
1.0
 10
239.3044761904762
 20
107.0887302041586
 30
0.0
 10
239.3125777505922
 20
107.0052364160015
 30
0.0
 10
239.3287841004702
 20
106.8382155553114
 30
0.0
 10
239.4561852254861
 20
106.6143787937138
 30
0.0
 10
239.6435792413918
 20
106.4452930728365
 30
0.0
 10
239.8545552666831
 20
106.3526314866265
 30
0.0
 10
239.9956155883021
 20
106.3428230116623
 30
0.0
 10
240.0544761904762
 20
106.3387302041586
 30
0.0
  0
SPLINE
  5
148
330
1F
100
AcDbEntity
  8
0
  6
Continuous
 62
     7
370
    25
100
AcDbSpline
210
0.0
220
0.0
230
1.0
 70
     8
 71
     3
 72
    12
 73
     8
 74
     0
 42
0.00000001
 43
0.00000001
 40
0.0
 40
0.0
 40
0.0
 40
0.0
 40
0.213353439547616
 40
0.4267919313634489
 40
0.6383539739091507
 40
0.8490950351927565
 40
1.0
 40
1.0
 40
1.0
 40
1.0
 10
240.0544761904762
 20
105.1387302041586
 30
0.0
 10
239.9709824023191
 20
105.1306286440426
 30
0.0
 10
239.803961541629
 20
105.1144222941647
 30
0.0
 10
239.5801247800314
 20
104.9870211691487
 30
0.0
 10
239.4110390591542
 20
104.799627153243
 30
0.0
 10
239.3183774729441
 20
104.5886511279517
 30
0.0
 10
239.30856899798
 20
104.4475908063328
 30
0.0
 10
239.3044761904762
 20
104.3887302041586
 30
0.0
  0
SPLINE
  5
149
330
1F
100
AcDbEntity
  8
0
  6
Continuous
 62
     7
370
    25
100
AcDbSpline
210
0.0
220
0.0
230
1.0
 70
     8
 71
     3
 72
    12
 73
     8
 74
     0
 42
0.00000001
 43
0.00000001
 40
0.0
 40
0.0
 40
0.0
 40
0.0
 40
0.2133534395476114
 40
0.4267919313634442
 40
0.638353973909146
 40
0.8490950351927519
 40
1.0
 40
1.0
 40
1.0
 40
1.0
 10
238.1044761904762
 20
104.3887302041586
 30
0.0
 10
238.0963746303602
 20
104.4722239923157
 30
0.0
 10
238.0801682804823
 20
104.6392448530058
 30
0.0
 10
237.9527671554663
 20
104.8630816146034
 30
0.0
 10
237.7653731395606
 20
105.0321673354807
 30
0.0
 10
237.5543971142693
 20
105.1248289216907
 30
0.0
 10
237.4133367926504
 20
105.1346373966549
 30
0.0
 10
237.3544761904762
 20
105.1387302041586
 30
0.0
  0
CIRCLE
  5
14A
330
1F
100
AcDbEntity
  8
0
  6
Continuous
 62
     7
370
    25
100
AcDbCircle
 10
238.7044761905
 20
105.7387302042
 30
0.0
 40
4.5
  0
CIRCLE
  5
14B
330
1F
100
AcDbEntity
  8
0
  6
Continuous
 62
     7
370
    25
100
AcDbCircle
 10
238.7044761905
 20
105.7387302042
 30
0.0
 40
5.074569253689148
  0
CIRCLE
  5
14C
330
1F
100
AcDbEntity
  8
0
  6
Continuous
 62
     7
370
    25
100
AcDbCircle
 10
238.7044761905
 20
105.7387302042
 30
0.0
 40
5.328914336627591
  0
CIRCLE
  5
14D
330
1F
100
AcDbEntity
  8
0
  6
Continuous
 62
     7
370
    25
100
AcDbCircle
 10
238.7044761905
 20
105.7387302042
 30
0.0
 40
5.925127771161399
  0
CIRCLE
  5
14E
330
1F
100
AcDbEntity
  8
0
  6
Continuous
 62
     7
370
    25
100
AcDbCircle
 10
238.7044761905
 20
105.7387302042
 30
0.0
 40
7.150000000000006
  0
CIRCLE
  5
14F
330
1F
100
AcDbEntity
  8
0
  6
Continuous
 62
     7
370
    25
100
AcDbCircle
 10
33.7044761905
 20
105.7387302042
 30
0.0
 40
5.328914336627591
  0
CIRCLE
  5
150
330
1F
100
AcDbEntity
  8
0
  6
Continuous
 62
     7
370
    25
100
AcDbCircle
 10
33.7044761905
 20
105.7387302042
 30
0.0
 40
5.074569253689177
  0
CIRCLE
  5
151
330
1F
100
AcDbEntity
  8
0
  6
Continuous
 62
     7
370
    25
100
AcDbCircle
 10
33.7044761905
 20
105.7387302042
 30
0.0
 40
5.925127771161399
  0
CIRCLE
  5
152
330
1F
100
AcDbEntity
  8
0
  6
Continuous
 62
     7
370
    25
100
AcDbCircle
 10
33.7044761905
 20
105.7387302042
 30
0.0
 40
7.150000000000006
  0
SPLINE
  5
153
330
1F
100
AcDbEntity
  8
0
  6
Continuous
 62
     7
370
    25
100
AcDbSpline
210
0.0
220
0.0
230
1.0
 70
     8
 71
     3
 72
    11
 73
     7
 74
     0
 42
0.00000001
 43
0.00000001
 40
0.0
 40
0.0
 40
0.0
 40
0.0
 40
0.2200386424382255
 40
0.6637869905998169
 40
0.8890365590789576
 40
1.0
 40
1.0
 40
1.0
 40
1.0
 10
27.02688604588432
 20
99.71841189720764
 30
0.0
 10
26.82266458288279
 20
99.98343050846643
 30
0.0
 10
26.20659301999924
 20
100.7829078387712
 30
0.0
 10
25.68304366898208
 20
102.046077109299
 30
0.0
 10
25.43141446922098
 20
103.2126469226232
 30
0.0
 10
25.45212166394324
 20
103.7239267212825
 30
0.0
 10
25.45895584796932
 20
103.8926690487548
 30
0.0
  0
SPLINE
  5
154
330
1F
100
AcDbEntity
  8
0
  6
Continuous
 62
     7
370
    25
100
AcDbSpline
210
0.0
220
0.0
230
1.0
 70
     8
 71
     3
 72
     9
 73
     5
 74
     0
 42
0.00000001
 43
0.00000001
 40
0.0
 40
0.0
 40
0.0
 40
0.0
 40
0.9209630919903056
 40
1.0
 40
1.0
 40
1.0
 40
1.0
 10
25.38684368263699
 20
100.0387351728411
 30
0.0
 10
25.90126522050981
 20
99.98190811392256
 30
0.0
 10
26.45983433402455
 20
99.92020416572656
 30
0.0
 10
26.98535084569394
 20
99.7331927048386
 30
0.0
 10
27.02688604588434
 20
99.71841189720764
 30
0.0
  0
SPLINE
  5
155
330
1F
100
AcDbEntity
  8
0
  6
Continuous
 62
     7
370
    25
100
AcDbSpline
210
0.0
220
0.0
230
1.0
 70
     8
 71
     3
 72
    10
 73
     6
 74
     0
 42
0.00000001
 43
0.00000001
 40
0.0
 40
0.0
 40
0.0
 40
0.0
 40
0.2596150688488836
 40
0.629760644481066
 40
0.9999999999999999
 40
0.9999999999999999
 40
0.9999999999999999
 40
0.9999999999999999
 10
-21.78831727130023
 20
102.6302927418302
 30
0.0
 10
-17.71049705257719
 20
102.3305386047318
 30
0.0
 10
-7.818734219211921
 20
101.6034107095677
 30
0.0
 10
7.910838463461273
 20
100.7775638396775
 30
0.0
 10
19.56101672472593
 20
100.2850321904119
 30
0.0
 10
25.38684368263699
 20
100.0387351728411
 30
0.0
  0
SPLINE
  5
156
330
1F
100
AcDbEntity
  8
0
  6
Continuous
 62
     7
370
    25
100
AcDbSpline
210
0.0
220
0.0
230
1.0
 70
     8
 71
     3
 72
    11
 73
     7
 74
     0
 42
0.00000001
 43
0.00000001
 40
0.0
 40
0.0
 40
0.0
 40
0.0
 40
0.0614641195413916
 40
0.4999988937835375
 40
0.9375097801832794
 40
1.0
 40
1.0
 40
1.0
 40
1.0
 10
-21.78831727130004
 20
108.3563250888322
 30
0.0
 10
-21.79998646750242
 20
108.2398681163801
 30
0.0
 10
-21.89491315377168
 20
107.2925128490488
 30
0.0
 10
-21.97861598103798
 20
105.4952686506006
 30
0.0
 10
-21.89504605751774
 20
103.6960706263598
 30
0.0
 10
-21.80017435247256
 20
102.7486958019267
 30
0.0
 10
-21.78831727130023
 20
102.6302927418302
 30
0.0
  0
SPLINE
  5
157
330
1F
100
AcDbEntity
  8
0
  6
Continuous
 62
     7
370
    25
100
AcDbSpline
210
0.0
220
0.0
230
1.0
 70
     8
 71
     3
 72
    11
 73
     7
 74
     0
 42
0.00000001
 43
0.00000001
 40
0.0
 40
0.0
 40
0.0
 40
0.0
 40
0.2594589277291888
 40
0.6296002946237422
 40
0.8147836738016292
 40
1.0
 40
1.0
 40
1.0
 40
1.0
 10
25.38684368263699
 20
110.9478826578193
 30
0.0
 10
21.30384303329205
 20
110.7823840713984
 30
0.0
 10
11.39607676648759
 20
110.3807869489469
 30
0.0
 10
-1.419060192473426
 20
109.7025341329235
 30
0.0
 10
-13.06333245873301
 20
109.0251132407113
 30
0.0
 10
-18.87981654186563
 20
108.579267692099
 30
0.0
 10
-21.78831727130004
 20
108.3563250888322
 30
0.0
  0
SPLINE
  5
158
330
1F
100
AcDbEntity
  8
0
  6
Continuous
 62
     7
370
    25
100
AcDbSpline
210
0.0
220
0.0
230
1.0
 70
     8
 71
     3
 72
     9
 73
     5
 74
     0
 42
0.00000001
 43
0.00000001
 40
0.0
 40
0.0
 40
0.0
 40
0.0
 40
0.0790369080192137
 40
1.0
 40
1.0
 40
1.0
 40
1.0
 10
27.02688604588353
 20
111.2682059334527
 30
0.0
 10
26.98535084568816
 20
111.2534251258199
 30
0.0
 10
26.45983433401901
 20
111.0664136649321
 30
0.0
 10
25.9012652205044
 20
111.0047097167367
 30
0.0
 10
25.38684368263699
 20
110.9478826578193
 30
0.0
  0
SPLINE
  5
159
330
1F
100
AcDbEntity
  8
0
  6
Continuous
 62
     7
370
    25
100
AcDbSpline
210
0.0
220
0.0
230
1.0
 70
     8
 71
     3
 72
    11
 73
     7
 74
     0
 42
0.00000001
 43
0.00000001
 40
0.0
 40
0.0
 40
0.0
 40
0.0
 40
0.0728838064943292
 40
0.4140719411596028
 40
0.9209668754550567
 40
1.0
 40
1.0
 40
1.0
 40
1.0
 10
25.45895584797306
 20
107.0939487818908
 30
0.0
 10
25.45124069883545
 20
107.2043952161298
 30
0.0
 10
25.40740892147084
 20
107.8318702564608
 30
0.0
 10
25.7519006329089
 20
109.2148622869259
 30
0.0
 10
26.3915899823951
 20
110.4847938047034
 30
0.0
 10
26.95137873182804
 20
111.1750944708764
 30
0.0
 10
27.02688604588353
 20
111.2682059334527
 30
0.0
  0
SPLINE
  5
15A
330
1F
100
AcDbEntity
  8
0
  6
Continuous
 62
     7
370
    25
100
AcDbSpline
210
0.0
220
0.0
230
1.0
 70
     8
 71
     3
 72
    10
 73
     6
 74
     0
 42
0.00000001
 43
0.00000001
 40
0.0
 40
0.0
 40
0.0
 40
0.0
 40
0.3880207377811384
 40
0.979063776650685
 40
1.0
 40
1.0
 40
1.0
 40
1.0
 10
25.45895584796934
 20
103.8926690487548
 30
0.0
 10
25.53227037872863
 20
104.3035089106106
 30
0.0
 10
25.71725946405187
 20
105.3401504804589
 30
0.0
 10
25.62155253822147
 20
106.4339198020302
 30
0.0
 10
25.46433438697314
 20
107.0721156707496
 30
0.0
 10
25.45895584797304
 20
107.0939487818908
 30
0.0
  0
ARC
  5
15B
330
1F
100
AcDbEntity
  8
0
  6
Continuous
 62
     7
370
    25
100
AcDbCircle
 10
33.7044761905
 20
105.4933089153
 30
0.0
 40
8.399443654264548
100
AcDbArc
 50
190.985757993
 51
169.0142420071
  0
SPLINE
  5
15C
330
1F
100
AcDbEntity
  8
0
  6
Continuous
 62
     7
370
    25
100
AcDbSpline
210
0.0
220
0.0
230
1.0
 70
     8
 71
     3
 72
     9
 73
     5
 74
     0
 42
0.00000001
 43
0.00000001
 40
0.0
 40
0.0
 40
0.0
 40
0.0
 40
0.681792342127431
 40
1.0
 40
1.0
 40
1.0
 40
1.0
 10
27.02688604588353
 20
111.2682059334527
 30
0.0
 10
27.16914960652658
 20
111.4581162885578
 30
0.0
 10
27.37781073668699
 20
111.7366620324314
 30
0.0
 10
27.60723657056739
 20
111.9695664053744
 30
0.0
 10
27.68024162782191
 20
112.0436783603968
 30
0.0
  0
ARC
  5
15D
330
1F
100
AcDbEntity
  8
0
  6
Continuous
 62
     7
370
    25
100
AcDbCircle
 10
33.7044761905
 20
105.4933089153
 30
0.0
 40
8.899367501836315
100
AcDbArc
 50
227.3959191961
 51
132.6040808039
  0
LINE
  5
15E
330
1F
100
AcDbEntity
  8
0
  6
Continuous
 62
     7
370
    25
100
AcDbLine
 10
27.6802416278
 20
98.9429394703
 30
0.0
 11
27.0268860459
 21
99.7184118972
 31
0.0
  0
SPLINE
  5
15F
330
1F
100
AcDbEntity
  8
0
  6
Continuous
 62
     7
370
    25
100
AcDbSpline
210
0.0
220
0.0
230
1.0
 70
     8
 71
     3
 72
    10
 73
     6
 74
     0
 42
0.00000001
 43
0.00000001
 40
0.0
 40
0.0
 40
0.0
 40
0.0
 40
0.3702896688583036
 40
0.7405318123903298
 40
1.0
 40
1.0
 40
1.0
 40
1.0
 10
-21.79983673447844
 20
108.7991846696654
 30
0.0
 10
-15.97977288826005
 20
109.1193756841917
 30
0.0
 10
-4.340392179756486
 20
109.7597166178972
 30
0.0
 10
11.37847622701833
 20
110.6289509497605
 30
0.0
 10
21.27565004302809
 20
111.1776919513697
 30
0.0
 10
25.35371836349223
 20
111.4037972352015
 30
0.0
  0
ARC
  5
160
330
1F
100
AcDbEntity
  8
0
  6
Continuous
 62
     7
370
    25
100
AcDbCircle
 10
18.1386291561
 20
110.6504108685
 30
0.0
 40
7.254316183399022
100
AcDbArc
 50
2.3501399449
 51
5.9611177313
  0
ARC
  5
161
330
1F
100
AcDbEntity
  8
0
  6
Continuous
 62
     7
370
    25
100
AcDbCircle
 10
-17.5393141933
 20
108.6884278457
 30
0.0
 40
4.261961918892728
100
AcDbArc
 50
178.5108705386
 51
184.4691613065
  0
SPLINE
  5
162
330
1F
100
AcDbEntity
  8
0
  6
Continuous
 62
     7
370
    25
100
AcDbSpline
210
0.0
220
0.0
230
1.0
 70
     8
 71
     3
 72
    10
 73
     6
 74
     0
 42
0.00000001
 43
0.00000001
 40
0.0
 40
0.0
 40
0.0
 40
0.0
 40
0.3702717503651152
 40
0.7405122151371749
 40
1.0
 40
1.0
 40
1.0
 40
1.0
 10
25.35371836349225
 20
99.58282059545901
 30
0.0
 10
19.53404630182304
 20
99.90534908112693
 30
0.0
 10
7.895193903526221
 20
100.55037880087
 30
0.0
 10
-7.823945680428435
 20
101.419193288349
 30
0.0
 10
-17.72144310412713
 20
101.9632481991158
 30
0.0
 10
-21.79983673447508
 20
102.1874331609949
 30
0.0
  0
ARC
  5
163
330
1F
100
AcDbEntity
  8
0
  6
Continuous
 62
     7
370
    25
100
AcDbCircle
 10
-17.5393141904
 20
102.298189985
 30
0.0
 40
4.261961921812926
100
AcDbArc
 50
175.530838696
 51
181.4891294598
  0
ARC
  5
164
330
1F
100
AcDbEntity
  8
0
  6
Continuous
 62
     7
370
    25
100
AcDbCircle
 10
18.138629156
 20
100.3362069621
 30
0.0
 40
7.254316183452086
100
AcDbArc
 50
354.0388822687
 51
357.6498600551
  0
SPLINE
  5
165
330
1F
100
AcDbEntity
  8
0
  6
Continuous
 62
     7
370
    25
100
AcDbSpline
210
0.0
220
0.0
230
1.0
 70
     8
 71
     3
 72
    12
 73
     8
 74
     0
 42
0.00000001
 43
0.00000001
 40
0.0
 40
0.0
 40
0.0
 40
0.0
 40
0.1224290494151355
 40
0.342352244977047
 40
0.5614228816909439
 40
0.780722953853349
 40
1.0
 40
1.0
 40
1.0
 40
1.0
 10
-23.72404470414774
 20
102.7409671114865
 30
0.0
 10
-23.71504062828367
 20
102.7386084270455
 30
0.0
 10
-23.68986224455258
 20
102.7320127627208
 30
0.0
 10
-23.47387456090791
 20
102.7150047949815
 30
0.0
 10
-23.03797643117892
 20
102.6894938208272
 30
0.0
 10
-22.45405081774865
 20
102.6599416382678
 30
0.0
 10
-22.01022068618052
 20
102.6401753613888
 30
0.0
 10
-21.78831727130023
 20
102.6302927418302
 30
0.0
  0
SPLINE
  5
166
330
1F
100
AcDbEntity
  8
0
  6
Continuous
 62
     7
370
    25
100
AcDbSpline
210
0.0
220
0.0
230
1.0
 70
     8
 71
     3
 72
    11
 73
     7
 74
     0
 42
0.00000001
 43
0.00000001
 40
0.0
 40
0.0
 40
0.0
 40
0.0
 40
0.0800485240044433
 40
0.5000005853538798
 40
0.9209248322279645
 40
1.0
 40
1.0
 40
1.0
 40
1.0
 10
-23.72404470414774
 20
102.7409671114865
 30
0.0
 10
-23.7237584597336
 20
102.8872115365871
 30
0.0
 10
-23.72197051452901
 20
103.8006861954202
 30
0.0
 10
-23.7207348176991
 20
105.4950957831787
 30
0.0
 10
-23.72197251579383
 20
107.1877226350334
 30
0.0
 10
-23.72376173776186
 20
108.1011860106773
 30
0.0
 10
-23.72404470414774
 20
108.2456507191685
 30
0.0
  0
SPLINE
  5
167
330
1F
100
AcDbEntity
  8
0
  6
Continuous
 62
     7
370
    25
100
AcDbSpline
210
0.0
220
0.0
230
1.0
 70
     8
 71
     3
 72
    12
 73
     8
 74
     0
 42
0.00000001
 43
0.00000001
 40
0.0
 40
0.0
 40
0.0
 40
0.0
 40
0.1130367476169193
 40
0.3328594693547965
 40
0.5544127937944973
 40
0.7774207483513236
 40
1.0
 40
1.0
 40
1.0
 40
1.0
 10
-21.78831727130004
 20
108.3563250888322
 30
0.0
 10
-21.90238811128692
 20
108.3513098431307
 30
0.0
 10
-22.23829267389477
 20
108.3365414420749
 30
0.0
 10
-22.77236053028958
 20
108.3109492379656
 30
0.0
 10
-23.28888616817673
 20
108.2830739750946
 30
0.0
 10
-23.64578088533126
 20
108.2596321015041
 30
0.0
 10
-23.69797350284963
 20
108.2503081897444
 30
0.0
 10
-23.72404470414777
 20
108.2456507191685
 30
0.0
  0
SPLINE
  5
168
330
1F
100
AcDbEntity
  8
0
  6
Continuous
 62
     7
370
    25
100
AcDbSpline
210
0.0
220
0.0
230
1.0
 70
     8
 71
     3
 72
     9
 73
     5
 74
     0
 42
0.00000001
 43
0.00000001
 40
0.0
 40
0.0
 40
0.0
 40
0.0
 40
0.500010612381544
 40
1.0
 40
1.0
 40
1.0
 40
1.0
 10
28.17984947666487
 20
98.51110778101734
 30
0.0
 10
27.75012810984398
 20
98.79894831911064
 30
0.0
 10
26.89070361728341
 20
99.37461717686207
 30
0.0
 10
25.86603953200517
 20
99.51342043794882
 30
0.0
 10
25.35371836349225
 20
99.58282059545901
 30
0.0
  0
SPLINE
  5
169
330
1F
100
AcDbEntity
  8
0
  6
Continuous
 62
     7
370
    25
100
AcDbSpline
210
0.0
220
0.0
230
1.0
 70
     8
 71
     3
 72
     9
 73
     5
 74
     0
 42
0.00000001
 43
0.00000001
 40
0.0
 40
0.0
 40
0.0
 40
0.0
 40
0.9838702326459385
 40
1.0
 40
1.0
 40
1.0
 40
1.0
 10
27.68024162782193
 20
98.94293947026365
 30
0.0
 10
27.84158244275649
 20
98.7981070572447
 30
0.0
 10
28.00556831160492
 20
98.65090023238788
 30
0.0
 10
28.17708298488701
 20
98.51332680834132
 30
0.0
 10
28.17984947666487
 20
98.51110778101734
 30
0.0
  0
SPLINE
  5
16A
330
1F
100
AcDbEntity
  8
0
  6
Continuous
 62
     7
370
    25
100
AcDbSpline
210
0.0
220
0.0
230
1.0
 70
     8
 71
     3
 72
     9
 73
     5
 74
     0
 42
0.00000001
 43
0.00000001
 40
0.0
 40
0.0
 40
0.0
 40
0.0
 40
0.5055561057107305
 40
1.0
 40
1.0
 40
1.0
 40
1.0
 10
25.35371836349223
 20
111.4037972352015
 30
0.0
 10
25.87177788082527
 20
111.4744532694715
 30
0.0
 10
26.89650987690059
 20
111.6142123060489
 30
0.0
 10
27.7552504456622
 20
112.1905455808447
 30
0.0
 10
28.17984947666487
 20
112.4755100496431
 30
0.0
  0
SPLINE
  5
16B
330
1F
100
AcDbEntity
  8
0
  6
Continuous
 62
     7
370
    25
100
AcDbSpline
210
0.0
220
0.0
230
1.0
 70
     8
 71
     3
 72
     9
 73
     5
 74
     0
 42
0.00000001
 43
0.00000001
 40
0.0
 40
0.0
 40
0.0
 40
0.0
 40
0.0161297673533178
 40
0.9999999999999999
 40
0.9999999999999999
 40
0.9999999999999999
 40
0.9999999999999999
 10
28.17984947666487
 20
112.4755100496431
 30
0.0
 10
28.17708298488708
 20
112.4732910223192
 30
0.0
 10
28.00556831160118
 20
112.3357175982696
 30
0.0
 10
27.8415824427547
 20
112.1885107734144
 30
0.0
 10
27.6802416278219
 20
112.0436783603968
 30
0.0
  0
SPLINE
  5
16C
330
1F
100
AcDbEntity
  8
0
  6
Continuous
 62
     7
370
    25
100
AcDbSpline
210
0.0
220
0.0
230
1.0
 70
     8
 71
     3
 72
    12
 73
     8
 74
     0
 42
0.00000001
 43
0.00000001
 40
0.0
 40
0.0
 40
0.0
 40
0.0
 40
0.2230315344150348
 40
0.4461337558340362
 40
0.6675099896776944
 40
0.8870667292264904
 40
1.0
 40
1.0
 40
1.0
 40
1.0
 10
-23.25169043906325
 20
108.744813790217
 30
0.0
 10
-23.23215665293732
 20
108.7429235429222
 30
0.0
 10
-23.19308288970082
 20
108.7391424492428
 30
0.0
 10
-22.92549370764463
 20
108.7460852855135
 30
0.0
 10
-22.53796462381952
 20
108.7616741080033
 30
0.0
 10
-22.13724251135657
 20
108.7810113880675
 30
0.0
 10
-21.88538308909862
 20
108.794576989244
 30
0.0
 10
-21.79983673447844
 20
108.7991846696654
 30
0.0
  0
ARC
  5
16D
330
1F
100
AcDbEntity
  8
0
  6
Continuous
 62
     7
370
    25
100
AcDbCircle
 10
-23.2239448165
 20
108.2454841338
 30
0.0
 40
0.500099915346885
100
AcDbArc
 50
93.1804119247
 51
179.9809145383
  0
SPLINE
  5
16E
330
1F
100
AcDbEntity
  8
0
  6
Continuous
 62
     7
370
    25
100
AcDbSpline
210
0.0
220
0.0
230
1.0
 70
     8
 71
     3
 72
    12
 73
     8
 74
     0
 42
0.00000001
 43
0.00000001
 40
0.0
 40
0.0
 40
0.0
 40
0.0
 40
0.2190444340109326
 40
0.4380981679380329
 40
0.6571027493691808
 40
0.8772791087290024
 40
1.0
 40
1.0
 40
1.0
 40
1.0
 10
-21.79983673447508
 20
102.1874331609949
 30
0.0
 10
-21.96625447524592
 20
102.1962619739447
 30
0.0
 10
-22.29909702234506
 20
102.213919974687
 30
0.0
 10
-22.73725546498831
 20
102.233438464096
 30
0.0
 10
-23.06422129174773
 20
102.2447442477283
 30
0.0
 10
-23.22606516876194
 20
102.2465681158049
 30
0.0
 10
-23.24493650117415
 20
102.2430596864801
 30
0.0
 10
-23.25169043906325
 20
102.2418040404436
 30
0.0
  0
ARC
  5
16F
330
1F
100
AcDbEntity
  8
0
  6
Continuous
 62
     7
370
    25
100
AcDbCircle
 10
-23.2239448165
 20
102.7411336968
 30
0.0
 40
0.5000999153470574
100
AcDbArc
 50
180.0190854624
 51
266.8195880753
  0
LINE
  5
170
330
1F
100
AcDbEntity
  8
0
  6
Continuous
 62
     7
370
    25
100
AcDbLine
 10
25.3537183635
 20
111.4037972352
 30
0.0
 11
25.3267321818
 21
111.4750875106
 31
0.0
  0
LINE
  5
171
330
1F
100
AcDbEntity
  8
0
  6
Continuous
 62
     7
370
    25
100
AcDbLine
 10
-23.2563807997
 20
108.7492522433
 30
0.0
 11
-23.2516904391
 21
108.7448137902
 31
0.0
  0
ELLIPSE
  5
172
330
1F
100
AcDbEntity
  8
0
  6
Continuous
 62
     7
370
    25
100
AcDbEllipse
 10
-21.756609257
 20
108.8325446933
 30
0.0
 11
1.499999304622801
 21
0.08287263343869711
 31
0.0
210
0.0
220
0.0
230
1.0
 40
0.0174284859
 41
2.255125316696822
 42
3.158083049611484
  0
LINE
  5
173
330
1F
100
AcDbEntity
  8
0
  6
Continuous
 62
     7
370
    25
100
AcDbLine
 10
-19.240994588
 20
109.0413042813
 30
0.0
 11
-22.7059577974
 21
108.8004130023
 31
0.0
  0
LINE
  5
174
330
1F
100
AcDbEntity
  8
0
  6
Continuous
 62
     7
370
    25
100
AcDbLine
 10
-19.240994588
 20
109.0412058901
 30
0.0
 11
-19.240994588
 21
109.0413042813
 31
0.0
  0
ELLIPSE
  5
175
330
1F
100
AcDbEntity
  8
0
  6
Continuous
 62
     7
370
    25
100
AcDbEllipse
 10
-9.791508167
 20
109.3708519415
 30
0.0
 11
14.49999327802043
 21
0.8011021232407103
 31
0.0
210
0.0
220
0.0
230
1.0
 40
0.0174284859
 41
1.54351683885242
 42
2.279642175407965
  0
ELLIPSE
  5
176
330
1F
100
AcDbEntity
  8
0
  6
Continuous
 62
     7
370
    25
100
AcDbEllipse
 10
-8.4704982515
 20
110.3211354908
 30
0.0
 11
35.70262504606014
 21
1.972514619921952
 31
0.0
210
0.0
220
0.0
230
1.0
 40
0.0174284859
 41
4.685109492442212
 42
5.167309992307964
  0
ELLIPSE
  5
177
330
1F
100
AcDbEntity
  8
0
  6
Continuous
 62
     7
370
    25
100
AcDbEllipse
 10
10.5497292206
 20
110.6935315506
 30
0.0
 11
7.499996523114019
 21
0.4143631671934713
 31
0.0
210
0.0
220
0.0
230
1.0
 40
0.0174284859
 41
1.834826681007936
 42
2.025717338718044
  0
LINE
  5
178
330
1F
100
AcDbEntity
  8
0
  6
Continuous
 62
     7
370
    25
100
AcDbLine
 10
8.6050768195
 20
110.5611870994
 30
0.0
 11
8.5854585621
 21
110.7115776439
 31
0.0
  0
SPLINE
  5
179
330
1F
100
AcDbEntity
  8
0
  6
Continuous
 62
     7
370
    25
100
AcDbSpline
210
0.0
220
0.0
230
1.0
 70
     8
 71
     3
 72
    10
 73
     6
 74
     0
 42
0.00000001
 43
0.00000001
 40
0.0
 40
0.0
 40
0.0
 40
0.0
 40
0.0186368637457257
 40
0.3939469944633148
 40
1.0
 40
1.0
 40
1.0
 40
1.0
 10
8.788848105222458
 20
110.5616734666054
 30
0.0
 10
8.786391897973811
 20
110.5615857161261
 30
0.0
 10
8.734472461496889
 20
110.5597308419332
 30
0.0
 10
8.630473613018747
 20
110.557050860555
 30
0.0
 10
8.614772955669563
 20
110.5596079419526
 30
0.0
 10
8.605076819525992
 20
110.5611870993604
 30
0.0
  0
LINE
  5
17A
330
1F
100
AcDbEntity
  8
0
  6
Continuous
 62
     7
370
    25
100
AcDbLine
 10
25.3267321818
 20
111.4750875106
 30
0.0
 11
8.7888481052
 21
110.5616734666
 31
0.0
  0
LINE
  5
17B
330
1F
100
AcDbEntity
  8
0
  6
Continuous
 62
     7
370
    25
100
AcDbLine
 10
8.7867823733
 20
100.4087407152
 30
0.0
 11
25.3206907967
 21
99.495546253
 31
0.0
  0
SPLINE
  5
17C
330
1F
100
AcDbEntity
  8
0
  6
Continuous
 62
     7
370
    25
100
AcDbSpline
210
0.0
220
0.0
230
1.0
 70
     8
 71
     3
 72
    11
 73
     7
 74
     0
 42
0.00000001
 43
0.00000001
 40
0.0
 40
0.0
 40
0.0
 40
0.0
 40
0.4177469294495429
 40
0.8392770662410927
 40
0.981783206881995
 40
1.0
 40
1.0
 40
1.0
 40
1.0
 10
8.603076932654163
 20
100.4100901605135
 30
0.0
 10
8.607713960686048
 20
100.4111733516972
 30
0.0
 10
8.617030010687476
 20
100.4133495436803
 30
0.0
 10
8.692526476437424
 20
100.4121473667889
 30
0.0
 10
8.762786677009583
 20
100.4096768394489
 30
0.0
 10
8.784339513667138
 20
100.4088360164919
 30
0.0
 10
8.786782373297164
 20
100.4087407152334
 30
0.0
  0
LINE
  5
17D
330
1F
100
AcDbEntity
  8
0
  6
Continuous
 62
     7
370
    25
100
AcDbLine
 10
8.5854585621
 20
100.2750401867
 30
0.0
 11
8.6030769327
 21
100.4100901605
 31
0.0
  0
ELLIPSE
  5
17E
330
1F
100
AcDbEntity
  8
0
  6
Continuous
 62
     7
370
    25
100
AcDbEllipse
 10
10.5497292206
 20
100.2930862801
 30
0.0
 11
7.499996523114019
 21
-0.4143631671934713
 31
0.0
210
0.0
220
0.0
230
1.0
 40
0.0174284859
 41
4.257467968461746
 42
4.448358626171705
  0
ELLIPSE
  5
17F
330
1F
100
AcDbEntity
  8
0
  6
Continuous
 62
     7
370
    25
100
AcDbEllipse
 10
-8.4704982515
 20
100.6654823398
 30
0.0
 11
35.70262504606011
 21
-1.972514619921952
 31
0.0
210
0.0
220
0.0
230
1.0
 40
0.0174284859
 41
1.115875314871771
 42
1.598075814737375
  0
ELLIPSE
  5
180
330
1F
100
AcDbEntity
  8
0
  6
Continuous
 62
     7
370
    25
100
AcDbEllipse
 10
-9.791508167
 20
101.6157658891
 30
0.0
 11
14.49999327802043
 21
-0.8011021232407103
 31
0.0
210
0.0
220
0.0
230
1.0
 40
0.0174284859
 41
4.003543131771956
 42
4.739668468327165
  0
LINE
  5
181
330
1F
100
AcDbEntity
  8
0
  6
Continuous
 62
     7
370
    25
100
AcDbLine
 10
-19.240994588
 20
101.9453135494
 30
0.0
 11
-19.240994588
 21
101.9454119406
 31
0.0
  0
LINE
  5
182
330
1F
100
AcDbEntity
  8
0
  6
Continuous
 62
     7
370
    25
100
AcDbLine
 10
-22.7059577974
 20
102.1862048283
 30
0.0
 11
-19.240994588
 21
101.9453135494
 31
0.0
  0
ELLIPSE
  5
183
330
1F
100
AcDbEntity
  8
0
  6
Continuous
 62
     7
370
    25
100
AcDbEllipse
 10
-21.756609257
 20
102.1540731374
 30
0.0
 11
1.499999304622801
 21
-0.08287263343869711
 31
0.0
210
0.0
220
0.0
230
1.0
 40
0.0174284859
 41
3.637263423929827
 42
4.02805999048335
  0
LINE
  5
184
330
1F
100
AcDbEntity
  8
0
  6
Continuous
 62
     7
370
    25
100
AcDbLine
 10
-23.2516904391
 20
102.2418040404
 30
0.0
 11
-23.2563807997
 21
102.2373655874
 31
0.0
  0
LINE
  5
185
330
1F
100
AcDbEntity
  8
0
  6
Continuous
 62
     7
370
    25
100
AcDbLine
 10
25.3206907967
 20
99.495546253
 30
0.0
 11
25.3537183635
 21
99.5828205955
 31
0.0
  0
SPLINE
  5
186
330
1F
100
AcDbEntity
  8
0
  6
Continuous
 62
     7
370
    25
100
AcDbSpline
210
0.0
220
0.0
230
1.0
 70
     8
 71
     3
 72
     9
 73
     5
 74
     0
 42
0.00000001
 43
0.00000001
 40
0.0
 40
0.0
 40
0.0
 40
0.0
 40
0.5001021276704695
 40
1.0
 40
1.0
 40
1.0
 40
1.0
 10
28.14663061060937
 20
112.5412014966033
 30
0.0
 10
27.71768283490207
 20
112.2546758625148
 30
0.0
 10
26.85996247745151
 20
111.681741619217
 30
0.0
 10
25.83773934883641
 20
111.5439628327628
 30
0.0
 10
25.32673218179565
 20
111.4750875105623
 30
0.0
  0
LINE
  5
187
330
1F
100
AcDbEntity
  8
0
  6
Continuous
 62
     7
370
    25
100
AcDbLine
 10
28.1466306106
 20
112.5412014966
 30
0.0
 11
28.1798494767
 21
112.4755100496
 31
0.0
  0
SPLINE
  5
188
330
1F
100
AcDbEntity
  8
0
  6
Continuous
 62
     7
370
    25
100
AcDbSpline
210
0.0
220
0.0
230
1.0
 70
     8
 71
     3
 72
     9
 73
     5
 74
     0
 42
0.00000001
 43
0.00000001
 40
0.0
 40
0.0
 40
0.0
 40
0.0
 40
0.400722737156528
 40
1.0
 40
1.0
 40
1.0
 40
1.0
 10
25.320690796744
 20
99.49554625301887
 30
0.0
 10
25.72937692015326
 20
99.44713899095323
 30
0.0
 10
26.74924947919309
 20
99.32633910220942
 30
0.0
 10
27.61832552301902
 20
98.76623182885577
 30
0.0
 10
28.13914303576584
 20
98.43057227518167
 30
0.0
  0
LINE
  5
189
330
1F
100
AcDbEntity
  8
0
  6
Continuous
 62
     7
370
    25
100
AcDbLine
 10
28.1798494767
 20
98.511107781
 30
0.0
 11
28.1391430358
 21
98.4305722752
 31
0.0
  0
ARC
  5
18A
330
1F
100
AcDbEntity
  8
0
  6
Continuous
 62
     7
370
    25
100
AcDbCircle
 10
33.7044761905
 20
105.4933089153
 30
0.0
 40
8.975658044222099
100
AcDbArc
 50
65.1648853947
 51
128.2586979829
  0
LWPOLYLINE
  5
18B
330
1F
100
AcDbEntity
  8
0
  6
Continuous
 62
     7
370
    25
100
AcDbPolyline
 90
        3
 70
   128
 43
0.0
 10
37.6397896147
 20
113.7439686386
 10
37.5352080506
 20
113.6777162274
 10
37.4743275079
 20
113.6389002611
  0
ARC
  5
18C
330
1F
100
AcDbEntity
  8
0
  6
Continuous
 62
     7
370
    25
100
AcDbCircle
 10
33.7044761905
 20
105.4933089153
 30
0.0
 40
9.141120151092133
100
AcDbArc
 50
295.4997164176
 51
64.5002794289
  0
LWPOLYLINE
  5
18D
330
1F
100
AcDbEntity
  8
0
  6
Continuous
 62
     7
370
    25
100
AcDbPolyline
 90
        3
 70
   128
 43
0.0
 10
37.4906204183
 20
97.3373114989
 10
37.5352080506
 20
97.3089016033
 10
37.639789615
 20
97.2426491918
  0
ARC
  5
18E
330
1F
100
AcDbEntity
  8
0
  6
Continuous
 62
     7
370
    25
100
AcDbCircle
 10
33.7044761905
 20
105.4933089153
 30
0.0
 40
8.991950954660759
100
AcDbArc
 50
231.762407147
 51
294.9014811666
  0
LINE
  5
18F
330
1F
100
AcDbEntity
  8
0
  6
Continuous
 62
     7
370
    25
100
AcDbLine
 10
-23.7287350648
 20
102.7365286584
 30
0.0
 11
-23.7240447041
 21
102.7409671115
 31
0.0
  0
LINE
  5
190
330
1F
100
AcDbEntity
  8
0
  6
Continuous
 62
     7
370
    25
100
AcDbLine
 10
-23.7287350648
 20
108.2500891722
 30
0.0
 11
-23.7287350648
 21
102.7365286584
 31
0.0
  0
LINE
  5
191
330
1F
100
AcDbEntity
  8
0
  6
Continuous
 62
     7
370
    25
100
AcDbLine
 10
-23.7240447041
 20
108.2456507192
 30
0.0
 11
-23.7287350648
 21
108.2500891722
 31
0.0
  0
ARC
  5
192
330
1F
100
AcDbEntity
  8
0
  6
Continuous
 62
     7
370
    25
100
AcDbCircle
 10
-23.2286351772
 20
102.7366952438
 30
0.0
 40
0.5000999153469246
100
AcDbArc
 50
180.0190854617
 51
266.8195880753
  0
ARC
  5
193
330
1F
100
AcDbEntity
  8
0
  6
Continuous
 62
     7
370
    25
100
AcDbCircle
 10
-23.2286351772
 20
108.2499225869
 30
0.0
 40
0.5000999153468992
100
AcDbArc
 50
93.1804119247
 51
179.9809145383
  0
LINE
  5
194
330
1F
100
AcDbEntity
  8
0
  6
Continuous
 62
     7
370
    25
100
AcDbLine
 10
-22.7059577974
 20
102.1862048283
 30
0.0
 11
-22.7130655282
 21
102.186571865
 31
0.0
  0
LINE
  5
195
330
1F
100
AcDbEntity
  8
0
  6
Continuous
 62
     7
370
    25
100
AcDbLine
 10
-22.7059577974
 20
108.8004130023
 30
0.0
 11
-22.7130655282
 21
108.8000459657
 31
0.0
  0
SPLINE
  5
196
330
1F
100
AcDbEntity
  8
0
  6
Continuous
 62
     7
370
    25
100
AcDbSpline
210
0.0
220
0.0
230
1.0
 70
     8
 71
     3
 72
    12
 73
     8
 74
     0
 42
0.00000001
 43
0.00000001
 40
0.0
 40
0.0
 40
0.0
 40
0.0
 40
0.1345419440893866
 40
0.4125227334043395
 40
0.6966514762099312
 40
0.8475579366075728
 40
1.0
 40
1.0
 40
1.0
 40
1.0
 10
37.47510611430017
 20
113.6397068781506
 30
0.0
 10
37.04574869087021
 20
113.830532324743
 30
0.0
 10
35.72928415544556
 20
114.4156274440694
 30
0.0
 10
33.35565621142325
 20
115.0405760928602
 30
0.0
 10
30.83070977934949
 20
115.3419317283528
 30
0.0
 10
28.68577206057248
 20
115.4475183979573
 30
0.0
 10
27.54942435388671
 20
115.4531513656539
 30
0.0
 10
26.97837430566459
 20
115.4559821070334
 30
0.0
  0
ARC
  5
197
330
1F
100
AcDbEntity
  8
0
  6
Continuous
 62
     7
370
    25
100
AcDbCircle
 10
31.4709052987
 20
114.8361580625
 30
0.0
 40
4.535087272518338
100
AcDbArc
 50
149.0284626407
 51
172.1446266983
  0
SPLINE
  5
198
330
1F
100
AcDbEntity
  8
0
  6
Continuous
 62
     7
370
    25
100
AcDbSpline
210
0.0
220
0.0
230
1.0
 70
     8
 71
     3
 72
    12
 73
     8
 74
     0
 42
0.00000001
 43
0.00000001
 40
0.0
 40
0.0
 40
0.0
 40
0.0
 40
0.1662426524176543
 40
0.3368059756191294
 40
0.6054181071254582
 40
0.8801435087136186
 40
1.0
 40
1.0
 40
1.0
 40
1.0
 10
27.58241694316564
 20
117.1699692970012
 30
0.0
 10
28.22009846370176
 20
117.0144841215182
 30
0.0
 10
29.51203494050238
 20
116.699472688163
 30
0.0
 10
31.69622132285174
 20
116.0365075831645
 30
0.0
 10
34.05819566641151
 20
115.1843126663591
 30
0.0
 10
36.0237332283041
 20
114.341683987747
 30
0.0
 10
37.13750821309971
 20
113.8038258950518
 30
0.0
 10
37.47582369125721
 20
113.6404484442245
 30
0.0
  0
LINE
  5
199
330
1F
100
AcDbEntity
  8
0
  6
Continuous
 62
     7
370
    25
100
AcDbLine
 10
37.4758236913
 20
113.6404484442
 30
0.0
 11
37.4751061143
 21
113.6397068782
 31
0.0
  0
LINE
  5
19A
330
1F
100
AcDbEntity
  8
0
  6
Continuous
 62
     7
370
    25
100
AcDbLine
 10
27.5824169432
 20
117.169969297
 30
0.0
 11
27.5982750201
 21
117.2394428286
 31
0.0
  0
ARC
  5
19B
330
1F
100
AcDbEntity
  8
0
  6
Continuous
 62
     7
370
    25
100
AcDbCircle
 10
16.8764967836
 20
70.2678080163
 30
0.0
 40
48.17977797259054
100
AcDbArc
 50
64.4718479123
 51
77.1419190681
  0
LWPOLYLINE
  5
19C
330
1F
100
AcDbEntity
  8
0
  6
Continuous
 62
     7
370
    25
100
AcDbPolyline
 90
        3
 70
   128
 43
0.0
 10
37.4758236913
 20
113.6404484442
 10
37.5352115416
 20
113.6779721478
 10
37.6397896144
 20
113.7439701777
  0
LINE
  5
19D
330
1F
100
AcDbEntity
  8
0
  6
Continuous
 62
     7
370
    25
100
AcDbLine
 10
28.1466306106
 20
112.5412014966
 30
0.0
 11
25.9487586904
 21
115.328318371
 31
0.0
  0
ARC
  5
19E
330
1F
100
AcDbEntity
  8
0
  6
Continuous
 62
     7
370
    25
100
AcDbCircle
 10
33.7044761905
 20
105.4933089153
 30
0.0
 40
12.52511736202729
100
AcDbArc
 50
127.8583068702
 51
128.2586979829
  0
LINE
  5
19F
330
1F
100
AcDbEntity
  8
0
  6
Continuous
 62
     7
370
    25
100
AcDbLine
 10
26.9783743057
 20
115.455982107
 30
0.0
 11
26.0176759568
 21
115.3822758533
 31
0.0
  0
LINE
  5
1A0
330
1F
100
AcDbEntity
  8
0
  6
Continuous
 62
     7
370
    25
100
AcDbLine
 10
37.4743275079
 20
113.6389002611
 30
0.0
 11
37.4751061143
 21
113.6397068782
 31
0.0
  0
ARC
  5
1A1
330
1F
100
AcDbEntity
  8
0
  6
Continuous
 62
     7
370
    25
100
AcDbCircle
 10
15.7868044768
 20
110.7699083035
 30
0.0
 40
6.834138728219975
100
AcDbArc
 50
31.8771071303
 51
46.9488007428
  0
SPLINE
  5
1A2
330
1F
100
AcDbEntity
  8
0
  6
Continuous
 62
     7
370
    25
100
AcDbSpline
210
0.0
220
0.0
230
1.0
 70
     8
 71
     3
 72
    17
 73
    13
 74
     0
 42
0.00000001
 43
0.00000001
 40
0.0
 40
0.0
 40
0.0
 40
0.0
 40
0.2859834379244701
 40
0.5215922644122236
 40
0.7592399016809376
 40
0.8521492405060495
 40
0.9266708633836008
 40
0.9605058393195364
 40
0.9835417153308592
 40
0.9930790992390831
 40
0.9972256067114874
 40
1.0
 40
1.0
 40
1.0
 40
1.0
 10
21.59023726791667
 20
114.3790106843154
 30
0.0
 10
20.36145908416931
 20
113.847142560295
 30
0.0
 10
18.12034610233859
 20
112.8770923322474
 30
0.0
 10
14.78139741543669
 20
111.8348616614627
 30
0.0
 10
12.27874204872988
 20
111.2170431005361
 30
0.0
 10
10.50843576469371
 20
110.8630677913179
 30
0.0
 10
9.64331492935641
 20
110.7083667567051
 30
0.0
 10
9.117727500081052
 20
110.6198667658734
 30
0.0
 10
8.88406538642364
 20
110.5807550030508
 30
0.0
 10
8.806415226934428
 20
110.5664352362889
 30
0.0
 10
8.79033357273426
 20
110.5627014839715
 30
0.0
 10
8.789273184758306
 20
110.5619676427765
 30
0.0
 10
8.788848105222458
 20
110.5616734666054
 30
0.0
  0
SPLINE
  5
1A3
330
1F
100
AcDbEntity
  8
0
  6
Continuous
 62
     7
370
    25
100
AcDbSpline
210
0.0
220
0.0
230
1.0
 70
     8
 71
     3
 72
    10
 73
     6
 74
     0
 42
0.00000001
 43
0.00000001
 40
0.0
 40
0.0
 40
0.0
 40
0.0
 40
0.5975855365574454
 40
0.9790563563181981
 40
1.0
 40
1.0
 40
1.0
 40
1.0
 10
8.678822785534779
 20
110.5708003639448
 30
0.0
 10
8.67630364618141
 20
110.5670610662184
 30
0.0
 10
8.672176405400828
 20
110.5609347746949
 30
0.0
 10
8.746547531956084
 20
110.5605582158384
 30
0.0
 10
8.786755484060604
 20
110.5616182948388
 30
0.0
 10
8.788848105222458
 20
110.5616734666054
 30
0.0
  0
SPLINE
  5
1A4
330
1F
100
AcDbEntity
  8
0
  6
Continuous
 62
     7
370
    25
100
AcDbSpline
210
0.0
220
0.0
230
1.0
 70
     8
 71
     3
 72
    15
 73
    11
 74
     0
 42
0.00000001
 43
0.00000001
 40
0.0
 40
0.0
 40
0.0
 40
0.0
 40
0.0128981401598393
 40
0.0519443541565596
 40
0.131832795201433
 40
0.2279057212361205
 40
0.4677439605522729
 40
0.7076088995729001
 40
0.8538517081976984
 40
1.0
 40
1.0
 40
1.0
 40
1.0
 10
8.67882278553475
 20
110.5708003639448
 30
0.0
 10
8.712291389059073
 20
110.5786452612323
 30
0.0
 10
8.847078650869422
 20
110.610238817976
 30
0.0
 10
9.286349030836083
 20
110.7126295612849
 30
0.0
 10
10.09780465082083
 20
110.9149510567735
 30
0.0
 10
11.75107098260961
 20
111.3825999560038
 30
0.0
 10
14.09743011337389
 20
112.2141867340389
 30
0.0
 10
16.64102595520096
 20
113.4077773291139
 30
0.0
 10
18.75980337484227
 20
114.6146993738043
 30
0.0
 10
19.88814961642248
 20
115.3809250403064
 30
0.0
 10
20.45214036555133
 20
115.7639140305007
 30
0.0
  0
LINE
  5
1A5
330
1F
100
AcDbEntity
  8
0
  6
Continuous
 62
     7
370
    25
100
AcDbLine
 10
23.03090563
 20
114.9031543663
 30
0.0
 11
25.1309881461
 21
115.019145315
 31
0.0
  0
LINE
  5
1A6
330
1F
100
AcDbEntity
  8
0
  6
Continuous
 62
     7
370
    25
100
AcDbLine
 10
25.3267321818
 20
111.4750875106
 30
0.0
 11
25.1309881461
 21
115.019145315
 31
0.0
  0
LINE
  5
1A7
330
1F
100
AcDbEntity
  8
0
  6
Continuous
 62
     7
370
    25
100
AcDbLine
 10
23.03090563
 20
114.9031543663
 30
0.0
 11
21.5902372679
 21
114.3790106843
 31
0.0
  0
LWPOLYLINE
  5
1A8
330
1F
100
AcDbEntity
  8
0
  6
Continuous
 62
     7
370
    25
100
AcDbPolyline
 90
        4
 70
   128
 43
0.0
 10
8.6592959715
 20
110.7218959402
 10
8.6615406071
 20
110.7045377933
 10
8.6705156411
 20
110.6351050472
 10
8.6788227855
 20
110.5708003639
  0
LINE
  5
1A9
330
1F
100
AcDbEntity
  8
0
  6
Continuous
 62
     7
370
    25
100
AcDbLine
 10
10.4474202552
 20
111.1514234435
 30
0.0
 11
8.6592959715
 21
110.7218959402
 31
0.0
  0
ARC
  5
1AA
330
1F
100
AcDbEntity
  8
0
  6
Continuous
 62
     7
370
    25
100
AcDbCircle
 10
2.2618618567
 20
141.5771170373
 30
0.0
 40
31.50755777528335
100
AcDbArc
 50
285.0579972479
 51
305.1719294169
  0
LINE
  5
1AB
330
1F
100
AcDbEntity
  8
0
  6
Continuous
 62
     7
370
    25
100
AcDbLine
 10
20.4521403656
 20
115.7639140305
 30
0.0
 11
20.4112204793
 21
115.8219820435
 31
0.0
  0
SPLINE
  5
1AC
330
1F
100
AcDbEntity
  8
0
  6
Continuous
 62
     7
370
    25
100
AcDbSpline
210
0.0
220
0.0
230
1.0
 70
     8
 71
     3
 72
     9
 73
     5
 74
     0
 42
0.00000001
 43
0.00000001
 40
0.0
 40
0.0
 40
0.0
 40
0.0
 40
0.4998978730609624
 40
1.0
 40
1.0
 40
1.0
 40
1.0
 10
25.13098814609042
 20
115.0191453150062
 30
0.0
 10
25.27918306198621
 20
115.0391116530084
 30
0.0
 10
25.57563344491816
 20
115.0790524870831
 30
0.0
 10
25.82436667369481
 20
115.2452184296537
 30
0.0
 10
25.9487586904464
 20
115.3283183709581
 30
0.0
  0
ARC
  5
1AD
330
1F
100
AcDbEntity
  8
0
  6
Continuous
 62
     7
370
    25
100
AcDbCircle
 10
8.5774874706
 20
111.0605018038
 30
0.0
 40
0.500076340382673
100
AcDbArc
 50
273.16262964
 51
281.6913635617
  0
SPLINE
  5
1AE
330
1F
100
AcDbEntity
  8
0
  6
Continuous
 62
     7
370
    25
100
AcDbSpline
210
0.0
220
0.0
230
1.0
 70
     8
 71
     3
 72
    13
 73
     9
 74
     0
 42
0.00000001
 43
0.00000001
 40
0.0
 40
0.0
 40
0.0
 40
0.0
 40
0.0460329529079886
 40
0.2492425848193727
 40
0.477522557027288
 40
0.7051721168687837
 40
0.8526808263814667
 40
0.9999999999999999
 40
0.9999999999999999
 40
0.9999999999999999
 40
0.9999999999999999
 10
37.49185466494738
 20
97.33603715522776
 30
0.0
 10
37.36352001290902
 20
97.27352818679117
 30
0.0
 10
36.66865995342347
 20
96.93507723191381
 30
0.0
 10
35.30899671884688
 20
96.31709980788484
 30
0.0
 10
33.30102410202849
 20
95.5066274811717
 30
0.0
 10
31.28651384012534
 20
94.81400267990703
 30
0.0
 10
29.42423055887994
 20
94.26376887820895
 30
0.0
 10
28.33186099564135
 20
93.99625276710304
 30
0.0
 10
27.78602733963427
 20
93.8625807005427
 30
0.0
  0
LINE
  5
1AF
330
1F
100
AcDbEntity
  8
0
  6
Continuous
 62
     7
370
    25
100
AcDbLine
 10
27.3325672617
 20
95.8101832298
 30
0.0
 11
27.7860273396
 21
93.8625807005
 31
0.0
  0
SPLINE
  5
1B0
330
1F
100
AcDbEntity
  8
0
  6
Continuous
 62
     7
370
    25
100
AcDbSpline
210
0.0
220
0.0
230
1.0
 70
     8
 71
     3
 72
    13
 73
     9
 74
     0
 42
0.00000001
 43
0.00000001
 40
0.0
 40
0.0
 40
0.0
 40
0.0
 40
0.2574896950994368
 40
0.4890886589321028
 40
0.7206004760683484
 40
0.9447506334961274
 40
0.9460032291293288
 40
1.0
 40
1.0
 40
1.0
 40
1.0
 10
27.33256726174729
 20
95.81018322975673
 30
0.0
 10
28.25129283773516
 20
95.78212026564198
 30
0.0
 10
29.99636562487327
 20
95.72881608397657
 30
0.0
 10
32.49093087078669
 20
95.89338020281463
 30
0.0
 10
34.80658067678777
 20
96.30675419782479
 30
0.0
 10
36.28368927839124
 20
96.806311384388
 30
0.0
 10
37.15495072293237
 20
97.18055423931806
 30
0.0
 10
37.32499713175523
 20
97.25953465780319
 30
0.0
 10
37.49118830381047
 20
97.33672445797785
 30
0.0
  0
LINE
  5
1B1
330
1F
100
AcDbEntity
  8
0
  6
Continuous
 62
     7
370
    25
100
AcDbLine
 10
37.4911883038
 20
97.336724458
 30
0.0
 11
37.4918546649
 21
97.3360371552
 31
0.0
  0
ARC
  5
1B2
330
1F
100
AcDbEntity
  8
0
  6
Continuous
 62
     7
370
    25
100
AcDbCircle
 10
16.8764967836
 20
140.7188098143
 30
0.0
 40
48.10950076354636
100
AcDbArc
 50
282.8580809319
 51
283.1066633214
  0
LWPOLYLINE
  5
1B3
330
1F
100
AcDbEntity
  8
0
  6
Continuous
 62
     7
370
    25
100
AcDbPolyline
 90
        3
 70
   128
 43
0.0
 10
37.4918546649
 20
97.3360371552
 10
37.5352115416
 20
97.3086456829
 10
37.6397896147
 20
97.2426476528
  0
ARC
  5
1B4
330
1F
100
AcDbEntity
  8
0
  6
Continuous
 62
     7
370
    25
100
AcDbCircle
 10
16.8764967836
 20
140.7188098143
 30
0.0
 40
48.17977797259051
100
AcDbArc
 50
282.8580809319
 51
295.5281512988
  0
LINE
  5
1B5
330
1F
100
AcDbEntity
  8
0
  6
Continuous
 62
     7
370
    25
100
AcDbLine
 10
27.5826357481
 20
93.8156899587
 30
0.0
 11
27.5982750201
 21
93.7471750021
 31
0.0
  0
LINE
  5
1B6
330
1F
100
AcDbEntity
  8
0
  6
Continuous
 62
     7
370
    25
100
AcDbLine
 10
25.3206907967
 20
99.495546253
 30
0.0
 11
25.1773289678
 21
96.8998982836
 31
0.0
  0
LINE
  5
1B7
330
1F
100
AcDbEntity
  8
0
  6
Continuous
 62
     7
370
    25
100
AcDbLine
 10
25.1773289678
 20
96.8998982836
 30
0.0
 11
21.227247946
 21
97.1180676372
 31
0.0
  0
SPLINE
  5
1B8
330
1F
100
AcDbEntity
  8
0
  6
Continuous
 62
     7
370
    25
100
AcDbSpline
210
0.0
220
0.0
230
1.0
 70
     8
 71
     3
 72
    17
 73
    13
 74
     0
 42
0.00000001
 43
0.00000001
 40
0.0
 40
0.0
 40
0.0
 40
0.0
 40
0.0068264277560524
 40
0.0088450004853825
 40
0.0223994102884413
 40
0.0309598270239207
 40
0.0563228448230685
 40
0.1198844474831642
 40
0.1957493698893793
 40
0.5558716060100608
 40
0.776984075093909
 40
1.0
 40
1.0
 40
1.0
 40
1.0
 10
8.786782373297164
 20
100.4087407152334
 30
0.0
 10
8.790402518466356
 20
100.4077025321887
 30
0.0
 10
8.795093139523674
 20
100.4063573587155
 30
0.0
 10
8.838625852155364
 20
100.398767370637
 30
0.0
 10
8.913157776114705
 20
100.3870158639061
 30
0.0
 10
9.079990014398408
 20
100.3612969683252
 30
0.0
 10
9.46156626064995
 20
100.3027823957041
 30
0.0
 10
10.14446578695577
 20
100.1935853397436
 30
0.0
 10
12.24948158798789
 20
99.82641392410703
 30
0.0
 10
15.05760785639058
 20
99.19324702175118
 30
0.0
 10
18.45717354164808
 20
98.18080114527571
 30
0.0
 10
20.30125534161026
 20
97.47332284890834
 30
0.0
 10
21.22724794597047
 20
97.1180676372388
 30
0.0
  0
LINE
  5
1B9
330
1F
100
AcDbEntity
  8
0
  6
Continuous
 62
     7
370
    25
100
AcDbLine
 10
21.227247946
 20
97.1180676372
 30
0.0
 11
20.0977725285
 21
95.4678958476
 31
0.0
  0
SPLINE
  5
1BA
330
1F
100
AcDbEntity
  8
0
  6
Continuous
 62
     7
370
    25
100
AcDbSpline
210
0.0
220
0.0
230
1.0
 70
     8
 71
     3
 72
    15
 73
    11
 74
     0
 42
0.00000001
 43
0.00000001
 40
0.0
 40
0.0
 40
0.0
 40
0.0
 40
0.2255198391625379
 40
0.451564594375195
 40
0.6337799820516977
 40
0.815879032447355
 40
0.8946729146060254
 40
0.9638048440471942
 40
0.9940832206369731
 40
1.0
 40
1.0
 40
1.0
 40
1.0
 10
20.09777252847855
 20
95.46789584760003
 30
0.0
 10
19.2523239876246
 20
96.01290351694148
 30
0.0
 10
17.55945905461676
 20
97.104187405984
 30
0.0
 10
15.08314286093731
 20
98.32129079557667
 30
0.0
 10
12.7547319462261
 20
99.25219060401186
 30
0.0
 10
11.01425245640372
 20
99.80798114882533
 30
0.0
 10
9.75658360003412
 20
100.1445339757897
 30
0.0
 10
9.112450702121578
 20
100.2998810821142
 30
0.0
 10
8.784505412039762
 20
100.3754344803817
 30
0.0
 10
8.691967968415481
 20
100.3969551884317
 30
0.0
 10
8.67684098188015
 20
100.4004731531404
 30
0.0
  0
SPLINE
  5
1BB
330
1F
100
AcDbEntity
  8
0
  6
Continuous
 62
     7
370
    25
100
AcDbSpline
210
0.0
220
0.0
230
1.0
 70
     8
 71
     3
 72
    11
 73
     7
 74
     0
 42
0.00000001
 43
0.00000001
 40
0.0
 40
0.0
 40
0.0
 40
0.0
 40
0.019556121229571
 40
0.1681891996744418
 40
0.5898876540792521
 40
1.0
 40
1.0
 40
1.0
 40
1.0
 10
8.786782373297164
 20
100.4087407152334
 30
0.0
 10
8.784823660149183
 20
100.4087988289492
 30
0.0
 10
8.767978070326421
 20
100.4092986263899
 30
0.0
 10
8.71607750656736
 20
100.4101450438034
 30
0.0
 10
8.666792874501617
 20
100.4080557452813
 30
0.0
 10
8.673522859578064
 20
100.4029771040978
 30
0.0
 10
8.67684098188018
 20
100.4004731531404
 30
0.0
  0
LINE
  5
1BC
330
1F
100
AcDbEntity
  8
0
  6
Continuous
 62
     7
370
    25
100
AcDbLine
 10
28.1391430358
 20
98.4305722752
 30
0.0
 11
26.5301860425
 21
96.3887107742
 31
0.0
  0
LINE
  5
1BD
330
1F
100
AcDbEntity
  8
0
  6
Continuous
 62
     7
370
    25
100
AcDbLine
 10
37.4911883038
 20
97.336724458
 30
0.0
 11
37.4906204183
 21
97.3373114989
 31
0.0
  0
ARC
  5
1BE
330
1F
100
AcDbEntity
  8
0
  6
Continuous
 62
     7
370
    25
100
AcDbCircle
 10
33.7044761905
 20
105.4933089153
 30
0.0
 40
11.59155496206737
100
AcDbArc
 50
231.762407147
 51
236.6533814372
  0
LWPOLYLINE
  5
1BF
330
1F
100
AcDbEntity
  8
0
  6
Continuous
 62
     7
370
    25
100
AcDbPolyline
 90
        4
 70
   128
 43
0.0
 10
8.6768409819
 20
100.4004731531
 10
8.6745987356
 20
100.3831148981
 10
8.6656262527
 20
100.3136820365
 10
8.6592959715
 20
100.2647218905
  0
ARC
  5
1C0
330
1F
100
AcDbEntity
  8
0
  6
Continuous
 62
     7
370
    25
100
AcDbCircle
 10
2.2618618567
 20
69.4095007933
 30
0.0
 40
31.57783498432753
100
AcDbArc
 50
54.8280705831
 51
55.6099480104
  0
LINE
  5
1C1
330
1F
100
AcDbEntity
  8
0
  6
Continuous
 62
     7
370
    25
100
AcDbLine
 10
20.4517023942
 20
95.2220822899
 30
0.0
 11
20.4112204793
 21
95.1646357871
 31
0.0
  0
ARC
  5
1C2
330
1F
100
AcDbEntity
  8
0
  6
Continuous
 62
     7
370
    25
100
AcDbCircle
 10
2.2618618567
 20
69.4095007933
 30
0.0
 40
31.50755777528337
100
AcDbArc
 50
54.8280705831
 51
74.9420027521
  0
LINE
  5
1C3
330
1F
100
AcDbEntity
  8
0
  6
Continuous
 62
     7
370
    25
100
AcDbLine
 10
8.6592959715
 20
100.2647218905
 30
0.0
 11
10.4474202552
 21
99.8351943872
 31
0.0
  0
LINE
  5
1C4
330
1F
100
AcDbEntity
  8
0
  6
Continuous
 62
     7
370
    25
100
AcDbLine
 10
8.5854585621
 20
110.7115776439
 30
0.0
 11
8.6592959715
 21
110.7218959402
 31
0.0
  0
SPLINE
  5
1C5
330
1F
100
AcDbEntity
  8
0
  6
Continuous
 62
     7
370
    25
100
AcDbSpline
210
0.0
220
0.0
230
1.0
 70
     8
 71
     3
 72
    10
 73
     6
 74
     0
 42
0.00000001
 43
0.00000001
 40
0.0
 40
0.0
 40
0.0
 40
0.0
 40
0.0490769085761659
 40
0.599580584366531
 40
1.0
 40
1.0
 40
1.0
 40
1.0
 10
26.53018604250736
 20
96.38871077420538
 30
0.0
 10
26.51123850413828
 20
96.40333350980673
 30
0.0
 10
26.27975334223173
 20
96.58198185199583
 30
0.0
 10
25.83387956741445
 20
96.8160338454171
 30
0.0
 10
25.37187299052998
 20
96.8750482184347
 30
0.0
 10
25.17732896777637
 20
96.899898283567
 30
0.0
  0
ARC
  5
1C6
330
1F
100
AcDbEntity
  8
0
  6
Continuous
 62
     7
370
    25
100
AcDbCircle
 10
8.5754875809
 20
99.9107754561
 30
0.0
 40
0.5000763405188131
100
AcDbArc
 50
78.3065203379
 51
86.8373700345
  0
SPLINE
  5
1C7
330
1F
100
AcDbEntity
  8
0
  6
Continuous
 62
     7
370
    25
100
AcDbSpline
210
0.0
220
0.0
230
1.0
 70
     8
 71
     3
 72
     9
 73
     5
 74
     0
 42
0.00000001
 43
0.00000001
 40
0.0
 40
0.0
 40
0.0
 40
0.0
 40
0.8458911907785723
 40
1.0
 40
1.0
 40
1.0
 40
1.0
 10
8.65929597146964
 20
100.2647218904542
 30
0.0
 10
8.63845537535854
 20
100.2685366974465
 30
0.0
 10
8.613817932223656
 20
100.2730465056038
 30
0.0
 10
8.589245405047407
 20
100.2747739693548
 30
0.0
 10
8.585458562144737
 20
100.2750401867365
 30
0.0
  0
LINE
  5
1C8
330
1F
100
AcDbEntity
  8
0
  6
Continuous
 62
     7
370
    25
100
AcDbLine
 10
-9.4099616355
 20
101.34129604
 30
0.0
 11
-9.4095036157
 21
101.3412709535
 31
0.0
  0
LINE
  5
1C9
330
1F
100
AcDbEntity
  8
0
  6
Continuous
 62
     7
370
    25
100
AcDbLine
 10
20.4521403656
 20
115.7639140305
 30
0.0
 11
22.2908812149
 21
116.7608802662
 31
0.0
  0
LINE
  5
1CA
330
1F
100
AcDbEntity
  8
0
  6
Continuous
 62
     7
370
    25
100
AcDbLine
 10
23.03090563
 20
114.9031543663
 30
0.0
 11
22.2908812149
 21
116.7608802662
 31
0.0
  0
LINE
  5
1CB
330
1F
100
AcDbEntity
  8
0
  6
Continuous
 62
     7
370
    25
100
AcDbLine
 10
26.0176759568
 20
115.3822758533
 30
0.0
 11
26.1395097034
 21
117.3782563623
 31
0.0
  0
LINE
  5
1CC
330
1F
100
AcDbEntity
  8
0
  6
Continuous
 62
     7
370
    25
100
AcDbLine
 10
26.1395097034
 20
117.3782563623
 30
0.0
 11
27.5824169432
 21
117.169969297
 31
0.0
  0
ARC
  5
1CD
330
1F
100
AcDbEntity
  8
0
  6
Continuous
 62
     7
370
    25
100
AcDbCircle
 10
25.5954609853
 20
108.4652033911
 30
0.0
 40
6.9299463871443
100
AcDbArc
 50
86.5070253286
 51
111.7198462835
  0
ARC
  5
1CE
330
1F
100
AcDbEntity
  8
0
  6
Continuous
 62
     7
370
    25
100
AcDbCircle
 10
25.5954609853
 20
108.4652033911
 30
0.0
 40
8.929641777457082
100
AcDbArc
 50
86.5070253286
 51
111.7198462835
  0
ARC
  5
1CF
330
1F
100
AcDbEntity
  8
0
  6
Continuous
 62
     7
370
    25
100
AcDbCircle
 10
16.8764967836
 20
140.7188098143
 30
0.0
 40
46.10980537323358
100
AcDbArc
 50
282.8580809319
 51
283.1066633214
  0
LINE
  5
1D0
330
1F
100
AcDbEntity
  8
0
  6
Continuous
 62
     7
370
    25
100
AcDbLine
 10
27.1376297432
 20
95.765241525
 30
0.0
 11
27.5826357481
 21
93.8156899587
 31
0.0
  0
ARC
  5
1D1
330
1F
100
AcDbEntity
  8
0
  6
Continuous
 62
     7
370
    25
100
AcDbCircle
 10
2.2618618567
 20
69.4095007933
 30
0.0
 40
33.57753037464031
100
AcDbArc
 50
54.8280705831
 51
55.6099480104
  0
LINE
  5
1D2
330
1F
100
AcDbEntity
  8
0
  6
Continuous
 62
     7
370
    25
100
AcDbLine
 10
21.6035907453
 20
96.8566877103
 30
0.0
 11
20.4517023942
 21
95.2220822899
 31
0.0
  0
ARC
  5
1D3
330
1F
100
AcDbEntity
  8
0
  6
Continuous
 62
     7
370
    25
100
AcDbCircle
 10
25.5954609853
 20
102.5214144395
 30
0.0
 40
6.929946387144303
100
AcDbArc
 50
234.8280705831
 51
282.8580809319
  0
ARC
  5
1D4
330
1F
100
AcDbEntity
  8
0
  6
Continuous
 62
     7
370
    25
100
AcDbCircle
 10
25.5954609853
 20
102.5214144395
 30
0.0
 40
8.929641777457077
100
AcDbArc
 50
234.8280705831
 51
282.8580809319
  0
ARC
  5
1D5
330
1F
100
AcDbEntity
  8
0
  6
Continuous
 62
     7
370
    25
100
AcDbCircle
 10
25.5954609853
 20
108.4652033911
 30
0.0
 40
8.999918986501267
100
AcDbArc
 50
77.1419190681
 51
125.1719294169
  0
ARC
  5
1D6
330
1F
100
AcDbEntity
  8
0
  6
Continuous
 62
     7
370
    25
100
AcDbCircle
 10
25.5954609853
 20
102.5214144395
 30
0.0
 40
8.99991898650123
100
AcDbArc
 50
234.8280705831
 51
282.8580809319
  0
SPLINE
  5
1D7
330
1F
100
AcDbEntity
  8
0
  6
Continuous
 62
     7
370
    25
100
AcDbSpline
210
0.0
220
0.0
230
1.0
 70
     8
 71
     3
 72
    11
 73
     7
 74
     0
 42
0.00000001
 43
0.00000001
 40
0.0
 40
0.0
 40
0.0
 40
0.0
 40
0.2200386424382255
 40
0.6637869905998169
 40
0.8890365590789576
 40
1.0
 40
1.0
 40
1.0
 40
1.0
 10
245.3820663350681
 20
111.5136272222812
 30
0.0
 10
245.5862877980696
 20
111.2486086110224
 30
0.0
 10
246.2023593609532
 20
110.4491312807177
 30
0.0
 10
246.7259087119703
 20
109.1859620101898
 30
0.0
 10
246.9775379117314
 20
108.0193921968657
 30
0.0
 10
246.9568307170092
 20
107.5081123982063
 30
0.0
 10
246.9499965329831
 20
107.339370070734
 30
0.0
  0
SPLINE
  5
1D8
330
1F
100
AcDbEntity
  8
0
  6
Continuous
 62
     7
370
    25
100
AcDbSpline
210
0.0
220
0.0
230
1.0
 70
     8
 71
     3
 72
     9
 73
     5
 74
     0
 42
0.00000001
 43
0.00000001
 40
0.0
 40
0.0
 40
0.0
 40
0.0
 40
0.9209630919903056
 40
1.0
 40
1.0
 40
1.0
 40
1.0
 10
247.0221086983154
 20
111.1933039466477
 30
0.0
 10
246.5076871604426
 20
111.2501310055663
 30
0.0
 10
245.9491180469279
 20
111.3118349537623
 30
0.0
 10
245.4236015352585
 20
111.4988464146502
 30
0.0
 10
245.3820663350681
 20
111.5136272222812
 30
0.0
  0
SPLINE
  5
1D9
330
1F
100
AcDbEntity
  8
0
  6
Continuous
 62
     7
370
    25
100
AcDbSpline
210
0.0
220
0.0
230
1.0
 70
     8
 71
     3
 72
    10
 73
     6
 74
     0
 42
0.00000001
 43
0.00000001
 40
0.0
 40
0.0
 40
0.0
 40
0.0
 40
0.2596150688488836
 40
0.629760644481066
 40
0.9999999999999999
 40
0.9999999999999999
 40
0.9999999999999999
 40
0.9999999999999999
 10
294.1972696522527
 20
108.6017463776586
 30
0.0
 10
290.1194494335296
 20
108.901500514757
 30
0.0
 10
280.2276866001644
 20
109.6286284099211
 30
0.0
 10
264.4981139174911
 20
110.4544752798113
 30
0.0
 10
252.8479356562265
 20
110.947006929077
 30
0.0
 10
247.0221086983154
 20
111.1933039466477
 30
0.0
  0
SPLINE
  5
1DA
330
1F
100
AcDbEntity
  8
0
  6
Continuous
 62
     7
370
    25
100
AcDbSpline
210
0.0
220
0.0
230
1.0
 70
     8
 71
     3
 72
    11
 73
     7
 74
     0
 42
0.00000001
 43
0.00000001
 40
0.0
 40
0.0
 40
0.0
 40
0.0
 40
0.0614641195413916
 40
0.4999988937835375
 40
0.9375097801832794
 40
1.0
 40
1.0
 40
1.0
 40
1.0
 10
294.1972696522524
 20
102.8757140306567
 30
0.0
 10
294.2089388484549
 20
102.9921710031088
 30
0.0
 10
294.3038655347241
 20
103.93952627044
 30
0.0
 10
294.3875683619904
 20
105.7367704688882
 30
0.0
 10
294.3039984384702
 20
107.5359684931291
 30
0.0
 10
294.209126733425
 20
108.4833433175621
 30
0.0
 10
294.1972696522527
 20
108.6017463776586
 30
0.0
  0
SPLINE
  5
1DB
330
1F
100
AcDbEntity
  8
0
  6
Continuous
 62
     7
370
    25
100
AcDbSpline
210
0.0
220
0.0
230
1.0
 70
     8
 71
     3
 72
    11
 73
     7
 74
     0
 42
0.00000001
 43
0.00000001
 40
0.0
 40
0.0
 40
0.0
 40
0.0
 40
0.2594589277291888
 40
0.6296002946237422
 40
0.8147836738016292
 40
1.0
 40
1.0
 40
1.0
 40
1.0
 10
247.0221086983154
 20
100.2841564616695
 30
0.0
 10
251.1051093476604
 20
100.4496550480904
 30
0.0
 10
261.0128756144649
 20
100.851252170542
 30
0.0
 10
273.8280125734258
 20
101.5295049865654
 30
0.0
 10
285.4722848396855
 20
102.2069258787775
 30
0.0
 10
291.2887689228181
 20
102.6527714273898
 30
0.0
 10
294.1972696522524
 20
102.8757140306567
 30
0.0
  0
SPLINE
  5
1DC
330
1F
100
AcDbEntity
  8
0
  6
Continuous
 62
     7
370
    25
100
AcDbSpline
210
0.0
220
0.0
230
1.0
 70
     8
 71
     3
 72
     9
 73
     5
 74
     0
 42
0.00000001
 43
0.00000001
 40
0.0
 40
0.0
 40
0.0
 40
0.0
 40
0.0790369080192137
 40
1.0
 40
1.0
 40
1.0
 40
1.0
 10
245.3820663350689
 20
99.96383318603615
 30
0.0
 10
245.4236015352643
 20
99.97861399366889
 30
0.0
 10
245.9491180469334
 20
100.1656254545568
 30
0.0
 10
246.507687160448
 20
100.2273294027521
 30
0.0
 10
247.0221086983154
 20
100.2841564616695
 30
0.0
  0
SPLINE
  5
1DD
330
1F
100
AcDbEntity
  8
0
  6
Continuous
 62
     7
370
    25
100
AcDbSpline
210
0.0
220
0.0
230
1.0
 70
     8
 71
     3
 72
    11
 73
     7
 74
     0
 42
0.00000001
 43
0.00000001
 40
0.0
 40
0.0
 40
0.0
 40
0.0
 40
0.0728838064943292
 40
0.4140719411596028
 40
0.9209668754550567
 40
1.0
 40
1.0
 40
1.0
 40
1.0
 10
246.9499965329794
 20
104.138090337598
 30
0.0
 10
246.957711682117
 20
104.027643903359
 30
0.0
 10
247.0015434594816
 20
103.400168863028
 30
0.0
 10
246.6570517480435
 20
102.017176832563
 30
0.0
 10
246.0173623985573
 20
100.7472453147854
 30
0.0
 10
245.4575736491244
 20
100.0569446486124
 30
0.0
 10
245.3820663350689
 20
99.96383318603615
 30
0.0
  0
SPLINE
  5
1DE
330
1F
100
AcDbEntity
  8
0
  6
Continuous
 62
     7
370
    25
100
AcDbSpline
210
0.0
220
0.0
230
1.0
 70
     8
 71
     3
 72
    10
 73
     6
 74
     0
 42
0.00000001
 43
0.00000001
 40
0.0
 40
0.0
 40
0.0
 40
0.0
 40
0.3880207377811385
 40
0.9790637766506849
 40
1.0
 40
1.0
 40
1.0
 40
1.0
 10
246.9499965329831
 20
107.339370070734
 30
0.0
 10
246.8766820022237
 20
106.9285302088782
 30
0.0
 10
246.6916929169004
 20
105.8918886390299
 30
0.0
 10
246.7873998427314
 20
104.7981193174586
 30
0.0
 10
246.9446179939793
 20
104.1599234487392
 30
0.0
 10
246.9499965329794
 20
104.138090337598
 30
0.0
  0
ARC
  5
1DF
330
1F
100
AcDbEntity
  8
0
  6
Continuous
 62
     7
370
    25
100
AcDbCircle
 10
238.7044761905
 20
105.7387302042
 30
0.0
 40
8.39944365426455
100
AcDbArc
 50
10.985757993
 51
349.0142420071
  0
SPLINE
  5
1E0
330
1F
100
AcDbEntity
  8
0
  6
Continuous
 62
     7
370
    25
100
AcDbSpline
210
0.0
220
0.0
230
1.0
 70
     8
 71
     3
 72
     9
 73
     5
 74
     0
 42
0.00000001
 43
0.00000001
 40
0.0
 40
0.0
 40
0.0
 40
0.0
 40
0.681792342127431
 40
1.0
 40
1.0
 40
1.0
 40
1.0
 10
245.3820663350689
 20
99.96383318603615
 30
0.0
 10
245.2398027744258
 20
99.773922830931
 30
0.0
 10
245.0311416442654
 20
99.49537708705746
 30
0.0
 10
244.801715810385
 20
99.26247271411448
 30
0.0
 10
244.7287107531305
 20
99.18836075909202
 30
0.0
  0
ARC
  5
1E1
330
1F
100
AcDbEntity
  8
0
  6
Continuous
 62
     7
370
    25
100
AcDbCircle
 10
238.7044761905
 20
105.7387302042
 30
0.0
 40
8.899367501836323
100
AcDbArc
 50
47.3959191961
 51
312.6040808039
  0
LINE
  5
1E2
330
1F
100
AcDbEntity
  8
0
  6
Continuous
 62
     7
370
    25
100
AcDbLine
 10
244.7287107531
 20
112.2890996492
 30
0.0
 11
245.3820663351
 21
111.5136272223
 31
0.0
  0
SPLINE
  5
1E3
330
1F
100
AcDbEntity
  8
0
  6
Continuous
 62
     7
370
    25
100
AcDbSpline
210
0.0
220
0.0
230
1.0
 70
     8
 71
     3
 72
    10
 73
     6
 74
     0
 42
0.00000001
 43
0.00000001
 40
0.0
 40
0.0
 40
0.0
 40
0.0
 40
0.3702896688583036
 40
0.7405318123903298
 40
1.0
 40
1.0
 40
1.0
 40
1.0
 10
294.2087891154309
 20
102.4328544498235
 30
0.0
 10
288.3887252692124
 20
102.1126634352972
 30
0.0
 10
276.7493445607089
 20
101.4723225015916
 30
0.0
 10
261.0304761539341
 20
100.6030881697283
 30
0.0
 10
251.1333023379243
 20
100.0543471681192
 30
0.0
 10
247.0552340174602
 20
99.82824188428732
 30
0.0
  0
ARC
  5
1E4
330
1F
100
AcDbEntity
  8
0
  6
Continuous
 62
     7
370
    25
100
AcDbCircle
 10
254.2703232249
 20
100.581628251
 30
0.0
 40
7.254316183384905
100
AcDbArc
 50
182.3501399448
 51
185.9611177313
  0
ARC
  5
1E5
330
1F
100
AcDbEntity
  8
0
  6
Continuous
 62
     7
370
    25
100
AcDbCircle
 10
289.9482665742
 20
102.5436112738
 30
0.0
 40
4.261961918910168
100
AcDbArc
 50
358.5108705387
 51
4.4691613065
  0
SPLINE
  5
1E6
330
1F
100
AcDbEntity
  8
0
  6
Continuous
 62
     7
370
    25
100
AcDbSpline
210
0.0
220
0.0
230
1.0
 70
     8
 71
     3
 72
    10
 73
     6
 74
     0
 42
0.00000001
 43
0.00000001
 40
0.0
 40
0.0
 40
0.0
 40
0.0
 40
0.3702717503651152
 40
0.7405122151371749
 40
1.0
 40
1.0
 40
1.0
 40
1.0
 10
247.0552340174602
 20
111.6492185240298
 30
0.0
 10
252.8749060791294
 20
111.3266900383619
 30
0.0
 10
264.5137584774262
 20
110.6816603186188
 30
0.0
 10
280.2328980613809
 20
109.8128458311399
 30
0.0
 10
290.1303954850796
 20
109.2687909203731
 30
0.0
 10
294.2087891154275
 20
109.0446059584939
 30
0.0
  0
ARC
  5
1E7
330
1F
100
AcDbEntity
  8
0
  6
Continuous
 62
     7
370
    25
100
AcDbCircle
 10
289.9482665713
 20
108.9338491345
 30
0.0
 40
4.261961921805203
100
AcDbArc
 50
355.530838696
 51
1.4891294598
  0
ARC
  5
1E8
330
1F
100
AcDbEntity
  8
0
  6
Continuous
 62
     7
370
    25
100
AcDbCircle
 10
254.270323225
 20
110.8958321573
 30
0.0
 40
7.25431618347572
100
AcDbArc
 50
174.0388822687
 51
177.6498600551
  0
SPLINE
  5
1E9
330
1F
100
AcDbEntity
  8
0
  6
Continuous
 62
     7
370
    25
100
AcDbSpline
210
0.0
220
0.0
230
1.0
 70
     8
 71
     3
 72
    12
 73
     8
 74
     0
 42
0.00000001
 43
0.00000001
 40
0.0
 40
0.0
 40
0.0
 40
0.0
 40
0.1224290494151355
 40
0.342352244977047
 40
0.5614228816909439
 40
0.780722953853349
 40
1.0
 40
1.0
 40
1.0
 40
1.0
 10
296.1329970851002
 20
108.4910720080024
 30
0.0
 10
296.1239930092361
 20
108.4934306924433
 30
0.0
 10
296.098814625505
 20
108.5000263567681
 30
0.0
 10
295.8828269418603
 20
108.5170343245073
 30
0.0
 10
295.4469288121313
 20
108.5425452986617
 30
0.0
 10
294.8630031987011
 20
108.572097481221
 30
0.0
 10
294.4191730671329
 20
108.5918637581
 30
0.0
 10
294.1972696522527
 20
108.6017463776586
 30
0.0
  0
SPLINE
  5
1EA
330
1F
100
AcDbEntity
  8
0
  6
Continuous
 62
     7
370
    25
100
AcDbSpline
210
0.0
220
0.0
230
1.0
 70
     8
 71
     3
 72
    11
 73
     7
 74
     0
 42
0.00000001
 43
0.00000001
 40
0.0
 40
0.0
 40
0.0
 40
0.0
 40
0.0800485240044433
 40
0.5000005853538798
 40
0.9209248322279645
 40
1.0
 40
1.0
 40
1.0
 40
1.0
 10
296.1329970851002
 20
108.4910720080024
 30
0.0
 10
296.1327108406861
 20
108.3448275829017
 30
0.0
 10
296.1309228954814
 20
107.4313529240686
 30
0.0
 10
296.1296871986515
 20
105.7369433363101
 30
0.0
 10
296.1309248967463
 20
104.0443164844555
 30
0.0
 10
296.1327141187143
 20
103.1308531088116
 30
0.0
 10
296.1329970851002
 20
102.9863884003203
 30
0.0
  0
SPLINE
  5
1EB
330
1F
100
AcDbEntity
  8
0
  6
Continuous
 62
     7
370
    25
100
AcDbSpline
210
0.0
220
0.0
230
1.0
 70
     8
 71
     3
 72
    12
 73
     8
 74
     0
 42
0.00000001
 43
0.00000001
 40
0.0
 40
0.0
 40
0.0
 40
0.0
 40
0.1130367476169193
 40
0.3328594693547965
 40
0.5544127937944973
 40
0.7774207483513236
 40
1.0
 40
1.0
 40
1.0
 40
1.0
 10
294.1972696522524
 20
102.8757140306567
 30
0.0
 10
294.3113404922393
 20
102.8807292763581
 30
0.0
 10
294.6472450548472
 20
102.8954976774139
 30
0.0
 10
295.181312911242
 20
102.9210898815232
 30
0.0
 10
295.6978385491291
 20
102.9489651443943
 30
0.0
 10
296.0547332662837
 20
102.9724070179847
 30
0.0
 10
296.106925883802
 20
102.9817309297444
 30
0.0
 10
296.1329970851002
 20
102.9863884003203
 30
0.0
  0
SPLINE
  5
1EC
330
1F
100
AcDbEntity
  8
0
  6
Continuous
 62
     7
370
    25
100
AcDbSpline
210
0.0
220
0.0
230
1.0
 70
     8
 71
     3
 72
     9
 73
     5
 74
     0
 42
0.00000001
 43
0.00000001
 40
0.0
 40
0.0
 40
0.0
 40
0.0
 40
0.500010612381544
 40
1.0
 40
1.0
 40
1.0
 40
1.0
 10
244.2291029042876
 20
112.7209313384715
 30
0.0
 10
244.6588242711084
 20
112.4330908003782
 30
0.0
 10
245.518248763669
 20
111.8574219426268
 30
0.0
 10
246.5429128489473
 20
111.71861868154
 30
0.0
 10
247.0552340174602
 20
111.6492185240298
 30
0.0
  0
SPLINE
  5
1ED
330
1F
100
AcDbEntity
  8
0
  6
Continuous
 62
     7
370
    25
100
AcDbSpline
210
0.0
220
0.0
230
1.0
 70
     8
 71
     3
 72
     9
 73
     5
 74
     0
 42
0.00000001
 43
0.00000001
 40
0.0
 40
0.0
 40
0.0
 40
0.0
 40
0.9838702326459385
 40
1.0
 40
1.0
 40
1.0
 40
1.0
 10
244.7287107531305
 20
112.2890996492252
 30
0.0
 10
244.567369938196
 20
112.4339320622441
 30
0.0
 10
244.4033840693475
 20
112.5811388871009
 30
0.0
 10
244.2318693960654
 20
112.7187123111475
 30
0.0
 10
244.2291029042876
 20
112.7209313384715
 30
0.0
  0
SPLINE
  5
1EE
330
1F
100
AcDbEntity
  8
0
  6
Continuous
 62
     7
370
    25
100
AcDbSpline
210
0.0
220
0.0
230
1.0
 70
     8
 71
     3
 72
     9
 73
     5
 74
     0
 42
0.00000001
 43
0.00000001
 40
0.0
 40
0.0
 40
0.0
 40
0.0
 40
0.5055561057107305
 40
1.0
 40
1.0
 40
1.0
 40
1.0
 10
247.0552340174602
 20
99.82824188428732
 30
0.0
 10
246.5371745001271
 20
99.75758585001736
 30
0.0
 10
245.5124425040518
 20
99.61782681343992
 30
0.0
 10
244.6537019352902
 20
99.04149353864419
 30
0.0
 10
244.2291029042876
 20
98.7565290698457
 30
0.0
  0
SPLINE
  5
1EF
330
1F
100
AcDbEntity
  8
0
  6
Continuous
 62
     7
370
    25
100
AcDbSpline
210
0.0
220
0.0
230
1.0
 70
     8
 71
     3
 72
     9
 73
     5
 74
     0
 42
0.00000001
 43
0.00000001
 40
0.0
 40
0.0
 40
0.0
 40
0.0
 40
0.0161297673533178
 40
0.9999999999999999
 40
0.9999999999999999
 40
0.9999999999999999
 40
0.9999999999999999
 10
244.2291029042876
 20
98.7565290698457
 30
0.0
 10
244.2318693960653
 20
98.75874809716962
 30
0.0
 10
244.4033840693513
 20
98.89632152121924
 30
0.0
 10
244.5673699381977
 20
99.0435283460745
 30
0.0
 10
244.7287107531305
 20
99.18836075909202
 30
0.0
  0
SPLINE
  5
1F0
330
1F
100
AcDbEntity
  8
0
  6
Continuous
 62
     7
370
    25
100
AcDbSpline
210
0.0
220
0.0
230
1.0
 70
     8
 71
     3
 72
    12
 73
     8
 74
     0
 42
0.00000001
 43
0.00000001
 40
0.0
 40
0.0
 40
0.0
 40
0.0
 40
0.2230315344150348
 40
0.4461337558340362
 40
0.6675099896776944
 40
0.8870667292264904
 40
1.0
 40
1.0
 40
1.0
 40
1.0
 10
295.6606428200157
 20
102.4872253292719
 30
0.0
 10
295.6411090338897
 20
102.4891155765667
 30
0.0
 10
295.6020352706532
 20
102.492896670246
 30
0.0
 10
295.334446088597
 20
102.4859538339754
 30
0.0
 10
294.9469170047719
 20
102.4703650114855
 30
0.0
 10
294.546194892309
 20
102.4510277314213
 30
0.0
 10
294.294335470051
 20
102.4374621302448
 30
0.0
 10
294.2087891154309
 20
102.4328544498235
 30
0.0
  0
ARC
  5
1F1
330
1F
100
AcDbEntity
  8
0
  6
Continuous
 62
     7
370
    25
100
AcDbCircle
 10
295.6328971975
 20
102.9865549857
 30
0.0
 40
0.5000999153469291
100
AcDbArc
 50
273.1804119247
 51
359.9809145383
  0
SPLINE
  5
1F2
330
1F
100
AcDbEntity
  8
0
  6
Continuous
 62
     7
370
    25
100
AcDbSpline
210
0.0
220
0.0
230
1.0
 70
     8
 71
     3
 72
    12
 73
     8
 74
     0
 42
0.00000001
 43
0.00000001
 40
0.0
 40
0.0
 40
0.0
 40
0.0
 40
0.2190444340109326
 40
0.4380981679380329
 40
0.6571027493691808
 40
0.8772791087290024
 40
1.0
 40
1.0
 40
1.0
 40
1.0
 10
294.2087891154275
 20
109.0446059584939
 30
0.0
 10
294.3752068561984
 20
109.0357771455442
 30
0.0
 10
294.7080494032975
 20
109.0181191448019
 30
0.0
 10
295.1462078459407
 20
108.9986006553928
 30
0.0
 10
295.4731736727002
 20
108.9872948717605
 30
0.0
 10
295.6350175497143
 20
108.9854710036839
 30
0.0
 10
295.6538888821266
 20
108.9889794330087
 30
0.0
 10
295.6606428200157
 20
108.9902350790453
 30
0.0
  0
ARC
  5
1F3
330
1F
100
AcDbEntity
  8
0
  6
Continuous
 62
     7
370
    25
100
AcDbCircle
 10
295.6328971975
 20
108.4909054226
 30
0.0
 40
0.5000999153470458
100
AcDbArc
 50
0.0190854624
 51
86.8195880753
  0
LINE
  5
1F4
330
1F
100
AcDbEntity
  8
0
  6
Continuous
 62
     7
370
    25
100
AcDbLine
 10
247.0552340175
 20
99.8282418843
 30
0.0
 11
247.0822201992
 21
99.7569516089
 31
0.0
  0
LINE
  5
1F5
330
1F
100
AcDbEntity
  8
0
  6
Continuous
 62
     7
370
    25
100
AcDbLine
 10
295.6653331807
 20
102.4827868762
 30
0.0
 11
295.66064282
 21
102.4872253293
 31
0.0
  0
ELLIPSE
  5
1F6
330
1F
100
AcDbEntity
  8
0
  6
Continuous
 62
     7
370
    25
100
AcDbEllipse
 10
294.1655616379
 20
102.3994944262
 30
0.0
 11
1.499999304622804
 21
0.0828726334386829
 31
0.0
210
0.0
220
0.0
230
1.0
 40
0.0174284859
 41
5.396717970286355
 42
6.299675703201083
  0
LINE
  5
1F7
330
1F
100
AcDbEntity
  8
0
  6
Continuous
 62
     7
370
    25
100
AcDbLine
 10
291.6499469689
 20
102.1907348382
 30
0.0
 11
295.1149101784
 21
102.4316261172
 31
0.0
  0
LINE
  5
1F8
330
1F
100
AcDbEntity
  8
0
  6
Continuous
 62
     7
370
    25
100
AcDbLine
 10
291.6499469689
 20
102.1908332294
 30
0.0
 11
291.6499469689
 21
102.1907348382
 31
0.0
  0
ELLIPSE
  5
1F9
330
1F
100
AcDbEntity
  8
0
  6
Continuous
 62
     7
370
    25
100
AcDbEllipse
 10
282.200460548
 20
101.861187178
 30
0.0
 11
14.49999327802044
 21
0.8011021232407104
 31
0.0
210
0.0
220
0.0
230
1.0
 40
0.0174284859
 41
4.685109492442216
 42
5.421234828998156
  0
ELLIPSE
  5
1FA
330
1F
100
AcDbEntity
  8
0
  6
Continuous
 62
     7
370
    25
100
AcDbEllipse
 10
280.8794506324
 20
100.9109036287
 30
0.0
 11
35.70262504606018
 21
1.972514619921953
 31
0.0
210
0.0
220
0.0
230
1.0
 40
0.0174284859
 41
1.543516838852417
 42
2.025717338718014
  0
ELLIPSE
  5
1FB
330
1F
100
AcDbEntity
  8
0
  6
Continuous
 62
     7
370
    25
100
AcDbEllipse
 10
261.8592231604
 20
100.5385075689
 30
0.0
 11
7.499996523114079
 21
0.4143631671934714
 31
0.0
210
0.0
220
0.0
230
1.0
 40
0.0174284859
 41
4.97641933459775
 42
5.167309992307988
  0
LINE
  5
1FC
330
1F
100
AcDbEntity
  8
0
  6
Continuous
 62
     7
370
    25
100
AcDbLine
 10
263.8038755614
 20
100.6708520201
 30
0.0
 11
263.8234938188
 21
100.5204614756
 31
0.0
  0
SPLINE
  5
1FD
330
1F
100
AcDbEntity
  8
0
  6
Continuous
 62
     7
370
    25
100
AcDbSpline
210
0.0
220
0.0
230
1.0
 70
     8
 71
     3
 72
    10
 73
     6
 74
     0
 42
0.00000001
 43
0.00000001
 40
0.0
 40
0.0
 40
0.0
 40
0.0
 40
0.0186368637457257
 40
0.3939469944633148
 40
1.0
 40
1.0
 40
1.0
 40
1.0
 10
263.6201042757299
 20
100.6703656528834
 30
0.0
 10
263.6225604829786
 20
100.6704534033628
 30
0.0
 10
263.6744799194555
 20
100.6723082775557
 30
0.0
 10
263.7784787679337
 20
100.6749882589339
 30
0.0
 10
263.7941794252828
 20
100.6724311775363
 30
0.0
 10
263.8038755614264
 20
100.6708520201284
 30
0.0
  0
LINE
  5
1FE
330
1F
100
AcDbEntity
  8
0
  6
Continuous
 62
     7
370
    25
100
AcDbLine
 10
247.0822201992
 20
99.7569516089
 30
0.0
 11
263.6201042757
 21
100.6703656529
 31
0.0
  0
LINE
  5
1FF
330
1F
100
AcDbEntity
  8
0
  6
Continuous
 62
     7
370
    25
100
AcDbLine
 10
263.6221700077
 20
110.8232984043
 30
0.0
 11
247.0882615842
 21
111.7364928665
 31
0.0
  0
SPLINE
  5
200
330
1F
100
AcDbEntity
  8
0
  6
Continuous
 62
     7
370
    25
100
AcDbSpline
210
0.0
220
0.0
230
1.0
 70
     8
 71
     3
 72
    11
 73
     7
 74
     0
 42
0.00000001
 43
0.00000001
 40
0.0
 40
0.0
 40
0.0
 40
0.0
 40
0.4177469294495429
 40
0.8392770662410927
 40
0.981783206881995
 40
1.0
 40
1.0
 40
1.0
 40
1.0
 10
263.8058754482983
 20
110.8219489589753
 30
0.0
 10
263.8012384202664
 20
110.8208657677916
 30
0.0
 10
263.791922370265
 20
110.8186895758086
 30
0.0
 10
263.716425904515
 20
110.8198917527
 30
0.0
 10
263.6461657039428
 20
110.82236228004
 30
0.0
 10
263.6246128672853
 20
110.8232031029969
 30
0.0
 10
263.6221700076553
 20
110.8232984042554
 30
0.0
  0
LINE
  5
201
330
1F
100
AcDbEntity
  8
0
  6
Continuous
 62
     7
370
    25
100
AcDbLine
 10
263.8234938188
 20
110.9569989328
 30
0.0
 11
263.8058754483
 21
110.821948959
 31
0.0
  0
ELLIPSE
  5
202
330
1F
100
AcDbEntity
  8
0
  6
Continuous
 62
     7
370
    25
100
AcDbEllipse
 10
261.8592231604
 20
110.9389528394
 30
0.0
 11
7.499996523114078
 21
-0.4143631671934571
 31
0.0
210
0.0
220
0.0
230
1.0
 40
0.0174284859
 41
1.115875314871815
 42
1.306765972581875
  0
ELLIPSE
  5
203
330
1F
100
AcDbEntity
  8
0
  6
Continuous
 62
     7
370
    25
100
AcDbEllipse
 10
280.8794506324
 20
110.5665567796
 30
0.0
 11
35.70262504606012
 21
-1.972514619921966
 31
0.0
210
0.0
220
0.0
230
1.0
 40
0.0174284859
 41
4.257467968461722
 42
4.73966846832717
  0
ELLIPSE
  5
204
330
1F
100
AcDbEntity
  8
0
  6
Continuous
 62
     7
370
    25
100
AcDbEllipse
 10
282.200460548
 20
109.6162732304
 30
0.0
 11
14.49999327802044
 21
-0.8011021232406962
 31
0.0
210
0.0
220
0.0
230
1.0
 40
0.0174284859
 41
0.8619504781817662
 42
1.598075814737369
  0
LINE
  5
205
330
1F
100
AcDbEntity
  8
0
  6
Continuous
 62
     7
370
    25
100
AcDbLine
 10
291.6499469689
 20
109.2867255701
 30
0.0
 11
291.6499469689
 21
109.2866271789
 31
0.0
  0
LINE
  5
206
330
1F
100
AcDbEntity
  8
0
  6
Continuous
 62
     7
370
    25
100
AcDbLine
 10
295.1149101784
 20
109.0458342911
 30
0.0
 11
291.6499469689
 21
109.2867255701
 31
0.0
  0
ELLIPSE
  5
207
330
1F
100
AcDbEntity
  8
0
  6
Continuous
 62
     7
370
    25
100
AcDbEllipse
 10
294.1655616379
 20
109.0779659821
 30
0.0
 11
1.499999304622804
 21
-0.08287263343869711
 31
0.0
210
0.0
220
0.0
230
1.0
 40
0.0174284859
 41
0.4956707703394002
 42
0.8864673368932278
  0
LINE
  5
208
330
1F
100
AcDbEntity
  8
0
  6
Continuous
 62
     7
370
    25
100
AcDbLine
 10
295.66064282
 20
108.990235079
 30
0.0
 11
295.6653331807
 21
108.9946735321
 31
0.0
  0
LINE
  5
209
330
1F
100
AcDbEntity
  8
0
  6
Continuous
 62
     7
370
    25
100
AcDbLine
 10
247.0882615842
 20
111.7364928665
 30
0.0
 11
247.0552340175
 21
111.649218524
 31
0.0
  0
SPLINE
  5
20A
330
1F
100
AcDbEntity
  8
0
  6
Continuous
 62
     7
370
    25
100
AcDbSpline
210
0.0
220
0.0
230
1.0
 70
     8
 71
     3
 72
     9
 73
     5
 74
     0
 42
0.00000001
 43
0.00000001
 40
0.0
 40
0.0
 40
0.0
 40
0.0
 40
0.5001021276704695
 40
1.0
 40
1.0
 40
1.0
 40
1.0
 10
244.262321770343
 20
98.69083762288555
 30
0.0
 10
244.6912695460504
 20
98.97736325697406
 30
0.0
 10
245.5489899035009
 20
99.55029750027187
 30
0.0
 10
246.571213032116
 20
99.68807628672602
 30
0.0
 10
247.0822201991568
 20
99.75695160892658
 30
0.0
  0
LINE
  5
20B
330
1F
100
AcDbEntity
  8
0
  6
Continuous
 62
     7
370
    25
100
AcDbLine
 10
244.2623217703
 20
98.6908376229
 30
0.0
 11
244.2291029043
 21
98.7565290698
 31
0.0
  0
SPLINE
  5
20C
330
1F
100
AcDbEntity
  8
0
  6
Continuous
 62
     7
370
    25
100
AcDbSpline
210
0.0
220
0.0
230
1.0
 70
     8
 71
     3
 72
     9
 73
     5
 74
     0
 42
0.00000001
 43
0.00000001
 40
0.0
 40
0.0
 40
0.0
 40
0.0
 40
0.400722737156528
 40
1.0
 40
1.0
 40
1.0
 40
1.0
 10
247.0882615842084
 20
111.73649286647
 30
0.0
 10
246.6795754607992
 20
111.7849001285356
 30
0.0
 10
245.6597029017593
 20
111.9057000172794
 30
0.0
 10
244.7906268579334
 20
112.4658072906331
 30
0.0
 10
244.2698093451866
 20
112.8014668443072
 30
0.0
  0
LINE
  5
20D
330
1F
100
AcDbEntity
  8
0
  6
Continuous
 62
     7
370
    25
100
AcDbLine
 10
244.2291029043
 20
112.7209313385
 30
0.0
 11
244.2698093452
 21
112.8014668443
 31
0.0
  0
ARC
  5
20E
330
1F
100
AcDbEntity
  8
0
  6
Continuous
 62
     7
370
    25
100
AcDbCircle
 10
238.7044761905
 20
105.7387302042
 30
0.0
 40
8.975658044222104
100
AcDbArc
 50
245.1648853947
 51
308.2586979829
  0
LWPOLYLINE
  5
20F
330
1F
100
AcDbEntity
  8
0
  6
Continuous
 62
     7
370
    25
100
AcDbPolyline
 90
        3
 70
   128
 43
0.0
 10
234.7691627662
 20
97.4880704809
 10
234.8737443304
 20
97.5543228921
 10
234.9346248731
 20
97.5931388584
  0
ARC
  5
210
330
1F
100
AcDbEntity
  8
0
  6
Continuous
 62
     7
370
    25
100
AcDbCircle
 10
238.7044761905
 20
105.7387302042
 30
0.0
 40
9.141120151092135
100
AcDbArc
 50
115.4997164176
 51
244.500279429
  0
LWPOLYLINE
  5
211
330
1F
100
AcDbEntity
  8
0
  6
Continuous
 62
     7
370
    25
100
AcDbPolyline
 90
        3
 70
   128
 43
0.0
 10
234.9183319627
 20
113.8947276206
 10
234.8737443304
 20
113.9231375162
 10
234.7691627659
 20
113.9893899276
  0
ARC
  5
212
330
1F
100
AcDbEntity
  8
0
  6
Continuous
 62
     7
370
    25
100
AcDbCircle
 10
238.7044761905
 20
105.7387302042
 30
0.0
 40
8.991950954660753
100
AcDbArc
 50
51.762407147
 51
114.9014811666
  0
LINE
  5
213
330
1F
100
AcDbEntity
  8
0
  6
Continuous
 62
     7
370
    25
100
AcDbLine
 10
296.1376874458
 20
108.4955104611
 30
0.0
 11
296.1329970851
 21
108.491072008
 31
0.0
  0
LINE
  5
214
330
1F
100
AcDbEntity
  8
0
  6
Continuous
 62
     7
370
    25
100
AcDbLine
 10
296.1376874458
 20
102.9819499472
 30
0.0
 11
296.1376874458
 21
108.4955104611
 31
0.0
  0
LINE
  5
215
330
1F
100
AcDbEntity
  8
0
  6
Continuous
 62
     7
370
    25
100
AcDbLine
 10
296.1329970851
 20
102.9863884003
 30
0.0
 11
296.1376874458
 21
102.9819499472
 31
0.0
  0
ARC
  5
216
330
1F
100
AcDbEntity
  8
0
  6
Continuous
 62
     7
370
    25
100
AcDbCircle
 10
295.6375875582
 20
108.4953438757
 30
0.0
 40
0.5000999153469134
100
AcDbArc
 50
0.0190854617
 51
86.8195880753
  0
ARC
  5
217
330
1F
100
AcDbEntity
  8
0
  6
Continuous
 62
     7
370
    25
100
AcDbCircle
 10
295.6375875582
 20
102.9821165326
 30
0.0
 40
0.5000999153469134
100
AcDbArc
 50
273.1804119247
 51
359.9809145383
  0
LINE
  5
218
330
1F
100
AcDbEntity
  8
0
  6
Continuous
 62
     7
370
    25
100
AcDbLine
 10
295.1149101784
 20
102.4316261172
 30
0.0
 11
295.1220179091
 21
102.4319931538
 31
0.0
  0
LINE
  5
219
330
1F
100
AcDbEntity
  8
0
  6
Continuous
 62
     7
370
    25
100
AcDbLine
 10
295.1149101784
 20
109.0458342911
 30
0.0
 11
295.1220179091
 21
109.0454672545
 31
0.0
  0
SPLINE
  5
21A
330
1F
100
AcDbEntity
  8
0
  6
Continuous
 62
     7
370
    25
100
AcDbSpline
210
0.0
220
0.0
230
1.0
 70
     8
 71
     3
 72
    12
 73
     8
 74
     0
 42
0.00000001
 43
0.00000001
 40
0.0
 40
0.0
 40
0.0
 40
0.0
 40
0.1345419440893866
 40
0.4125227334043395
 40
0.6966514762099312
 40
0.8475579366075728
 40
1.0
 40
1.0
 40
1.0
 40
1.0
 10
234.9338462666523
 20
97.59233224133824
 30
0.0
 10
235.3632036900822
 20
97.40150679474588
 30
0.0
 10
236.6796682255068
 20
96.81641167541947
 30
0.0
 10
239.0532961695292
 20
96.1914630266286
 30
0.0
 10
241.5782426016029
 20
95.890107391136
 30
0.0
 10
243.7231803203799
 20
95.78452072153154
 30
0.0
 10
244.8595280270657
 20
95.77888775383494
 30
0.0
 10
245.4305780752879
 20
95.77605701245547
 30
0.0
  0
ARC
  5
21B
330
1F
100
AcDbEntity
  8
0
  6
Continuous
 62
     7
370
    25
100
AcDbCircle
 10
240.9380470823
 20
96.395881057
 30
0.0
 40
4.53508727251891
100
AcDbArc
 50
329.0284626407
 51
352.1446266983
  0
SPLINE
  5
21C
330
1F
100
AcDbEntity
  8
0
  6
Continuous
 62
     7
370
    25
100
AcDbSpline
210
0.0
220
0.0
230
1.0
 70
     8
 71
     3
 72
    12
 73
     8
 74
     0
 42
0.00000001
 43
0.00000001
 40
0.0
 40
0.0
 40
0.0
 40
0.0
 40
0.1662426524176543
 40
0.3368059756191294
 40
0.6054181071254582
 40
0.8801435087136186
 40
1.0
 40
1.0
 40
1.0
 40
1.0
 10
244.8265354377868
 20
94.06206982248763
 30
0.0
 10
244.1888539172506
 20
94.21755499797064
 30
0.0
 10
242.8969174404501
 20
94.53256643132586
 30
0.0
 10
240.7127310581007
 20
95.19553153632438
 30
0.0
 10
238.3507567145409
 20
96.04772645312978
 30
0.0
 10
236.3852191526483
 20
96.89035513174188
 30
0.0
 10
235.2714441678527
 20
97.42821322443706
 30
0.0
 10
234.9331286896952
 20
97.5915906752643
 30
0.0
  0
LINE
  5
21D
330
1F
100
AcDbEntity
  8
0
  6
Continuous
 62
     7
370
    25
100
AcDbLine
 10
234.9331286897
 20
97.5915906753
 30
0.0
 11
234.9338462667
 21
97.5923322413
 31
0.0
  0
LINE
  5
21E
330
1F
100
AcDbEntity
  8
0
  6
Continuous
 62
     7
370
    25
100
AcDbLine
 10
244.8265354378
 20
94.0620698225
 30
0.0
 11
244.8106773608
 21
93.9925962909
 31
0.0
  0
ARC
  5
21F
330
1F
100
AcDbEntity
  8
0
  6
Continuous
 62
     7
370
    25
100
AcDbCircle
 10
255.5324555973
 20
140.9642311032
 30
0.0
 40
48.17977797259053
100
AcDbArc
 50
244.4718479123
 51
257.1419190681
  0
LWPOLYLINE
  5
220
330
1F
100
AcDbEntity
  8
0
  6
Continuous
 62
     7
370
    25
100
AcDbPolyline
 90
        3
 70
   128
 43
0.0
 10
234.9331286897
 20
97.5915906753
 10
234.8737408393
 20
97.5540669717
 10
234.7691627665
 20
97.4880689418
  0
LINE
  5
221
330
1F
100
AcDbEntity
  8
0
  6
Continuous
 62
     7
370
    25
100
AcDbLine
 10
244.2623217703
 20
98.6908376229
 30
0.0
 11
246.4601936905
 21
95.9037207485
 31
0.0
  0
ARC
  5
222
330
1F
100
AcDbEntity
  8
0
  6
Continuous
 62
     7
370
    25
100
AcDbCircle
 10
238.7044761905
 20
105.7387302042
 30
0.0
 40
12.5251173620273
100
AcDbArc
 50
307.8583068702
 51
308.2586979829
  0
LINE
  5
223
330
1F
100
AcDbEntity
  8
0
  6
Continuous
 62
     7
370
    25
100
AcDbLine
 10
245.4305780753
 20
95.7760570125
 30
0.0
 11
246.3912764242
 21
95.8497632662
 31
0.0
  0
LINE
  5
224
330
1F
100
AcDbEntity
  8
0
  6
Continuous
 62
     7
370
    25
100
AcDbLine
 10
234.9346248731
 20
97.5931388584
 30
0.0
 11
234.9338462667
 21
97.5923322413
 31
0.0
  0
LINE
  5
225
330
1F
100
AcDbEntity
  8
0
  6
Continuous
 62
     7
370
    25
100
AcDbLine
 10
249.378046751
 20
96.3288847532
 30
0.0
 11
247.2779642349
 21
96.2128938045
 31
0.0
  0
LINE
  5
226
330
1F
100
AcDbEntity
  8
0
  6
Continuous
 62
     7
370
    25
100
AcDbLine
 10
247.0822201992
 20
99.7569516089
 30
0.0
 11
247.2779642349
 21
96.2128938045
 31
0.0
  0
SPLINE
  5
227
330
1F
100
AcDbEntity
  8
0
  6
Continuous
 62
     7
370
    25
100
AcDbSpline
210
0.0
220
0.0
230
1.0
 70
     8
 71
     3
 72
    17
 73
    13
 74
     0
 42
0.00000001
 43
0.00000001
 40
0.0
 40
0.0
 40
0.0
 40
0.0
 40
0.2859834379244701
 40
0.5215922644122236
 40
0.7592399016809376
 40
0.8521492405060495
 40
0.9266708633836008
 40
0.9605058393195364
 40
0.9835417153308592
 40
0.9930790992390831
 40
0.9972256067114874
 40
1.0
 40
1.0
 40
1.0
 40
1.0
 10
250.8187151130358
 20
96.85302843517341
 30
0.0
 10
252.0474932967831
 20
97.38489655919382
 30
0.0
 10
254.2886062786138
 20
98.35494678724143
 30
0.0
 10
257.6275549655157
 20
99.39717745802612
 30
0.0
 10
260.1302103322225
 20
100.0149960189528
 30
0.0
 10
261.9005166162587
 20
100.3689713281709
 30
0.0
 10
262.765637451596
 20
100.5236723627838
 30
0.0
 10
263.2912248808714
 20
100.6121723536155
 30
0.0
 10
263.5248869945288
 20
100.6512841164381
 30
0.0
 10
263.602537154018
 20
100.6656038832
 30
0.0
 10
263.6186188082181
 20
100.6693376355174
 30
0.0
 10
263.6196791961941
 20
100.6700714767124
 30
0.0
 10
263.6201042757299
 20
100.6703656528834
 30
0.0
  0
LINE
  5
228
330
1F
100
AcDbEntity
  8
0
  6
Continuous
 62
     7
370
    25
100
AcDbLine
 10
249.378046751
 20
96.3288847532
 30
0.0
 11
250.818715113
 21
96.8530284352
 31
0.0
  0
ARC
  5
229
330
1F
100
AcDbEntity
  8
0
  6
Continuous
 62
     7
370
    25
100
AcDbCircle
 10
256.6221479042
 20
100.462130816
 30
0.0
 40
6.834138728219151
100
AcDbArc
 50
211.8771071303
 51
226.9488007428
  0
SPLINE
  5
22A
330
1F
100
AcDbEntity
  8
0
  6
Continuous
 62
     7
370
    25
100
AcDbSpline
210
0.0
220
0.0
230
1.0
 70
     8
 71
     3
 72
    10
 73
     6
 74
     0
 42
0.00000001
 43
0.00000001
 40
0.0
 40
0.0
 40
0.0
 40
0.0
 40
0.5975855365574454
 40
0.9790563563181981
 40
1.0
 40
1.0
 40
1.0
 40
1.0
 10
263.7301295954176
 20
100.6612387555441
 30
0.0
 10
263.732648734771
 20
100.6649780532704
 30
0.0
 10
263.7367759755516
 20
100.671104344794
 30
0.0
 10
263.6624048489963
 20
100.6714809036505
 30
0.0
 10
263.6221968968918
 20
100.6704208246501
 30
0.0
 10
263.6201042757299
 20
100.6703656528834
 30
0.0
  0
SPLINE
  5
22B
330
1F
100
AcDbEntity
  8
0
  6
Continuous
 62
     7
370
    25
100
AcDbSpline
210
0.0
220
0.0
230
1.0
 70
     8
 71
     3
 72
    15
 73
    11
 74
     0
 42
0.00000001
 43
0.00000001
 40
0.0
 40
0.0
 40
0.0
 40
0.0
 40
0.0128981401598393
 40
0.0519443541565596
 40
0.131832795201433
 40
0.2279057212361205
 40
0.4677439605522729
 40
0.7076088995729001
 40
0.8538517081976984
 40
1.0
 40
1.0
 40
1.0
 40
1.0
 10
263.7301295954176
 20
100.6612387555441
 30
0.0
 10
263.6966609918934
 20
100.6533938582565
 30
0.0
 10
263.561873730083
 20
100.6218003015129
 30
0.0
 10
263.1226033501163
 20
100.5194095582039
 30
0.0
 10
262.3111477301316
 20
100.3170880627153
 30
0.0
 10
260.6578813983428
 20
99.84943916348504
 30
0.0
 10
258.3115222675785
 20
99.01785238544991
 30
0.0
 10
255.7679264257515
 20
97.8242617903749
 30
0.0
 10
253.6491490061101
 20
96.61733974568456
 30
0.0
 10
252.5208027645299
 20
95.85111407918242
 30
0.0
 10
251.9568120154011
 20
95.46812508898815
 30
0.0
  0
LWPOLYLINE
  5
22C
330
1F
100
AcDbEntity
  8
0
  6
Continuous
 62
     7
370
    25
100
AcDbPolyline
 90
        4
 70
   128
 43
0.0
 10
263.7496564095
 20
100.5101431793
 10
263.7474117738
 20
100.5275013261
 10
263.7384367399
 20
100.5969340723
 10
263.7301295954
 20
100.6612387555
  0
LINE
  5
22D
330
1F
100
AcDbEntity
  8
0
  6
Continuous
 62
     7
370
    25
100
AcDbLine
 10
261.9615321257
 20
100.080615676
 30
0.0
 11
263.7496564095
 21
100.5101431793
 31
0.0
  0
ARC
  5
22E
330
1F
100
AcDbEntity
  8
0
  6
Continuous
 62
     7
370
    25
100
AcDbCircle
 10
270.1470905243
 20
69.6549220821
 30
0.0
 40
31.50755777528337
100
AcDbArc
 50
105.0579972479
 51
125.1719294169
  0
LINE
  5
22F
330
1F
100
AcDbEntity
  8
0
  6
Continuous
 62
     7
370
    25
100
AcDbLine
 10
251.9568120154
 20
95.468125089
 30
0.0
 11
251.9977319016
 21
95.4100570759
 31
0.0
  0
SPLINE
  5
230
330
1F
100
AcDbEntity
  8
0
  6
Continuous
 62
     7
370
    25
100
AcDbSpline
210
0.0
220
0.0
230
1.0
 70
     8
 71
     3
 72
     9
 73
     5
 74
     0
 42
0.00000001
 43
0.00000001
 40
0.0
 40
0.0
 40
0.0
 40
0.0
 40
0.4998978730609624
 40
1.0
 40
1.0
 40
1.0
 40
1.0
 10
247.277964234862
 20
96.21289380448268
 30
0.0
 10
247.1297693189662
 20
96.19292746648044
 30
0.0
 10
246.8333189360343
 20
96.15298663240573
 30
0.0
 10
246.5845857072576
 20
95.98682068983514
 30
0.0
 10
246.460193690506
 20
95.90372074853076
 30
0.0
  0
ARC
  5
231
330
1F
100
AcDbEntity
  8
0
  6
Continuous
 62
     7
370
    25
100
AcDbCircle
 10
263.8314649103
 20
100.1715373157
 30
0.0
 40
0.500076340382169
100
AcDbArc
 50
93.16262964
 51
101.6913635617
  0
SPLINE
  5
232
330
1F
100
AcDbEntity
  8
0
  6
Continuous
 62
     7
370
    25
100
AcDbSpline
210
0.0
220
0.0
230
1.0
 70
     8
 71
     3
 72
    13
 73
     9
 74
     0
 42
0.00000001
 43
0.00000001
 40
0.0
 40
0.0
 40
0.0
 40
0.0
 40
0.0460329529079886
 40
0.2492425848193727
 40
0.477522557027288
 40
0.7051721168687837
 40
0.8526808263814667
 40
0.9999999999999999
 40
0.9999999999999999
 40
0.9999999999999999
 40
0.9999999999999999
 10
234.9170977160051
 20
113.8960019642611
 30
0.0
 10
235.0454323680434
 20
113.9585109326977
 30
0.0
 10
235.7402924275289
 20
114.296961887575
 30
0.0
 10
237.0999556621055
 20
114.914939311604
 30
0.0
 10
239.1079282789239
 20
115.7254116383171
 30
0.0
 10
241.1224385408271
 20
116.4180364395818
 30
0.0
 10
242.9847218220725
 20
116.9682702412799
 30
0.0
 10
244.0770913853111
 20
117.2357863523858
 30
0.0
 10
244.6229250413182
 20
117.3694584189462
 30
0.0
  0
LINE
  5
233
330
1F
100
AcDbEntity
  8
0
  6
Continuous
 62
     7
370
    25
100
AcDbLine
 10
245.0763851192
 20
115.4218558897
 30
0.0
 11
244.6229250413
 21
117.3694584189
 31
0.0
  0
SPLINE
  5
234
330
1F
100
AcDbEntity
  8
0
  6
Continuous
 62
     7
370
    25
100
AcDbSpline
210
0.0
220
0.0
230
1.0
 70
     8
 71
     3
 72
    13
 73
     9
 74
     0
 42
0.00000001
 43
0.00000001
 40
0.0
 40
0.0
 40
0.0
 40
0.0
 40
0.2574896950994368
 40
0.4890886589321028
 40
0.7206004760683484
 40
0.9447506334961274
 40
0.9460032291293288
 40
1.0
 40
1.0
 40
1.0
 40
1.0
 10
245.0763851192051
 20
115.4218558897321
 30
0.0
 10
244.1576595432173
 20
115.4499188538469
 30
0.0
 10
242.4125867560791
 20
115.5032230355123
 30
0.0
 10
239.9180215101657
 20
115.3386589166742
 30
0.0
 10
237.6023717041647
 20
114.925284921664
 30
0.0
 10
236.1252631025612
 20
114.425727735101
 30
0.0
 10
235.2540016580201
 20
114.0514848801708
 30
0.0
 10
235.0839552491972
 20
113.9725044616856
 30
0.0
 10
234.9177640771419
 20
113.895314661511
 30
0.0
  0
LINE
  5
235
330
1F
100
AcDbEntity
  8
0
  6
Continuous
 62
     7
370
    25
100
AcDbLine
 10
234.9177640771
 20
113.8953146615
 30
0.0
 11
234.917097716
 21
113.8960019643
 31
0.0
  0
ARC
  5
236
330
1F
100
AcDbEntity
  8
0
  6
Continuous
 62
     7
370
    25
100
AcDbCircle
 10
255.5324555973
 20
70.5132293051
 30
0.0
 40
48.10950076354636
100
AcDbArc
 50
102.8580809319
 51
103.1066633214
  0
LWPOLYLINE
  5
237
330
1F
100
AcDbEntity
  8
0
  6
Continuous
 62
     7
370
    25
100
AcDbPolyline
 90
        3
 70
   128
 43
0.0
 10
234.917097716
 20
113.8960019643
 10
234.8737408393
 20
113.9233934366
 10
234.7691627662
 20
113.9893914667
  0
ARC
  5
238
330
1F
100
AcDbEntity
  8
0
  6
Continuous
 62
     7
370
    25
100
AcDbCircle
 10
255.5324555973
 20
70.5132293051
 30
0.0
 40
48.1797779725905
100
AcDbArc
 50
102.8580809319
 51
115.5281512988
  0
LINE
  5
239
330
1F
100
AcDbEntity
  8
0
  6
Continuous
 62
     7
370
    25
100
AcDbLine
 10
244.8263166328
 20
117.4163491608
 30
0.0
 11
244.8106773608
 21
117.4848641174
 31
0.0
  0
LINE
  5
23A
330
1F
100
AcDbEntity
  8
0
  6
Continuous
 62
     7
370
    25
100
AcDbLine
 10
247.0882615842
 20
111.7364928665
 30
0.0
 11
247.2316234132
 21
114.3321408359
 31
0.0
  0
LINE
  5
23B
330
1F
100
AcDbEntity
  8
0
  6
Continuous
 62
     7
370
    25
100
AcDbLine
 10
247.2316234132
 20
114.3321408359
 30
0.0
 11
251.181704435
 21
114.1139714823
 31
0.0
  0
SPLINE
  5
23C
330
1F
100
AcDbEntity
  8
0
  6
Continuous
 62
     7
370
    25
100
AcDbSpline
210
0.0
220
0.0
230
1.0
 70
     8
 71
     3
 72
    17
 73
    13
 74
     0
 42
0.00000001
 43
0.00000001
 40
0.0
 40
0.0
 40
0.0
 40
0.0
 40
0.0068264277560524
 40
0.0088450004853825
 40
0.0223994102884413
 40
0.0309598270239207
 40
0.0563228448230685
 40
0.1198844474831642
 40
0.1957493698893793
 40
0.5558716060100608
 40
0.776984075093909
 40
1.0
 40
1.0
 40
1.0
 40
1.0
 10
263.6221700076553
 20
110.8232984042554
 30
0.0
 10
263.6185498624861
 20
110.8243365873002
 30
0.0
 10
263.6138592414288
 20
110.8256817607734
 30
0.0
 10
263.5703265287971
 20
110.8332717488518
 30
0.0
 10
263.4957946048377
 20
110.8450232555828
 30
0.0
 10
263.328962366554
 20
110.8707421511636
 30
0.0
 10
262.9473861203024
 20
110.9292567237848
 30
0.0
 10
262.2644865939967
 20
111.0384537797452
 30
0.0
 10
260.1594707929646
 20
111.4056251953818
 30
0.0
 10
257.3513445245618
 20
112.0387920977377
 30
0.0
 10
253.9517788393043
 20
113.0512379742131
 30
0.0
 10
252.1076970393422
 20
113.7587162705805
 30
0.0
 10
251.181704434982
 20
114.1139714822501
 30
0.0
  0
LINE
  5
23D
330
1F
100
AcDbEntity
  8
0
  6
Continuous
 62
     7
370
    25
100
AcDbLine
 10
251.181704435
 20
114.1139714823
 30
0.0
 11
252.3111798525
 21
115.7641432719
 31
0.0
  0
SPLINE
  5
23E
330
1F
100
AcDbEntity
  8
0
  6
Continuous
 62
     7
370
    25
100
AcDbSpline
210
0.0
220
0.0
230
1.0
 70
     8
 71
     3
 72
    15
 73
    11
 74
     0
 42
0.00000001
 43
0.00000001
 40
0.0
 40
0.0
 40
0.0
 40
0.0
 40
0.2255198391625379
 40
0.451564594375195
 40
0.6337799820516977
 40
0.815879032447355
 40
0.8946729146060254
 40
0.9638048440471942
 40
0.9940832206369731
 40
1.0
 40
1.0
 40
1.0
 40
1.0
 10
252.3111798524739
 20
115.7641432718888
 30
0.0
 10
253.1566283933278
 20
115.2191356025474
 30
0.0
 10
254.8494933263357
 20
114.1278517135048
 30
0.0
 10
257.3258095200151
 20
112.9107483239122
 30
0.0
 10
259.6542204347263
 20
111.979848515477
 30
0.0
 10
261.3946999245487
 20
111.4240579706635
 30
0.0
 10
262.6523687809183
 20
111.0875051436991
 30
0.0
 10
263.2965016788309
 20
110.9321580373747
 30
0.0
 10
263.6244469689127
 20
110.8566046391072
 30
0.0
 10
263.7169844125369
 20
110.8350839310572
 30
0.0
 10
263.7321113990723
 20
110.8315659663484
 30
0.0
  0
SPLINE
  5
23F
330
1F
100
AcDbEntity
  8
0
  6
Continuous
 62
     7
370
    25
100
AcDbSpline
210
0.0
220
0.0
230
1.0
 70
     8
 71
     3
 72
    11
 73
     7
 74
     0
 42
0.00000001
 43
0.00000001
 40
0.0
 40
0.0
 40
0.0
 40
0.0
 40
0.019556121229571
 40
0.1681891996744418
 40
0.5898876540792521
 40
1.0
 40
1.0
 40
1.0
 40
1.0
 10
263.6221700076553
 20
110.8232984042554
 30
0.0
 10
263.6241287208032
 20
110.8232402905397
 30
0.0
 10
263.640974310626
 20
110.822740493099
 30
0.0
 10
263.6928748743851
 20
110.8218940756854
 30
0.0
 10
263.7421595064508
 20
110.8239833742075
 30
0.0
 10
263.7354295213743
 20
110.829062015391
 30
0.0
 10
263.7321113990723
 20
110.8315659663484
 30
0.0
  0
LINE
  5
240
330
1F
100
AcDbEntity
  8
0
  6
Continuous
 62
     7
370
    25
100
AcDbLine
 10
244.2698093452
 20
112.8014668443
 30
0.0
 11
245.8787663384
 21
114.8433283453
 31
0.0
  0
LINE
  5
241
330
1F
100
AcDbEntity
  8
0
  6
Continuous
 62
     7
370
    25
100
AcDbLine
 10
234.9177640771
 20
113.8953146615
 30
0.0
 11
234.9183319627
 21
113.8947276206
 31
0.0
  0
ARC
  5
242
330
1F
100
AcDbEntity
  8
0
  6
Continuous
 62
     7
370
    25
100
AcDbCircle
 10
238.7044761905
 20
105.7387302042
 30
0.0
 40
11.59155496206738
100
AcDbArc
 50
51.762407147
 51
56.6533814372
  0
LWPOLYLINE
  5
243
330
1F
100
AcDbEntity
  8
0
  6
Continuous
 62
     7
370
    25
100
AcDbPolyline
 90
        4
 70
   128
 43
0.0
 10
263.7321113991
 20
110.8315659663
 10
263.7343536454
 20
110.8489242213
 10
263.7433261283
 20
110.918357083
 10
263.7496564095
 20
110.967317229
  0
ARC
  5
244
330
1F
100
AcDbEntity
  8
0
  6
Continuous
 62
     7
370
    25
100
AcDbCircle
 10
270.1470905243
 20
141.8225383262
 30
0.0
 40
31.57783498432754
100
AcDbArc
 50
234.8280705831
 51
235.6099480104
  0
LINE
  5
245
330
1F
100
AcDbEntity
  8
0
  6
Continuous
 62
     7
370
    25
100
AcDbLine
 10
251.9572499868
 20
116.0099568296
 30
0.0
 11
251.9977319016
 21
116.0674033324
 31
0.0
  0
ARC
  5
246
330
1F
100
AcDbEntity
  8
0
  6
Continuous
 62
     7
370
    25
100
AcDbCircle
 10
270.1470905243
 20
141.8225383262
 30
0.0
 40
31.5075577752834
100
AcDbArc
 50
234.8280705831
 51
254.9420027521
  0
LINE
  5
247
330
1F
100
AcDbEntity
  8
0
  6
Continuous
 62
     7
370
    25
100
AcDbLine
 10
263.7496564095
 20
110.967317229
 30
0.0
 11
261.9615321257
 21
111.3968447323
 31
0.0
  0
LINE
  5
248
330
1F
100
AcDbEntity
  8
0
  6
Continuous
 62
     7
370
    25
100
AcDbLine
 10
263.8234938188
 20
100.5204614756
 30
0.0
 11
263.7496564095
 21
100.5101431793
 31
0.0
  0
SPLINE
  5
249
330
1F
100
AcDbEntity
  8
0
  6
Continuous
 62
     7
370
    25
100
AcDbSpline
210
0.0
220
0.0
230
1.0
 70
     8
 71
     3
 72
    10
 73
     6
 74
     0
 42
0.00000001
 43
0.00000001
 40
0.0
 40
0.0
 40
0.0
 40
0.0
 40
0.0490769085761659
 40
0.599580584366531
 40
1.0
 40
1.0
 40
1.0
 40
1.0
 10
245.8787663384451
 20
114.8433283452835
 30
0.0
 10
245.8977138768142
 20
114.8287056096821
 30
0.0
 10
246.1291990387207
 20
114.650057267493
 30
0.0
 10
246.575072813538
 20
114.4160052740718
 30
0.0
 10
247.0370793904224
 20
114.3569909010541
 30
0.0
 10
247.2316234131761
 20
114.3321408359218
 30
0.0
  0
ARC
  5
24A
330
1F
100
AcDbEntity
  8
0
  6
Continuous
 62
     7
370
    25
100
AcDbCircle
 10
263.8334648
 20
111.3212636634
 30
0.0
 40
0.5000763405151317
100
AcDbArc
 50
258.3065203379
 51
266.8373700345
  0
SPLINE
  5
24B
330
1F
100
AcDbEntity
  8
0
  6
Continuous
 62
     7
370
    25
100
AcDbSpline
210
0.0
220
0.0
230
1.0
 70
     8
 71
     3
 72
     9
 73
     5
 74
     0
 42
0.00000001
 43
0.00000001
 40
0.0
 40
0.0
 40
0.0
 40
0.0
 40
0.8458911907785723
 40
1.0
 40
1.0
 40
1.0
 40
1.0
 10
263.7496564094828
 20
110.9673172290347
 30
0.0
 10
263.7704970055938
 20
110.9635024220423
 30
0.0
 10
263.7951344487288
 20
110.958992613885
 30
0.0
 10
263.819706975905
 20
110.957265150134
 30
0.0
 10
263.8234938188077
 20
110.9569989327524
 30
0.0
  0
LINE
  5
24C
330
1F
100
AcDbEntity
  8
0
  6
Continuous
 62
     7
370
    25
100
AcDbLine
 10
281.8189140165
 20
109.8907430795
 30
0.0
 11
281.8184559966
 21
109.8907681659
 31
0.0
  0
LINE
  5
24D
330
1F
100
AcDbEntity
  8
0
  6
Continuous
 62
     7
370
    25
100
AcDbLine
 10
251.9568120154
 20
95.468125089
 30
0.0
 11
250.1180711661
 21
94.4711588533
 31
0.0
  0
LINE
  5
24E
330
1F
100
AcDbEntity
  8
0
  6
Continuous
 62
     7
370
    25
100
AcDbLine
 10
249.378046751
 20
96.3288847532
 30
0.0
 11
250.1180711661
 21
94.4711588533
 31
0.0
  0
LINE
  5
24F
330
1F
100
AcDbEntity
  8
0
  6
Continuous
 62
     7
370
    25
100
AcDbLine
 10
246.3912764242
 20
95.8497632662
 30
0.0
 11
246.2694426775
 21
93.8537827572
 31
0.0
  0
LINE
  5
250
330
1F
100
AcDbEntity
  8
0
  6
Continuous
 62
     7
370
    25
100
AcDbLine
 10
246.2694426775
 20
93.8537827572
 30
0.0
 11
244.8265354378
 21
94.0620698225
 31
0.0
  0
ARC
  5
251
330
1F
100
AcDbEntity
  8
0
  6
Continuous
 62
     7
370
    25
100
AcDbCircle
 10
246.8134913957
 20
108.71062468
 30
0.0
 40
6.929946387144304
100
AcDbArc
 50
54.8280705831
 51
102.8580809319
  0
LINE
  5
252
330
1F
100
AcDbEntity
  8
0
  6
Continuous
 62
     7
370
    25
100
AcDbLine
 10
245.2713226378
 20
115.4667975945
 30
0.0
 11
244.8263166328
 21
117.4163491608
 31
0.0
  0
ARC
  5
253
330
1F
100
AcDbEntity
  8
0
  6
Continuous
 62
     7
370
    25
100
AcDbCircle
 10
246.8134913957
 20
108.71062468
 30
0.0
 40
8.92964177745708
100
AcDbArc
 50
54.8280705831
 51
102.8580809319
  0
LINE
  5
254
330
1F
100
AcDbEntity
  8
0
  6
Continuous
 62
     7
370
    25
100
AcDbLine
 10
250.8053616356
 20
114.3753514091
 30
0.0
 11
251.9572499868
 21
116.0099568296
 31
0.0
  0
ARC
  5
255
330
1F
100
AcDbEntity
  8
0
  6
Continuous
 62
     7
370
    25
100
AcDbCircle
 10
270.1470905243
 20
141.8225383262
 30
0.0
 40
33.57753037464033
100
AcDbArc
 50
234.8280705831
 51
235.6099480104
  0
ARC
  5
256
330
1F
100
AcDbEntity
  8
0
  6
Continuous
 62
     7
370
    25
100
AcDbCircle
 10
255.5324555973
 20
70.5132293051
 30
0.0
 40
46.10980537323358
100
AcDbArc
 50
102.8580809319
 51
103.1066633214
  0
ARC
  5
257
330
1F
100
AcDbEntity
  8
0
  6
Continuous
 62
     7
370
    25
100
AcDbCircle
 10
246.8134913957
 20
102.7668357284
 30
0.0
 40
6.929946387144285
100
AcDbArc
 50
266.5070253286
 51
291.7198462835
  0
ARC
  5
258
330
1F
100
AcDbEntity
  8
0
  6
Continuous
 62
     7
370
    25
100
AcDbCircle
 10
246.8134913957
 20
102.7668357284
 30
0.0
 40
8.929641777457064
100
AcDbArc
 50
266.5070253286
 51
291.7198462835
  0
ARC
  5
259
330
1F
100
AcDbEntity
  8
0
  6
Continuous
 62
     7
370
    25
100
AcDbCircle
 10
246.8134913957
 20
102.7668357284
 30
0.0
 40
8.99991898650123
100
AcDbArc
 50
257.1419190681
 51
305.1719294169
  0
ARC
  5
25A
330
1F
100
AcDbEntity
  8
0
  6
Continuous
 62
     7
370
    25
100
AcDbCircle
 10
246.8134913957
 20
108.71062468
 30
0.0
 40
8.99991898650122
100
AcDbArc
 50
54.8280705831
 51
102.8580809319
  0
ARC
  5
25B
330
1F
100
AcDbEntity
  8
0
  6
Continuous
 62
     7
370
    25
100
AcDbCircle
 10
33.7044761905
 20
105.7387302042
 30
0.0
 40
10.30000000000001
100
AcDbArc
 50
292.7308609266
 51
307.2691390734
  0
SPLINE
  5
25C
330
1F
100
AcDbEntity
  8
0
  6
Continuous
 62
     7
370
    25
100
AcDbSpline
210
0.0
220
0.0
230
1.0
 70
    24
 71
     3
 72
    10
 73
     6
 74
     0
 42
0.00000001
 43
0.00000001
 40
0.0
 40
0.0
 40
0.0
 40
0.0
 40
0.0976179925182173
 40
0.8611928770278651
 40
1.0
 40
1.0
 40
1.0
 40
1.0
 10
37.68442593890264
 20
96.23873020415859
 30
0.0
 10
37.60920092688434
 20
96.23873020415859
 30
0.0
 10
36.94556051743411
 20
96.23873020415857
 30
0.0
 10
36.15686036215089
 20
96.23873020415859
 30
0.0
 10
35.41783536128716
 20
96.23873020415859
 30
0.0
 10
35.30415630593826
 20
96.23873020415859
 30
0.0
  0
SPLINE
  5
25D
330
1F
100
AcDbEntity
  8
0
  6
Continuous
 62
     7
370
    25
100
AcDbSpline
210
0.0
220
0.0
230
1.0
 70
    24
 71
     3
 72
    11
 73
     7
 74
     0
 42
0.00000001
 43
0.00000001
 40
0.0
 40
0.0
 40
0.0
 40
0.0
 40
0.0040449031828657
 40
0.471636940157887
 40
0.940108955150011
 40
1.0
 40
1.0
 40
1.0
 40
1.0
 10
33.75939820394701
 20
115.2387302041586
 30
0.0
 10
33.76479270476938
 20
115.2387302041586
 30
0.0
 10
34.39379313976693
 20
115.2387302041586
 30
0.0
 10
35.65765858561877
 20
115.2387302041586
 30
0.0
 10
36.94574046247948
 20
115.2387302041586
 30
0.0
 10
37.60921924736304
 20
115.2387302041586
 30
0.0
 10
37.68442593890264
 20
115.2387302041586
 30
0.0
  0
ARC
  5
25E
330
1F
100
AcDbEntity
  8
0
  6
Continuous
 62
     7
370
    25
100
AcDbCircle
 10
33.7044761905
 20
105.7387302042
 30
0.0
 40
10.3
100
AcDbArc
 50
52.7308609266
 51
67.2691390734
  0
SPLINE
  5
25F
330
1F
100
AcDbEntity
  8
0
  6
Continuous
 62
     7
370
    25
100
AcDbSpline
210
0.0
220
0.0
230
1.0
 70
    24
 71
     3
 72
    11
 73
     7
 74
     0
 42
0.00000001
 43
0.00000001
 40
0.0
 40
0.0
 40
0.0
 40
0.0
 40
0.2431641197380914
 40
0.4936284730588929
 40
0.742170607686329
 40
1.0
 40
1.0
 40
1.0
 40
1.0
 10
39.9417426522151
 20
113.9354677920814
 30
0.0
 10
40.25550165391187
 20
113.3920212598106
 30
0.0
 10
40.89243927893178
 20
112.2888129320238
 30
0.0
 10
41.90282824793835
 20
110.5387679022972
 30
0.0
 10
42.93453537577438
 20
108.7517987383543
 30
0.0
 10
43.5886411186726
 20
107.618854358132
 30
0.0
 10
43.92169240064159
 20
107.0419926162358
 30
0.0
  0
ARC
  5
260
330
1F
100
AcDbEntity
  8
0
  6
Continuous
 62
     7
370
    25
100
AcDbCircle
 10
33.7044761905
 20
105.7387302042
 30
0.0
 40
10.30000000000001
100
AcDbArc
 50
352.7308609266
 51
7.2691390734
  0
SPLINE
  5
261
330
1F
100
AcDbEntity
  8
0
  6
Continuous
 62
     7
370
    25
100
AcDbSpline
210
0.0
220
0.0
230
1.0
 70
    24
 71
     3
 72
    11
 73
     7
 74
     0
 42
0.00000001
 43
0.00000001
 40
0.0
 40
0.0
 40
0.0
 40
0.0
 40
0.2431641197380913
 40
0.4936284730588938
 40
0.742170607686329
 40
1.0
 40
1.0
 40
1.0
 40
1.0
 10
43.92169240064159
 20
104.4354677920814
 30
0.0
 10
43.60793339894485
 20
103.8920212598106
 30
0.0
 10
42.97099577392492
 20
102.7888129320238
 30
0.0
 10
41.9606068049183
 20
101.0387679022972
 30
0.0
 10
40.92889967708228
 20
99.25179873835434
 30
0.0
 10
40.27479393418412
 20
98.11885435813203
 30
0.0
 10
39.9417426522151
 20
97.54199261623577
 30
0.0
  0
SPLINE
  5
262
330
1F
100
AcDbEntity
  8
0
  6
Continuous
 62
     7
370
    25
100
AcDbSpline
210
0.0
220
0.0
230
1.0
 70
    24
 71
     3
 72
    10
 73
     6
 74
     0
 42
0.00000001
 43
0.00000001
 40
0.0
 40
0.0
 40
0.0
 40
0.0
 40
0.3379656776309892
 40
0.928450405723431
 40
0.9999999999999999
 40
0.9999999999999999
 40
0.9999999999999999
 40
0.9999999999999999
 10
237.9469818900025
 20
96.23873020415859
 30
0.0
 10
237.5739815432219
 20
96.23873020415859
 30
0.0
 10
236.5492848174156
 20
96.23873020415859
 30
0.0
 10
235.4836514413471
 20
96.2387302041586
 30
0.0
 10
234.7985671679606
 20
96.23873020415859
 30
0.0
 10
234.7245264420497
 20
96.23873020415859
 30
0.0
  0
ARC
  5
263
330
1F
100
AcDbEntity
  8
0
  6
Continuous
 62
     7
370
    25
100
AcDbCircle
 10
238.7044761905
 20
105.7387302042
 30
0.0
 40
10.30000000000002
100
AcDbArc
 50
232.7308609266
 51
247.2691390734
  0
SPLINE
  5
264
330
1F
100
AcDbEntity
  8
0
  6
Continuous
 62
     7
370
    25
100
AcDbSpline
210
0.0
220
0.0
230
1.0
 70
    24
 71
     3
 72
    11
 73
     7
 74
     0
 42
0.00000001
 43
0.00000001
 40
0.0
 40
0.0
 40
0.0
 40
0.0
 40
0.2431641197380914
 40
0.493628473058894
 40
0.7421706076863287
 40
1.0
 40
1.0
 40
1.0
 40
1.0
 10
232.4672097287373
 20
97.54199261623577
 30
0.0
 10
232.1534507270406
 20
98.08543914850662
 30
0.0
 10
231.5165131020206
 20
99.18864747629341
 30
0.0
 10
230.506124133014
 20
100.93869250602
 30
0.0
 10
229.474417005178
 20
102.7256616699628
 30
0.0
 10
228.8203112622798
 20
103.8586060501852
 30
0.0
 10
228.4872599803108
 20
104.4354677920814
 30
0.0
  0
ARC
  5
265
330
1F
100
AcDbEntity
  8
0
  6
Continuous
 62
     7
370
    25
100
AcDbCircle
 10
238.7044761905
 20
105.7387302042
 30
0.0
 40
10.30000000000001
100
AcDbArc
 50
172.7308609266
 51
187.2691390734
  0
SPLINE
  5
266
330
1F
100
AcDbEntity
  8
0
  6
Continuous
 62
     7
370
    25
100
AcDbSpline
210
0.0
220
0.0
230
1.0
 70
    24
 71
     3
 72
    11
 73
     7
 74
     0
 42
0.00000001
 43
0.00000001
 40
0.0
 40
0.0
 40
0.0
 40
0.0
 40
0.2431641197380907
 40
0.4936284730588932
 40
0.7421706076863286
 40
1.0
 40
1.0
 40
1.0
 40
1.0
 10
228.4872599803108
 20
107.0419926162358
 30
0.0
 10
228.8010189820075
 20
107.5854391485066
 30
0.0
 10
229.4379566070275
 20
108.6886474762934
 30
0.0
 10
230.4483455760341
 20
110.43869250602
 30
0.0
 10
231.4800527038701
 20
112.2256616699628
 30
0.0
 10
232.1341584467683
 20
113.3586060501852
 30
0.0
 10
232.4672097287373
 20
113.9354677920814
 30
0.0
  0
ARC
  5
267
330
1F
100
AcDbEntity
  8
0
  6
Continuous
 62
     7
370
    25
100
AcDbCircle
 10
238.7044761905
 20
105.7387302042
 30
0.0
 40
10.3
100
AcDbArc
 50
112.7308609266
 51
127.2691390734
  0
SPLINE
  5
268
330
1F
100
AcDbEntity
  8
0
  6
Continuous
 62
     7
370
    25
100
AcDbSpline
210
0.0
220
0.0
230
1.0
 70
    24
 71
     3
 72
    10
 73
     6
 74
     0
 42
0.00000001
 43
0.00000001
 40
0.0
 40
0.0
 40
0.0
 40
0.0
 40
0.077962432926144
 40
0.7213710570180182
 40
1.0
 40
1.0
 40
1.0
 40
1.0
 10
234.7245264420498
 20
115.2387302041586
 30
0.0
 10
234.7985707563932
 20
115.2387302041586
 30
0.0
 10
235.4836882328413
 20
115.2387302041586
 30
0.0
 10
236.4604357777258
 20
115.2387302041586
 30
0.0
 10
237.3937398796682
 20
115.2387302041586
 30
0.0
 10
237.6757734374007
 20
115.2387302041586
 30
0.0
  0
LINE
  5
269
330
1F
100
AcDbEntity
  8
0
  6
Continuous
 62
     7
370
    25
100
AcDbLine
 10
35.5101054002
 20
115.3200768296
 30
0.0
 11
36.2288939069
 21
115.1562572252
 31
0.0
  0
ARC
  5
26A
330
1F
100
AcDbEntity
  8
0
  6
Continuous
 62
     7
370
    25
100
AcDbCircle
 10
33.7044761905
 20
105.7387302042
 30
0.0
 40
14.87500000000001
100
AcDbArc
 50
235.1611835908
 51
30.0
  0
ARC
  5
26B
330
1F
100
AcDbEntity
  8
0
  6
Continuous
 62
     7
370
    25
100
AcDbCircle
 10
33.7044761905
 20
105.7387302042
 30
0.0
 40
14.875
100
AcDbArc
 50
30.0
 51
128.4167037132
  0
ARC
  5
26C
330
1F
100
AcDbEntity
  8
0
  6
Continuous
 62
     7
370
    25
100
AcDbCircle
 10
33.7044761905
 20
105.7387302042
 30
0.0
 40
10.57500000000001
100
AcDbArc
 50
264.5490172093
 51
30.0
  0
ARC
  5
26D
330
1F
100
AcDbEntity
  8
0
  6
Continuous
 62
     7
370
    25
100
AcDbCircle
 10
33.7044761905
 20
105.7387302042
 30
0.0
 40
10.575
100
AcDbArc
 50
30.0
 51
101.0490866707
  0
ARC
  5
26E
330
1F
100
AcDbEntity
  8
0
  6
Continuous
 62
     7
370
    25
100
AcDbCircle
 10
33.7044761905
 20
105.7387302042
 30
0.0
 40
16.19999999999999
100
AcDbArc
 50
225.9729863763
 51
138.1420914366
  0
SPLINE
  5
26F
330
1F
100
AcDbEntity
  8
0
  6
Continuous
 62
     7
370
    25
100
AcDbSpline
210
0.0
220
0.0
230
1.0
 70
     8
 71
     3
 72
     9
 73
     5
 74
     0
 42
0.00000001
 43
0.00000001
 40
0.0
 40
0.0
 40
0.0
 40
0.0
 40
0.5850553834534097
 40
1.0
 40
1.0
 40
1.0
 40
1.0
 10
22.57806554256137
 20
92.51023875222239
 30
0.0
 10
22.83784046237021
 20
92.12369222665839
 30
0.0
 10
23.28185811805858
 20
91.46299148533313
 30
0.0
 10
23.95370931009142
 20
90.98483265320704
 30
0.0
 10
24.23249034534586
 20
90.7864232199621
 30
0.0
  0
LINE
  5
270
330
1F
100
AcDbEntity
  8
0
  6
Continuous
 62
     7
370
    25
100
AcDbLine
 10
21.2904554321
 20
94.7404448838
 30
0.0
 11
22.5780655426
 21
92.5102387522
 31
0.0
  0
SPLINE
  5
271
330
1F
100
AcDbEntity
  8
0
  6
Continuous
 62
     7
370
    25
100
AcDbSpline
210
0.0
220
0.0
230
1.0
 70
    24
 71
     3
 72
     9
 73
     5
 74
     0
 42
0.00000001
 43
0.00000001
 40
0.0
 40
0.0
 40
0.0
 40
0.0
 40
0.7940308811706432
 40
1.0
 40
1.0
 40
1.0
 40
1.0
 10
22.57806554256217
 20
118.9672216560962
 30
0.0
 10
22.1332131072705
 20
118.1967146363002
 30
0.0
 10
21.57296734625443
 20
117.2263405134953
 30
0.0
 10
20.98770314504982
 20
116.2126331811577
 30
0.0
 10
20.86715679324534
 20
116.0038407751653
 30
0.0
  0
SPLINE
  5
272
330
1F
100
AcDbEntity
  8
0
  6
Continuous
 62
     7
370
    25
100
AcDbSpline
210
0.0
220
0.0
230
1.0
 70
     8
 71
     3
 72
     9
 73
     5
 74
     0
 42
0.00000001
 43
0.00000001
 40
0.0
 40
0.0
 40
0.0
 40
0.0
 40
0.584191749740925
 40
1.0
 40
1.0
 40
1.0
 40
1.0
 10
24.23249034534586
 20
120.6910371883551
 30
0.0
 10
23.84483407989529
 20
120.4017612848554
 30
0.0
 10
23.18125698278212
 20
119.9065884180218
 30
0.0
 10
22.75521663437363
 20
119.2431039654106
 30
0.0
 10
22.57806554256217
 20
118.9672216560962
 30
0.0
  0
ARC
  5
273
330
1F
100
AcDbEntity
  8
0
  6
Continuous
 62
     7
370
    25
100
AcDbCircle
 10
33.7044761905
 20
105.7387302042
 30
0.0
 40
17.7
100
AcDbArc
 50
117.6465635726
 51
122.3534364274
  0
SPLINE
  5
274
330
1F
100
AcDbEntity
  8
0
  6
Continuous
 62
     7
370
    25
100
AcDbSpline
210
0.0
220
0.0
230
1.0
 70
     8
 71
     3
 72
     9
 73
     5
 74
     0
 42
0.00000001
 43
0.00000001
 40
0.0
 40
0.0
 40
0.0
 40
0.0
 40
0.5850553834536162
 40
1.0
 40
1.0
 40
1.0
 40
1.0
 10
27.81147186330993
 20
121.9887302041586
 30
0.0
 10
27.34682529252261
 20
121.9570317871199
 30
0.0
 10
26.55263283839206
 20
121.9028515882274
 30
0.0
 10
25.80260954671112
 20
121.5600908044274
 30
0.0
 10
25.49139141954369
 20
121.4178640624263
 30
0.0
  0
SPLINE
  5
275
330
1F
100
AcDbEntity
  8
0
  6
Continuous
 62
     7
370
    25
100
AcDbSpline
210
0.0
220
0.0
230
1.0
 70
    24
 71
     3
 72
    11
 73
     7
 74
     0
 42
0.00000001
 43
0.00000001
 40
0.0
 40
0.0
 40
0.0
 40
0.0
 40
0.2328716322111479
 40
0.4710265024313248
 40
0.7311421212560302
 40
0.9999999999999999
 40
0.9999999999999999
 40
0.9999999999999999
 40
0.9999999999999999
 10
39.59748051764242
 20
121.9887302041586
 30
0.0
 10
38.70362408732198
 20
121.9887302041586
 30
0.0
 10
36.89563200150264
 20
121.9887302041586
 30
0.0
 10
33.96795926093968
 20
121.9887302041586
 30
0.0
 10
30.88086035046177
 20
121.9887302041586
 30
0.0
 10
28.84581232947559
 20
121.9887302041586
 30
0.0
 10
27.81147186330993
 20
121.9887302041586
 30
0.0
  0
SPLINE
  5
276
330
1F
100
AcDbEntity
  8
0
  6
Continuous
 62
     7
370
    25
100
AcDbSpline
210
0.0
220
0.0
230
1.0
 70
     8
 71
     3
 72
     9
 73
     5
 74
     0
 42
0.00000001
 43
0.00000001
 40
0.0
 40
0.0
 40
0.0
 40
0.0
 40
0.5841917497409234
 40
1.0
 40
1.0
 40
1.0
 40
1.0
 10
41.91756096140867
 20
121.4178640624263
 30
0.0
 10
41.47321254754993
 20
121.6089462844928
 30
0.0
 10
40.71259171705068
 20
121.9360344745456
 30
0.0
 10
39.92497715186913
 20
121.9732540129989
 30
0.0
 10
39.59748051764242
 20
121.9887302041586
 30
0.0
  0
ARC
  5
277
330
1F
100
AcDbEntity
  8
0
  6
Continuous
 62
     7
370
    25
100
AcDbCircle
 10
33.7044761905
 20
105.7387302042
 30
0.0
 40
17.7
100
AcDbArc
 50
57.6465635726
 51
62.3534364274
  0
SPLINE
  5
278
330
1F
100
AcDbEntity
  8
0
  6
Continuous
 62
     7
370
    25
100
AcDbSpline
210
0.0
220
0.0
230
1.0
 70
     8
 71
     3
 72
     9
 73
     5
 74
     0
 42
0.00000001
 43
0.00000001
 40
0.0
 40
0.0
 40
0.0
 40
0.0
 40
0.5850553834536193
 40
1.0
 40
1.0
 40
1.0
 40
1.0
 10
44.83088683839018
 20
118.9672216560962
 30
0.0
 10
44.57111191858128
 20
119.35376818166
 30
0.0
 10
44.127094262893
 20
120.0144689229847
 30
0.0
 10
43.45524307086058
 20
120.4926277551104
 30
0.0
 10
43.17646203560648
 20
120.6910371883551
 30
0.0
  0
SPLINE
  5
279
330
1F
100
AcDbEntity
  8
0
  6
Continuous
 62
     7
370
    25
100
AcDbSpline
210
0.0
220
0.0
230
1.0
 70
    24
 71
     3
 72
    11
 73
     7
 74
     0
 42
0.00000001
 43
0.00000001
 40
0.0
 40
0.0
 40
0.0
 40
0.0
 40
0.2556279644380972
 40
0.5185037642963867
 40
0.7560467972580103
 40
1.0
 40
1.0
 40
1.0
 40
1.0
 10
50.72389116555642
 20
108.760238752221
 30
0.0
 10
50.23259808728822
 20
109.6111833251885
 30
0.0
 10
49.23608226784423
 20
111.3371993550116
 30
0.0
 10
47.71587136139104
 20
113.9702818832089
 30
0.0
 10
46.22415563984285
 20
116.5540093033795
 30
0.0
 10
45.2994134763364
 20
118.1557097144739
 30
0.0
 10
44.83088683839018
 20
118.9672216560962
 30
0.0
  0
SPLINE
  5
27A
330
1F
100
AcDbEntity
  8
0
  6
Continuous
 62
     7
370
    25
100
AcDbSpline
210
0.0
220
0.0
230
1.0
 70
     8
 71
     3
 72
     9
 73
     5
 74
     0
 42
0.00000001
 43
0.00000001
 40
0.0
 40
0.0
 40
0.0
 40
0.0
 40
0.5841917497409242
 40
1.0
 40
1.0
 40
1.0
 40
1.0
 10
51.38954680653898
 20
106.4655570782298
 30
0.0
 10
51.33285465813081
 20
106.9459152037961
 30
0.0
 10
51.23581092474478
 20
107.7681762606824
 30
0.0
 10
50.87423670797165
 20
108.4688802517469
 30
0.0
 10
50.72389116555642
 20
108.760238752221
 30
0.0
  0
ARC
  5
27B
330
1F
100
AcDbEntity
  8
0
  6
Continuous
 62
     7
370
    25
100
AcDbCircle
 10
33.7044761905
 20
105.7387302042
 30
0.0
 40
17.70000000000001
100
AcDbArc
 50
357.6465635726
 51
2.3534364274
  0
SPLINE
  5
27C
330
1F
100
AcDbEntity
  8
0
  6
Continuous
 62
     7
370
    25
100
AcDbSpline
210
0.0
220
0.0
230
1.0
 70
     8
 71
     3
 72
     9
 73
     5
 74
     0
 42
0.00000001
 43
0.00000001
 40
0.0
 40
0.0
 40
0.0
 40
0.0
 40
0.5850553834536182
 40
0.9999999999999999
 40
0.9999999999999999
 40
0.9999999999999999
 40
0.9999999999999999
 10
50.72389116555642
 20
102.7172216560962
 30
0.0
 10
50.92876281653484
 20
103.1354665986987
 30
0.0
 10
51.27893761497714
 20
103.8503475389159
 30
0.0
 10
51.35710971462566
 20
104.6712671548416
 30
0.0
 10
51.38954680653897
 20
105.0119033300873
 30
0.0
  0
SPLINE
  5
27D
330
1F
100
AcDbEntity
  8
0
  6
Continuous
 62
     7
370
    25
100
AcDbSpline
210
0.0
220
0.0
230
1.0
 70
    24
 71
     3
 72
    11
 73
     7
 74
     0
 42
0.00000001
 43
0.00000001
 40
0.0
 40
0.0
 40
0.0
 40
0.0
 40
0.2328716322111471
 40
0.471026502431323
 40
0.7311421212560296
 40
1.0
 40
1.0
 40
1.0
 40
1.0
 10
44.83088683839016
 20
92.510238752221
 30
0.0
 10
45.27781505355037
 20
93.28434112821456
 30
0.0
 10
46.18181109646001
 20
94.85010820437532
 30
0.0
 10
47.64564746674154
 20
97.38554717167004
 30
0.0
 10
49.18919692198047
 20
100.0590532521392
 30
0.0
 10
50.20672093247359
 20
101.8214565362345
 30
0.0
 10
50.72389116555642
 20
102.7172216560962
 30
0.0
  0
SPLINE
  5
27E
330
1F
100
AcDbEntity
  8
0
  6
Continuous
 62
     7
370
    25
100
AcDbSpline
210
0.0
220
0.0
230
1.0
 70
     8
 71
     3
 72
     9
 73
     5
 74
     0
 42
0.00000001
 43
0.00000001
 40
0.0
 40
0.0
 40
0.0
 40
0.0
 40
0.5841917497409237
 40
1.0
 40
1.0
 40
1.0
 40
1.0
 10
43.17646203560649
 20
90.7864232199621
 30
0.0
 10
43.56411830105705
 20
91.07569912346183
 30
0.0
 10
44.22769539817027
 20
91.57087199029539
 30
0.0
 10
44.6537357465787
 20
92.23435644290662
 30
0.0
 10
44.83088683839016
 20
92.510238752221
 30
0.0
  0
ARC
  5
27F
330
1F
100
AcDbEntity
  8
0
  6
Continuous
 62
     7
370
    25
100
AcDbCircle
 10
33.7044761905
 20
105.7387302042
 30
0.0
 40
17.70000000000001
100
AcDbArc
 50
297.6465635726
 51
302.3534364274
  0
SPLINE
  5
280
330
1F
100
AcDbEntity
  8
0
  6
Continuous
 62
     7
370
    25
100
AcDbSpline
210
0.0
220
0.0
230
1.0
 70
     8
 71
     3
 72
     9
 73
     5
 74
     0
 42
0.00000001
 43
0.00000001
 40
0.0
 40
0.0
 40
0.0
 40
0.0
 40
0.5850553834536171
 40
1.0
 40
1.0
 40
1.0
 40
1.0
 10
39.5974805176424
 20
89.4887302041586
 30
0.0
 10
40.06212708842973
 20
89.52042862119724
 30
0.0
 10
40.85631954256026
 20
89.57460882008978
 30
0.0
 10
41.60634283424123
 20
89.91736960388982
 30
0.0
 10
41.91756096140863
 20
90.05959634589087
 30
0.0
  0
SPLINE
  5
281
330
1F
100
AcDbEntity
  8
0
  6
Continuous
 62
     7
370
    25
100
AcDbSpline
210
0.0
220
0.0
230
1.0
 70
    24
 71
     3
 72
    11
 73
     7
 74
     0
 42
0.00000001
 43
0.00000001
 40
0.0
 40
0.0
 40
0.0
 40
0.0
 40
0.2328716322111485
 40
0.471026502431326
 40
0.7311421212560308
 40
1.0
 40
1.0
 40
1.0
 40
1.0
 10
27.81147186330994
 20
89.4887302041586
 30
0.0
 10
28.70532829363041
 20
89.4887302041586
 30
0.0
 10
30.51332037944974
 20
89.4887302041586
 30
0.0
 10
33.44099312001261
 20
89.48873020415859
 30
0.0
 10
36.52809203049066
 20
89.4887302041586
 30
0.0
 10
38.56314005147679
 20
89.4887302041586
 30
0.0
 10
39.5974805176424
 20
89.4887302041586
 30
0.0
  0
SPLINE
  5
282
330
1F
100
AcDbEntity
  8
0
  6
Continuous
 62
     7
370
    25
100
AcDbSpline
210
0.0
220
0.0
230
1.0
 70
     8
 71
     3
 72
     9
 73
     5
 74
     0
 42
0.00000001
 43
0.00000001
 40
0.0
 40
0.0
 40
0.0
 40
0.0
 40
0.5841917497409266
 40
1.0
 40
1.0
 40
1.0
 40
1.0
 10
25.49139141954371
 20
90.05959634589087
 30
0.0
 10
25.93573983340244
 20
89.86851412382434
 30
0.0
 10
26.69636066390169
 20
89.54142593377155
 30
0.0
 10
27.48397522908325
 20
89.50420639531829
 30
0.0
 10
27.81147186330994
 20
89.4887302041586
 30
0.0
  0
ARC
  5
283
330
1F
100
AcDbEntity
  8
0
  6
Continuous
 62
     7
370
    25
100
AcDbCircle
 10
33.7044761905
 20
105.7387302042
 30
0.0
 40
17.70000000000001
100
AcDbArc
 50
237.6465635726
 51
242.3534364274
  0
LWPOLYLINE
  5
284
330
1F
100
AcDbEntity
  8
0
  6
Continuous
 62
     7
370
    25
100
AcDbPolyline
 90
        3
 70
   128
 43
0.0
 10
230.2607285036
 20
100.8637302042
 10
229.5880678243
 20
102.2813325555
 10
229.5789510697
 20
102.3054677223
  0
LWPOLYLINE
  5
285
330
1F
100
AcDbEntity
  8
0
  6
Continuous
 62
     7
370
    25
100
AcDbPolyline
 90
        3
 70
   128
 43
0.0
 10
231.2838813072
 20
99.4143905882
 10
231.1520778127
 20
99.5723877921
 10
230.2607285036
 20
100.8637302042
  0
ARC
  5
286
330
1F
100
AcDbEntity
  8
0
  6
Continuous
 62
     7
370
    25
100
AcDbCircle
 10
238.7044761905
 20
105.7387302042
 30
0.0
 40
14.87500000000001
100
AcDbArc
 50
53.3837470415
 51
306.6156955593
  0
ARC
  5
287
330
1F
100
AcDbEntity
  8
0
  6
Continuous
 62
     7
370
    25
100
AcDbCircle
 10
238.7044761905
 20
105.7387302042
 30
0.0
 40
10.575
100
AcDbArc
 50
81.6509017607
 51
278.3490982393
  0
ARC
  5
288
330
1F
100
AcDbEntity
  8
0
  6
Continuous
 62
     7
370
    25
100
AcDbCircle
 10
238.7044761905
 20
105.7387302042
 30
0.0
 40
16.20000000000001
100
AcDbArc
 50
210.0
 51
316.0742282651
  0
ARC
  5
289
330
1F
100
AcDbEntity
  8
0
  6
Continuous
 62
     7
370
    25
100
AcDbCircle
 10
238.7044761905
 20
105.7387302042
 30
0.0
 40
16.19999999999997
100
AcDbArc
 50
43.9250761661
 51
210.0
  0
SPLINE
  5
28A
330
1F
100
AcDbEntity
  8
0
  6
Continuous
 62
     7
370
    25
100
AcDbSpline
210
0.0
220
0.0
230
1.0
 70
     8
 71
     3
 72
     9
 73
     5
 74
     0
 42
0.00000001
 43
0.00000001
 40
0.0
 40
0.0
 40
0.0
 40
0.0
 40
0.5850553834534097
 40
1.0
 40
1.0
 40
1.0
 40
1.0
 10
227.5780655425614
 20
92.51023875222239
 30
0.0
 10
227.8378404623703
 20
92.12369222665839
 30
0.0
 10
228.2818581180586
 20
91.46299148533313
 30
0.0
 10
228.9537093100915
 20
90.98483265320704
 30
0.0
 10
229.2324903453459
 20
90.7864232199621
 30
0.0
  0
SPLINE
  5
28B
330
1F
100
AcDbEntity
  8
0
  6
Continuous
 62
     7
370
    25
100
AcDbSpline
210
0.0
220
0.0
230
1.0
 70
    24
 71
     3
 72
    11
 73
     7
 74
     0
 42
0.00000001
 43
0.00000001
 40
0.0
 40
0.0
 40
0.0
 40
0.0
 40
0.2379053903768482
 40
0.4814905141303176
 40
0.7366519444348056
 40
0.9999999999999999
 40
0.9999999999999999
 40
0.9999999999999999
 40
0.9999999999999999
 10
221.6850612153958
 20
102.7172216560964
 30
0.0
 10
222.1417933261711
 20
101.9261384347856
 30
0.0
 10
223.0661615319046
 20
100.3250857375537
 30
0.0
 10
224.5424876244243
 20
97.76801393676998
 30
0.0
 10
226.0746210088878
 20
95.11428107090677
 30
0.0
 10
227.0716699735343
 20
93.38734160650512
 30
0.0
 10
227.5780655425614
 20
92.51023875222239
 30
0.0
  0
SPLINE
  5
28C
330
1F
100
AcDbEntity
  8
0
  6
Continuous
 62
     7
370
    25
100
AcDbSpline
210
0.0
220
0.0
230
1.0
 70
     8
 71
     3
 72
     9
 73
     5
 74
     0
 42
0.00000001
 43
0.00000001
 40
0.0
 40
0.0
 40
0.0
 40
0.0
 40
0.5841917497409942
 40
1.0
 40
1.0
 40
1.0
 40
1.0
 10
221.0194055744134
 20
105.0119033300874
 30
0.0
 10
221.0760977228216
 20
104.5315452045211
 30
0.0
 10
221.1731414562076
 20
103.7092841476349
 30
0.0
 10
221.5347156729807
 20
103.0085801565704
 30
0.0
 10
221.6850612153958
 20
102.7172216560964
 30
0.0
  0
ARC
  5
28D
330
1F
100
AcDbEntity
  8
0
  6
Continuous
 62
     7
370
    25
100
AcDbCircle
 10
238.7044761905
 20
105.7387302042
 30
0.0
 40
17.7
100
AcDbArc
 50
177.6465635726
 51
182.3534364274
  0
SPLINE
  5
28E
330
1F
100
AcDbEntity
  8
0
  6
Continuous
 62
     7
370
    25
100
AcDbSpline
210
0.0
220
0.0
230
1.0
 70
     8
 71
     3
 72
     9
 73
     5
 74
     0
 42
0.00000001
 43
0.00000001
 40
0.0
 40
0.0
 40
0.0
 40
0.0
 40
0.5850553834536183
 40
1.0
 40
1.0
 40
1.0
 40
1.0
 10
221.685061215396
 20
108.760238752221
 30
0.0
 10
221.4801895644175
 20
108.3419938096185
 30
0.0
 10
221.1300147659753
 20
107.6271128694013
 30
0.0
 10
221.0518426663267
 20
106.8061932534755
 30
0.0
 10
221.0194055744134
 20
106.4655570782298
 30
0.0
  0
SPLINE
  5
28F
330
1F
100
AcDbEntity
  8
0
  6
Continuous
 62
     7
370
    25
100
AcDbSpline
210
0.0
220
0.0
230
1.0
 70
    24
 71
     3
 72
    11
 73
     7
 74
     0
 42
0.00000001
 43
0.00000001
 40
0.0
 40
0.0
 40
0.0
 40
0.0
 40
0.2328716322111468
 40
0.4710265024313225
 40
0.7311421212560294
 40
1.0
 40
1.0
 40
1.0
 40
1.0
 10
227.5780655425622
 20
118.9672216560962
 30
0.0
 10
227.131137327402
 20
118.1931192801026
 30
0.0
 10
226.2271412844924
 20
116.6273522039419
 30
0.0
 10
224.7633049142108
 20
114.0919132366471
 30
0.0
 10
223.2197554589719
 20
111.418407156178
 30
0.0
 10
222.2022314484788
 20
109.6560038720827
 30
0.0
 10
221.685061215396
 20
108.760238752221
 30
0.0
  0
SPLINE
  5
290
330
1F
100
AcDbEntity
  8
0
  6
Continuous
 62
     7
370
    25
100
AcDbSpline
210
0.0
220
0.0
230
1.0
 70
     8
 71
     3
 72
     9
 73
     5
 74
     0
 42
0.00000001
 43
0.00000001
 40
0.0
 40
0.0
 40
0.0
 40
0.0
 40
0.584191749740925
 40
1.0
 40
1.0
 40
1.0
 40
1.0
 10
229.2324903453459
 20
120.6910371883551
 30
0.0
 10
228.8448340798954
 20
120.4017612848554
 30
0.0
 10
228.1812569827821
 20
119.9065884180218
 30
0.0
 10
227.7552166343737
 20
119.2431039654106
 30
0.0
 10
227.5780655425622
 20
118.9672216560962
 30
0.0
  0
ARC
  5
291
330
1F
100
AcDbEntity
  8
0
  6
Continuous
 62
     7
370
    25
100
AcDbCircle
 10
238.7044761905
 20
105.7387302042
 30
0.0
 40
17.7
100
AcDbArc
 50
117.6465635726
 51
122.3534364274
  0
SPLINE
  5
292
330
1F
100
AcDbEntity
  8
0
  6
Continuous
 62
     7
370
    25
100
AcDbSpline
210
0.0
220
0.0
230
1.0
 70
     8
 71
     3
 72
     9
 73
     5
 74
     0
 42
0.00000001
 43
0.00000001
 40
0.0
 40
0.0
 40
0.0
 40
0.0
 40
0.5850553834536162
 40
1.0
 40
1.0
 40
1.0
 40
1.0
 10
232.81147186331
 20
121.9887302041586
 30
0.0
 10
232.3468252925227
 20
121.9570317871199
 30
0.0
 10
231.5526328383921
 20
121.9028515882274
 30
0.0
 10
230.8026095467112
 20
121.5600908044274
 30
0.0
 10
230.4913914195437
 20
121.4178640624263
 30
0.0
  0
SPLINE
  5
293
330
1F
100
AcDbEntity
  8
0
  6
Continuous
 62
     7
370
    25
100
AcDbSpline
210
0.0
220
0.0
230
1.0
 70
    24
 71
     3
 72
    11
 73
     7
 74
     0
 42
0.00000001
 43
0.00000001
 40
0.0
 40
0.0
 40
0.0
 40
0.0
 40
0.2328716322111479
 40
0.4710265024313248
 40
0.7311421212560302
 40
0.9999999999999999
 40
0.9999999999999999
 40
0.9999999999999999
 40
0.9999999999999999
 10
244.5974805176425
 20
121.9887302041586
 30
0.0
 10
243.7036240873221
 20
121.9887302041586
 30
0.0
 10
241.8956320015027
 20
121.9887302041586
 30
0.0
 10
238.9679592609398
 20
121.9887302041586
 30
0.0
 10
235.8808603504618
 20
121.9887302041586
 30
0.0
 10
233.8458123294756
 20
121.9887302041586
 30
0.0
 10
232.81147186331
 20
121.9887302041586
 30
0.0
  0
SPLINE
  5
294
330
1F
100
AcDbEntity
  8
0
  6
Continuous
 62
     7
370
    25
100
AcDbSpline
210
0.0
220
0.0
230
1.0
 70
     8
 71
     3
 72
     9
 73
     5
 74
     0
 42
0.00000001
 43
0.00000001
 40
0.0
 40
0.0
 40
0.0
 40
0.0
 40
0.5841917497409234
 40
1.0
 40
1.0
 40
1.0
 40
1.0
 10
246.9175609614087
 20
121.4178640624263
 30
0.0
 10
246.47321254755
 20
121.6089462844928
 30
0.0
 10
245.7125917170507
 20
121.9360344745456
 30
0.0
 10
244.9249771518692
 20
121.9732540129989
 30
0.0
 10
244.5974805176425
 20
121.9887302041586
 30
0.0
  0
ARC
  5
295
330
1F
100
AcDbEntity
  8
0
  6
Continuous
 62
     7
370
    25
100
AcDbCircle
 10
238.7044761905
 20
105.7387302042
 30
0.0
 40
17.7
100
AcDbArc
 50
57.6465635726
 51
62.3534364274
  0
SPLINE
  5
296
330
1F
100
AcDbEntity
  8
0
  6
Continuous
 62
     7
370
    25
100
AcDbSpline
210
0.0
220
0.0
230
1.0
 70
     8
 71
     3
 72
     9
 73
     5
 74
     0
 42
0.00000001
 43
0.00000001
 40
0.0
 40
0.0
 40
0.0
 40
0.0
 40
0.5850553834536193
 40
1.0
 40
1.0
 40
1.0
 40
1.0
 10
249.8308868383902
 20
118.9672216560962
 30
0.0
 10
249.5711119185813
 20
119.35376818166
 30
0.0
 10
249.127094262893
 20
120.0144689229847
 30
0.0
 10
248.4552430708606
 20
120.4926277551104
 30
0.0
 10
248.1764620356066
 20
120.6910371883551
 30
0.0
  0
SPLINE
  5
297
330
1F
100
AcDbEntity
  8
0
  6
Continuous
 62
     7
370
    25
100
AcDbSpline
210
0.0
220
0.0
230
1.0
 70
    24
 71
     3
 72
     9
 73
     5
 74
     0
 42
0.00000001
 43
0.00000001
 40
0.0
 40
0.0
 40
0.0
 40
0.0
 40
0.0446531589470735
 40
1.0
 40
1.0
 40
1.0
 40
1.0
 10
251.3148974160053
 20
116.3968399366973
 30
0.0
 10
251.2921768690184
 20
116.4361930784543
 30
0.0
 10
250.7833540326809
 20
117.3175000830421
 30
0.0
 10
250.2962449560233
 20
118.1611977526411
 30
0.0
 10
249.8308868383902
 20
118.9672216560962
 30
0.0
  0
SPLINE
  5
298
330
1F
100
AcDbEntity
  8
0
  6
Continuous
 62
     7
370
    25
100
AcDbSpline
210
0.0
220
0.0
230
1.0
 70
    24
 71
     3
 72
     9
 73
     5
 74
     0
 42
0.00000001
 43
0.00000001
 40
0.0
 40
0.0
 40
0.0
 40
0.0
 40
0.8995885413627027
 40
1.0
 40
1.0
 40
1.0
 40
1.0
 10
249.8308868383902
 20
92.510238752221
 30
0.0
 10
250.2750402914712
 20
93.2795350993145
 30
0.0
 10
250.7687698496627
 20
94.1346997793005
 30
0.0
 10
251.2845821859187
 20
95.0281129528667
 30
0.0
 10
251.3363756549852
 20
95.11782187279026
 30
0.0
  0
SPLINE
  5
299
330
1F
100
AcDbEntity
  8
0
  6
Continuous
 62
     7
370
    25
100
AcDbSpline
210
0.0
220
0.0
230
1.0
 70
     8
 71
     3
 72
     9
 73
     5
 74
     0
 42
0.00000001
 43
0.00000001
 40
0.0
 40
0.0
 40
0.0
 40
0.0
 40
0.5841917497409237
 40
1.0
 40
1.0
 40
1.0
 40
1.0
 10
248.1764620356065
 20
90.7864232199621
 30
0.0
 10
248.5641183010571
 20
91.07569912346183
 30
0.0
 10
249.2276953981703
 20
91.57087199029539
 30
0.0
 10
249.6537357465787
 20
92.23435644290662
 30
0.0
 10
249.8308868383902
 20
92.510238752221
 30
0.0
  0
ARC
  5
29A
330
1F
100
AcDbEntity
  8
0
  6
Continuous
 62
     7
370
    25
100
AcDbCircle
 10
238.7044761905
 20
105.7387302042
 30
0.0
 40
17.70000000000002
100
AcDbArc
 50
297.6465635726
 51
302.3534364274
  0
SPLINE
  5
29B
330
1F
100
AcDbEntity
  8
0
  6
Continuous
 62
     7
370
    25
100
AcDbSpline
210
0.0
220
0.0
230
1.0
 70
     8
 71
     3
 72
     9
 73
     5
 74
     0
 42
0.00000001
 43
0.00000001
 40
0.0
 40
0.0
 40
0.0
 40
0.0
 40
0.5850553834536171
 40
1.0
 40
1.0
 40
1.0
 40
1.0
 10
244.5974805176425
 20
89.4887302041586
 30
0.0
 10
245.0621270884297
 20
89.52042862119724
 30
0.0
 10
245.8563195425603
 20
89.57460882008978
 30
0.0
 10
246.6063428342413
 20
89.91736960388982
 30
0.0
 10
246.9175609614087
 20
90.05959634589087
 30
0.0
  0
SPLINE
  5
29C
330
1F
100
AcDbEntity
  8
0
  6
Continuous
 62
     7
370
    25
100
AcDbSpline
210
0.0
220
0.0
230
1.0
 70
    24
 71
     3
 72
    11
 73
     7
 74
     0
 42
0.00000001
 43
0.00000001
 40
0.0
 40
0.0
 40
0.0
 40
0.0
 40
0.2328716322111485
 40
0.471026502431326
 40
0.7311421212560308
 40
1.0
 40
1.0
 40
1.0
 40
1.0
 10
232.81147186331
 20
89.4887302041586
 30
0.0
 10
233.7053282936304
 20
89.4887302041586
 30
0.0
 10
235.5133203794497
 20
89.4887302041586
 30
0.0
 10
238.4409931200128
 20
89.48873020415859
 30
0.0
 10
241.5280920304906
 20
89.4887302041586
 30
0.0
 10
243.5631400514768
 20
89.4887302041586
 30
0.0
 10
244.5974805176425
 20
89.4887302041586
 30
0.0
  0
SPLINE
  5
29D
330
1F
100
AcDbEntity
  8
0
  6
Continuous
 62
     7
370
    25
100
AcDbSpline
210
0.0
220
0.0
230
1.0
 70
     8
 71
     3
 72
     9
 73
     5
 74
     0
 42
0.00000001
 43
0.00000001
 40
0.0
 40
0.0
 40
0.0
 40
0.0
 40
0.5841917497409266
 40
1.0
 40
1.0
 40
1.0
 40
1.0
 10
230.4913914195438
 20
90.05959634589087
 30
0.0
 10
230.9357398334025
 20
89.86851412382434
 30
0.0
 10
231.6963606639017
 20
89.54142593377155
 30
0.0
 10
232.4839752290833
 20
89.50420639531829
 30
0.0
 10
232.81147186331
 20
89.4887302041586
 30
0.0
  0
ARC
  5
29E
330
1F
100
AcDbEntity
  8
0
  6
Continuous
 62
     7
370
    25
100
AcDbCircle
 10
238.7044761905
 20
105.7387302042
 30
0.0
 40
17.70000000000001
100
AcDbArc
 50
237.6465635726
 51
242.3534364274
  0
SPLINE
  5
29F
330
1F
100
AcDbEntity
  8
0
  6
Continuous
 62
     7
370
    25
100
AcDbSpline
210
0.0
220
0.0
230
1.0
 70
     8
 71
     3
 72
    12
 73
     8
 74
     0
 42
0.00000001
 43
0.00000001
 40
0.0
 40
0.0
 40
0.0
 40
0.0
 40
0.2645407070669321
 40
0.3998213831319922
 40
0.5350776475046122
 40
0.7654087769394587
 40
1.0
 40
1.0
 40
1.0
 40
1.0
 10
23.6544761904762
 20
142.3721494504276
 30
0.0
 10
25.39885253049963
 20
142.8227780104746
 30
0.0
 10
28.03526704947352
 20
143.5038487468252
 30
0.0
 10
31.65925453877826
 20
143.8955562387623
 30
0.0
 10
35.06603737405182
 20
143.9749730796767
 30
0.0
 10
39.14781788655093
 20
143.5726446551042
 30
0.0
 10
42.20957178332302
 20
142.7747515559258
 30
0.0
 10
43.7544761904762
 20
142.3721494504276
 30
0.0
  0
LINE
  5
2A0
330
1F
100
AcDbEntity
  8
0
  6
Continuous
 62
     7
370
    25
100
AcDbLine
 10
43.7544761905
 20
129.7053109579
 30
0.0
 11
43.7544761905
 21
142.3721494504
 31
0.0
  0
SPLINE
  5
2A1
330
1F
100
AcDbEntity
  8
0
  6
Continuous
 62
     7
370
    25
100
AcDbSpline
210
0.0
220
0.0
230
1.0
 70
     8
 71
     3
 72
    12
 73
     8
 74
     0
 42
0.00000001
 43
0.00000001
 40
0.0
 40
0.0
 40
0.0
 40
0.0
 40
0.264540707066932
 40
0.3998213831319919
 40
0.5350776475046125
 40
0.7654087769394589
 40
1.0
 40
1.0
 40
1.0
 40
1.0
 10
43.75447619047622
 20
129.7053109578895
 30
0.0
 10
42.01009985045279
 20
129.2546823978425
 30
0.0
 10
39.37368533147886
 20
128.573611661492
 30
0.0
 10
35.74969784217417
 20
128.1819041695549
 30
0.0
 10
32.34291500690055
 20
128.1024873286405
 30
0.0
 10
28.26113449440146
 20
128.5048157532129
 30
0.0
 10
25.19938059762937
 20
129.3027088523913
 30
0.0
 10
23.6544761904762
 20
129.7053109578895
 30
0.0
  0
LINE
  5
2A2
330
1F
100
AcDbEntity
  8
0
  6
Continuous
 62
     7
370
    25
100
AcDbLine
 10
23.6544761905
 20
129.7053109579
 30
0.0
 11
23.6544761905
 21
142.3721494504
 31
0.0
  0
SPLINE
  5
2A3
330
1F
100
AcDbEntity
  8
0
  6
Continuous
 62
     7
370
    25
100
AcDbSpline
210
0.0
220
0.0
230
1.0
 70
     8
 71
     3
 72
    12
 73
     8
 74
     0
 42
0.00000001
 43
0.00000001
 40
0.0
 40
0.0
 40
0.0
 40
0.0
 40
0.1820499033062395
 40
0.3656406087374416
 40
0.6149613348991658
 40
0.8710066969717198
 40
1.0
 40
1.0
 40
1.0
 40
1.0
 10
23.6544761904762
 20
129.7053109578895
 30
0.0
 10
23.05621793069298
 20
129.3863470730016
 30
0.0
 10
21.85463797752289
 20
128.7457197124944
 30
0.0
 10
19.78146832981478
 20
128.1357187312195
 30
0.0
 10
17.42929294688389
 20
128.1021648570322
 30
0.0
 10
15.29037061497139
 20
128.7870467954287
 30
0.0
 10
14.0275414935236
 20
129.4748779601142
 30
0.0
 10
13.60447619047622
 20
129.7053109578895
 30
0.0
  0
SPLINE
  5
2A4
330
1F
100
AcDbEntity
  8
0
  6
Continuous
 62
     7
370
    25
100
AcDbSpline
210
0.0
220
0.0
230
1.0
 70
     8
 71
     3
 72
    12
 73
     8
 74
     0
 42
0.00000001
 43
0.00000001
 40
0.0
 40
0.0
 40
0.0
 40
0.0
 40
0.2645407070669317
 40
0.3998213831319915
 40
0.535077647504612
 40
0.7654087769394587
 40
1.0
 40
1.0
 40
1.0
 40
1.0
 10
53.80447619047624
 20
129.7053109578895
 30
0.0
 10
52.93228802046453
 20
129.2546823978425
 30
0.0
 10
51.61408076097756
 20
128.573611661492
 30
0.0
 10
49.80208701632522
 20
128.1819041695549
 30
0.0
 10
48.09869559868842
 20
128.1024873286405
 30
0.0
 10
46.05780534243886
 20
128.5048157532129
 30
0.0
 10
44.52692839405281
 20
129.3027088523913
 30
0.0
 10
43.75447619047622
 20
129.7053109578895
 30
0.0
  0
LINE
  5
2A5
330
1F
100
AcDbEntity
  8
0
  6
Continuous
 62
     7
370
    25
100
AcDbLine
 10
51.0044761905
 20
128.0887302042
 30
0.0
 11
16.4044761905
 21
128.0887302042
 31
0.0
  0
SPLINE
  5
2A6
330
1F
100
AcDbEntity
  8
0
  6
Continuous
 62
     7
370
    25
100
AcDbSpline
210
0.0
220
0.0
230
1.0
 70
     8
 71
     3
 72
    12
 73
     8
 74
     0
 42
0.00000001
 43
0.00000001
 40
0.0
 40
0.0
 40
0.0
 40
0.0
 40
0.2645407070669321
 40
0.3998213831319918
 40
0.5350776475046123
 40
0.7654087769394589
 40
1.0
 40
1.0
 40
1.0
 40
1.0
 10
43.7544761904762
 20
142.3721494504276
 30
0.0
 10
44.62666436048793
 20
142.8227780104746
 30
0.0
 10
45.9448716199749
 20
143.5038487468252
 30
0.0
 10
47.75686536462721
 20
143.8955562387623
 30
0.0
 10
49.46025678226408
 20
143.9749730796766
 30
0.0
 10
51.50114703851358
 20
143.5726446551043
 30
0.0
 10
53.03202398689963
 20
142.7747515559258
 30
0.0
 10
53.80447619047624
 20
142.3721494504276
 30
0.0
  0
SPLINE
  5
2A7
330
1F
100
AcDbEntity
  8
0
  6
Continuous
 62
     7
370
    25
100
AcDbSpline
210
0.0
220
0.0
230
1.0
 70
     8
 71
     3
 72
    12
 73
     8
 74
     0
 42
0.00000001
 43
0.00000001
 40
0.0
 40
0.0
 40
0.0
 40
0.0
 40
0.1289937508738277
 40
0.3786272441489028
 40
0.6343574588057701
 40
0.816265630254775
 40
1.0
 40
1.0
 40
1.0
 40
1.0
 10
13.60447619047622
 20
142.3721494504276
 30
0.0
 10
14.02754831577777
 20
142.6025878890786
 30
0.0
 10
15.26936531694253
 20
143.2789793451092
 30
0.0
 10
17.40703945028269
 20
143.9711148293222
 30
0.0
 10
19.75416051009014
 20
143.9483124540683
 30
0.0
 10
21.8489789951979
 20
143.3340773090118
 30
0.0
 10
23.05064322508279
 20
142.693857926554
 30
0.0
 10
23.65447619047618
 20
142.3721494504277
 30
0.0
  0
LINE
  5
2A8
330
1F
100
AcDbEntity
  8
0
  6
Continuous
 62
     7
370
    25
100
AcDbLine
 10
18.722236705
 20
143.9887302042
 30
0.0
 11
51.0044761905
 21
143.9887302042
 31
0.0
  0
LINE
  5
2A9
330
1F
100
AcDbEntity
  8
0
  6
Continuous
 62
     7
370
    25
100
AcDbLine
 10
16.4044761905
 20
143.9887302042
 30
0.0
 11
18.722236705
 21
143.9887302042
 31
0.0
  0
LINE
  5
2AA
330
1F
100
AcDbEntity
  8
0
  6
Continuous
 62
     7
370
    25
100
AcDbLine
 10
53.8044761905
 20
129.7053109579
 30
0.0
 11
53.8044761905
 21
142.3721494504
 31
0.0
  0
LINE
  5
2AB
330
1F
100
AcDbEntity
  8
0
  6
Continuous
 62
     7
370
    25
100
AcDbLine
 10
13.6044761905
 20
129.7053109579
 30
0.0
 11
13.6044761905
 21
142.3721494504
 31
0.0
  0
SPLINE
  5
2AC
330
1F
100
AcDbEntity
  8
0
  6
Continuous
 62
     7
370
    25
100
AcDbSpline
210
0.0
220
0.0
230
1.0
 70
     8
 71
     3
 72
    12
 73
     8
 74
     0
 42
0.00000001
 43
0.00000001
 40
0.0
 40
0.0
 40
0.0
 40
0.0
 40
0.2645407070669317
 40
0.3998213831319919
 40
0.5350776475046123
 40
0.7654087769394587
 40
1.0
 40
1.0
 40
1.0
 40
1.0
 10
248.7544761904762
 20
142.3721494504276
 30
0.0
 10
249.6266643604879
 20
142.8227780104746
 30
0.0
 10
250.9448716199749
 20
143.5038487468252
 30
0.0
 10
252.7568653646272
 20
143.8955562387623
 30
0.0
 10
254.460256782264
 20
143.9749730796766
 30
0.0
 10
256.5011470385136
 20
143.5726446551042
 30
0.0
 10
258.0320239868996
 20
142.7747515559258
 30
0.0
 10
258.8044761904762
 20
142.3721494504276
 30
0.0
  0
SPLINE
  5
2AD
330
1F
100
AcDbEntity
  8
0
  6
Continuous
 62
     7
370
    25
100
AcDbSpline
210
0.0
220
0.0
230
1.0
 70
     8
 71
     3
 72
    12
 73
     8
 74
     0
 42
0.00000001
 43
0.00000001
 40
0.0
 40
0.0
 40
0.0
 40
0.0
 40
0.1820499033062394
 40
0.3656406087374416
 40
0.6149613348991656
 40
0.8710066969717201
 40
1.0
 40
1.0
 40
1.0
 40
1.0
 10
228.6544761904762
 20
142.3721494504276
 30
0.0
 10
229.8509927100426
 20
142.6911133353155
 30
0.0
 10
232.2541526163828
 20
143.3317406958227
 30
0.0
 10
236.4004919117991
 20
143.9417416770977
 30
0.0
 10
241.1048426776607
 20
143.975295551285
 30
0.0
 10
245.3826873414859
 20
143.2904136128885
 30
0.0
 10
247.9083455843814
 20
142.6025824482029
 30
0.0
 10
248.7544761904762
 20
142.3721494504276
 30
0.0
  0
SPLINE
  5
2AE
330
1F
100
AcDbEntity
  8
0
  6
Continuous
 62
     7
370
    25
100
AcDbSpline
210
0.0
220
0.0
230
1.0
 70
     8
 71
     3
 72
    12
 73
     8
 74
     0
 42
0.00000001
 43
0.00000001
 40
0.0
 40
0.0
 40
0.0
 40
0.0
 40
0.2645407070669318
 40
0.3998213831319917
 40
0.5350776475046123
 40
0.765408776939459
 40
1.0
 40
1.0
 40
1.0
 40
1.0
 10
218.6044761904762
 20
142.3721494504276
 30
0.0
 10
219.4766643604879
 20
142.8227780104746
 30
0.0
 10
220.7948716199749
 20
143.5038487468252
 30
0.0
 10
222.6068653646272
 20
143.8955562387623
 30
0.0
 10
224.310256782264
 20
143.9749730796766
 30
0.0
 10
226.3511470385136
 20
143.5726446551043
 30
0.0
 10
227.8820239868996
 20
142.7747515559258
 30
0.0
 10
228.6544761904762
 20
142.3721494504277
 30
0.0
  0
LINE
  5
2AF
330
1F
100
AcDbEntity
  8
0
  6
Continuous
 62
     7
370
    25
100
AcDbLine
 10
221.4044761905
 20
143.9887302042
 30
0.0
 11
256.0044761905
 21
143.9887302042
 31
0.0
  0
LINE
  5
2B0
330
1F
100
AcDbEntity
  8
0
  6
Continuous
 62
     7
370
    25
100
AcDbLine
 10
248.7544761905
 20
129.7053109579
 30
0.0
 11
248.7544761905
 21
142.3721494504
 31
0.0
  0
SPLINE
  5
2B1
330
1F
100
AcDbEntity
  8
0
  6
Continuous
 62
     7
370
    25
100
AcDbSpline
210
0.0
220
0.0
230
1.0
 70
     8
 71
     3
 72
    12
 73
     8
 74
     0
 42
0.00000001
 43
0.00000001
 40
0.0
 40
0.0
 40
0.0
 40
0.0
 40
0.1289937508738277
 40
0.3786272441489033
 40
0.6343574588057701
 40
0.816265630254775
 40
1.0
 40
1.0
 40
1.0
 40
1.0
 10
248.7544761904762
 20
129.7053109578895
 30
0.0
 10
247.9083319398732
 20
129.4748725192386
 30
0.0
 10
245.4246979375436
 20
128.7984810632079
 30
0.0
 10
241.1493496708632
 20
128.1063455789949
 30
0.0
 10
236.4551075512483
 20
128.1291479542489
 30
0.0
 10
232.2654705810328
 20
128.7433830993053
 30
0.0
 10
229.862142121263
 20
129.3836024817632
 30
0.0
 10
228.6544761904762
 20
129.7053109578895
 30
0.0
  0
LINE
  5
2B2
330
1F
100
AcDbEntity
  8
0
  6
Continuous
 62
     7
370
    25
100
AcDbLine
 10
228.6544761905
 20
129.7053109579
 30
0.0
 11
228.6544761905
 21
142.3721494504
 31
0.0
  0
LINE
  5
2B3
330
1F
100
AcDbEntity
  8
0
  6
Continuous
 62
     7
370
    25
100
AcDbLine
 10
258.8044761905
 20
129.7053109579
 30
0.0
 11
258.8044761905
 21
142.3721494504
 31
0.0
  0
SPLINE
  5
2B4
330
1F
100
AcDbEntity
  8
0
  6
Continuous
 62
     7
370
    25
100
AcDbSpline
210
0.0
220
0.0
230
1.0
 70
     8
 71
     3
 72
    12
 73
     8
 74
     0
 42
0.00000001
 43
0.00000001
 40
0.0
 40
0.0
 40
0.0
 40
0.0
 40
0.2645407070669313
 40
0.3998213831319916
 40
0.535077647504612
 40
0.7654087769394585
 40
1.0
 40
1.0
 40
1.0
 40
1.0
 10
258.8044761904762
 20
129.7053109578895
 30
0.0
 10
257.9322880204645
 20
129.2546823978425
 30
0.0
 10
256.6140807609776
 20
128.573611661492
 30
0.0
 10
254.8020870163252
 20
128.1819041695549
 30
0.0
 10
253.0986955986884
 20
128.1024873286405
 30
0.0
 10
251.0578053424389
 20
128.5048157532129
 30
0.0
 10
249.5269283940528
 20
129.3027088523913
 30
0.0
 10
248.7544761904762
 20
129.7053109578895
 30
0.0
  0
SPLINE
  5
2B5
330
1F
100
AcDbEntity
  8
0
  6
Continuous
 62
     7
370
    25
100
AcDbSpline
210
0.0
220
0.0
230
1.0
 70
     8
 71
     3
 72
    12
 73
     8
 74
     0
 42
0.00000001
 43
0.00000001
 40
0.0
 40
0.0
 40
0.0
 40
0.0
 40
0.2645407070669315
 40
0.3998213831319918
 40
0.5350776475046121
 40
0.7654087769394586
 40
1.0
 40
1.0
 40
1.0
 40
1.0
 10
228.6544761904762
 20
129.7053109578895
 30
0.0
 10
227.7822880204644
 20
129.2546823978425
 30
0.0
 10
226.4640807609775
 20
128.573611661492
 30
0.0
 10
224.6520870163252
 20
128.1819041695549
 30
0.0
 10
222.9486955986884
 20
128.1024873286405
 30
0.0
 10
220.9078053424388
 20
128.5048157532129
 30
0.0
 10
219.3769283940528
 20
129.3027088523913
 30
0.0
 10
218.6044761904762
 20
129.7053109578895
 30
0.0
  0
LINE
  5
2B6
330
1F
100
AcDbEntity
  8
0
  6
Continuous
 62
     7
370
    25
100
AcDbLine
 10
218.6044761905
 20
129.7053109579
 30
0.0
 11
218.6044761905
 21
142.3721494504
 31
0.0
  0
LINE
  5
2B7
330
1F
100
AcDbEntity
  8
0
  6
Continuous
 62
     7
370
    25
100
AcDbLine
 10
238.7044761905
 20
128.0887302042
 30
0.0
 11
221.4044761905
 21
128.0887302042
 31
0.0
  0
LINE
  5
2B8
330
1F
100
AcDbEntity
  8
0
  6
Continuous
 62
     7
370
    25
100
AcDbLine
 10
256.0044761905
 20
128.0887302042
 30
0.0
 11
238.7044761905
 21
128.0887302042
 31
0.0
  0
LINE
  5
2B9
330
1F
100
AcDbEntity
  8
0
  6
Continuous
 62
     7
370
    25
100
AcDbLine
 10
55.6149189062
 20
168.1887302042
 30
0.0
 11
59.0044761905
 21
168.1887302042
 31
0.0
  0
LINE
  5
2BA
330
1F
100
AcDbEntity
  8
0
  6
Continuous
 62
     7
370
    25
100
AcDbLine
 10
8.4044761905
 20
168.1887302042
 30
0.0
 11
55.6149189062
 21
168.1887302042
 31
0.0
  0
LINE
  5
2BB
330
1F
100
AcDbEntity
  8
0
  6
Continuous
 62
     7
370
    25
100
AcDbLine
 10
58.5044761905
 20
164.1887302042
 30
0.0
 11
8.9044761905
 21
164.1887302042
 31
0.0
  0
ELLIPSE
  5
2BC
330
1F
100
AcDbEntity
  8
0
  6
Continuous
 62
     7
370
    25
100
AcDbEllipse
 10
51.2044761905
 20
163.1887302042
 30
0.0
 11
2.000000000000007
 21
0.0
 31
0.0
210
0.0
220
0.0
230
1.0
 40
0.5
 41
1.570796326794904
 42
3.141592653589786
  0
LINE
  5
2BD
330
1F
100
AcDbEntity
  8
0
  6
Continuous
 62
     7
370
    25
100
AcDbLine
 10
49.2044761905
 20
163.1887302042
 30
0.0
 11
34.7044761905
 21
163.1887302042
 31
0.0
  0
ARC
  5
2BE
330
1F
100
AcDbEntity
  8
0
  6
Continuous
 62
     7
370
    25
100
AcDbCircle
 10
33.7044761905
 20
163.1887302042
 30
0.0
 40
1.0
100
AcDbArc
 50
0.0
 51
90.0
  0
SPLINE
  5
2BF
330
1F
100
AcDbEntity
  8
0
  6
Continuous
 62
     7
370
    25
100
AcDbSpline
210
0.0
220
0.0
230
1.0
 70
     8
 71
     3
 72
    11
 73
     7
 74
     0
 42
0.00000001
 43
0.00000001
 40
0.0
 40
0.0
 40
0.0
 40
0.0
 40
0.1755702971684366
 40
0.4954273686126009
 40
0.8115831191424611
 40
1.0
 40
1.0
 40
1.0
 40
1.0
 10
18.0260065232651
 20
149.7369759165594
 30
0.0
 10
18.02964962630012
 20
149.7424107347216
 30
0.0
 10
18.03992979885404
 20
149.7577468006986
 30
0.0
 10
18.14483372233681
 20
149.7665902083883
 30
0.0
 10
18.32863480783654
 20
149.7582756862061
 30
0.0
 10
18.47653493050226
 20
149.7427671097721
 30
0.0
 10
18.53176360930417
 20
149.7369759165594
 30
0.0
  0
SPLINE
  5
2C0
330
1F
100
AcDbEntity
  8
0
  6
Continuous
 62
     7
370
    25
100
AcDbSpline
210
0.0
220
0.0
230
1.0
 70
     8
 71
     3
 72
    11
 73
     7
 74
     0
 42
0.00000001
 43
0.00000001
 40
0.0
 40
0.0
 40
0.0
 40
0.0
 40
0.2500096864632718
 40
0.5005826195738758
 40
0.8820155858875481
 40
1.0
 40
1.0
 40
1.0
 40
1.0
 10
33.19871910443715
 20
149.7369759165594
 30
0.0
 10
31.97560863958891
 20
149.6149757867227
 30
0.0
 10
29.52663216518378
 20
149.3707006730422
 30
0.0
 10
25.20198583804754
 20
149.241802103564
 30
0.0
 10
21.53413416784288
 20
149.4166417689412
 30
0.0
 10
19.10551142544453
 20
149.6757606155006
 30
0.0
 10
18.53176360930417
 20
149.7369759165594
 30
0.0
  0
SPLINE
  5
2C1
330
1F
100
AcDbEntity
  8
0
  6
Continuous
 62
     7
370
    25
100
AcDbSpline
210
0.0
220
0.0
230
1.0
 70
     8
 71
     3
 72
    11
 73
     7
 74
     0
 42
0.00000001
 43
0.00000001
 40
0.0
 40
0.0
 40
0.0
 40
0.0
 40
0.1755702971684318
 40
0.4954273686125968
 40
0.8115831191424628
 40
1.0
 40
1.0
 40
1.0
 40
1.0
 10
33.19871910443715
 20
149.7369759165594
 30
0.0
 10
33.25392561203454
 20
149.7424107347216
 30
0.0
 10
33.40970831121761
 20
149.7577468006986
 30
0.0
 10
33.69823443389795
 20
149.7665902083883
 30
0.0
 10
33.9918032485139
 20
149.7582756862061
 30
0.0
 10
34.15084434806191
 20
149.7427671097721
 30
0.0
 10
34.21023327651528
 20
149.7369759165594
 30
0.0
  0
SPLINE
  5
2C2
330
1F
100
AcDbEntity
  8
0
  6
Continuous
 62
     7
370
    25
100
AcDbSpline
210
0.0
220
0.0
230
1.0
 70
     8
 71
     3
 72
    11
 73
     7
 74
     0
 42
0.00000001
 43
0.00000001
 40
0.0
 40
0.0
 40
0.0
 40
0.0
 40
0.249731969843338
 40
0.5000251141114274
 40
0.8819169336526687
 40
0.9999999999999999
 40
0.9999999999999999
 40
0.9999999999999999
 40
0.9999999999999999
 10
48.87718877164828
 20
149.7369759165594
 30
0.0
 10
47.6618593685043
 20
149.6150947826829
 30
0.0
 10
45.22846958716692
 20
149.371058634997
 30
0.0
 10
40.91336700106381
 20
149.2417037539337
 30
0.0
 10
37.23205349367296
 20
149.4163161429096
 30
0.0
 10
34.78756715904435
 20
149.6757122612827
 30
0.0
 10
34.21023327651528
 20
149.7369759165594
 30
0.0
  0
SPLINE
  5
2C3
330
1F
100
AcDbEntity
  8
0
  6
Continuous
 62
     7
370
    25
100
AcDbSpline
210
0.0
220
0.0
230
1.0
 70
     8
 71
     3
 72
    11
 73
     7
 74
     0
 42
0.00000001
 43
0.00000001
 40
0.0
 40
0.0
 40
0.0
 40
0.0
 40
0.1755702971684243
 40
0.4954273686125979
 40
0.8115831191424584
 40
1.0
 40
1.0
 40
1.0
 40
1.0
 10
48.87718877164828
 20
149.7369759165594
 30
0.0
 10
48.92875217621062
 20
149.7424107347216
 30
0.0
 10
49.07425470283978
 20
149.7577468006986
 30
0.0
 10
49.25787690203745
 20
149.7665902083882
 30
0.0
 10
49.36764463115363
 20
149.7582756862061
 30
0.0
 10
49.37878560803588
 20
149.7427671097722
 30
0.0
 10
49.38294585768735
 20
149.7369759165594
 30
0.0
  0
ARC
  5
2C4
330
1F
100
AcDbEntity
  8
0
  6
Continuous
 62
     7
370
    25
100
AcDbCircle
 10
48.2688938226
 20
150.4845913528
 30
0.0
 40
0.9638213452588191
100
AcDbArc
 50
309.1334172848
 51
13.9036859786
  0
ARC
  5
2C5
330
1F
100
AcDbEntity
  8
0
  6
Continuous
 62
     7
370
    25
100
AcDbCircle
 10
33.5623751611
 20
150.6783097674
 30
0.0
 40
1.142728995198407
100
AcDbArc
 50
304.5370768714
 51
1.8995638284
  0
SPLINE
  5
2C6
330
1F
100
AcDbEntity
  8
0
  6
Continuous
 62
     7
370
    25
100
AcDbSpline
210
0.0
220
0.0
230
1.0
 70
     8
 71
     3
 72
    11
 73
     7
 74
     0
 42
0.00000001
 43
0.00000001
 40
0.0
 40
0.0
 40
0.0
 40
0.0
 40
0.2497158009040374
 40
0.4999999743302384
 40
0.749675280804354
 40
1.0
 40
1.0
 40
1.0
 40
1.0
 10
34.70447619049322
 20
150.7161884566974
 30
0.0
 10
35.90908125488837
 20
150.5943283055315
 30
0.0
 10
38.32103315819268
 20
150.3503306400484
 30
0.0
 10
41.95152805794243
 20
150.2416111041409
 30
0.0
 10
45.58496903478994
 20
150.3501335296583
 30
0.0
 10
47.99692956673224
 20
150.594064539757
 30
0.0
 10
49.20447619047624
 20
150.7161884566993
 30
0.0
  0
LINE
  5
2C7
330
1F
100
AcDbEntity
  8
0
  6
Continuous
 62
     7
370
    25
100
AcDbLine
 10
49.2044761905
 20
150.7161884567
 30
0.0
 11
49.2044761905
 21
163.1887302042
 31
0.0
  0
LINE
  5
2C8
330
1F
100
AcDbEntity
  8
0
  6
Continuous
 62
     7
370
    25
100
AcDbLine
 10
34.7044761905
 20
163.1887302042
 30
0.0
 11
34.7044761905
 21
150.7161884567
 31
0.0
  0
LINE
  5
2C9
330
1F
100
AcDbEntity
  8
0
  6
Continuous
 62
     7
370
    25
100
AcDbLine
 10
34.7044761905
 20
163.1887302042
 30
0.0
 11
32.7044761905
 21
163.1887302042
 31
0.0
  0
ARC
  5
2CA
330
1F
100
AcDbEntity
  8
0
  6
Continuous
 62
     7
370
    25
100
AcDbCircle
 10
33.7044761905
 20
163.1887302042
 30
0.0
 40
1.0
100
AcDbArc
 50
90.0
 51
180.0
  0
LINE
  5
2CB
330
1F
100
AcDbEntity
  8
0
  6
Continuous
 62
     7
370
    25
100
AcDbLine
 10
32.7044761905
 20
163.1887302042
 30
0.0
 11
18.2044761905
 21
163.1887302042
 31
0.0
  0
ELLIPSE
  5
2CC
330
1F
100
AcDbEntity
  8
0
  6
Continuous
 62
     7
370
    25
100
AcDbEllipse
 10
16.2044761905
 20
163.1887302042
 30
0.0
 11
2.0
 21
0.0
 31
0.0
210
0.0
220
0.0
230
1.0
 40
0.5
 41
0.0
 42
1.570796326794897
  0
ARC
  5
2CD
330
1F
100
AcDbEntity
  8
0
  6
Continuous
 62
     7
370
    25
100
AcDbCircle
 10
33.84657722
 20
150.6783097675
 30
0.0
 40
1.142728995306175
100
AcDbArc
 50
178.1004361745
 51
235.4629231257
  0
SPLINE
  5
2CE
330
1F
100
AcDbEntity
  8
0
  6
Continuous
 62
     7
370
    25
100
AcDbSpline
210
0.0
220
0.0
230
1.0
 70
     8
 71
     3
 72
    11
 73
     7
 74
     0
 42
0.00000001
 43
0.00000001
 40
0.0
 40
0.0
 40
0.0
 40
0.0
 40
0.1883467346482276
 40
0.504574210593379
 40
0.8244987390890842
 40
1.0
 40
1.0
 40
1.0
 40
1.0
 10
34.70447619049322
 20
150.7161884566974
 30
0.0
 10
34.58704891401211
 20
150.7219799018953
 30
0.0
 10
34.27246541224213
 20
150.737494977824
 30
0.0
 10
33.69213931552159
 20
150.745799133923
 30
0.0
 10
33.12177229303952
 20
150.7369662563692
 30
0.0
 10
32.81363260640855
 20
150.7216235185862
 30
0.0
 10
32.70447619045934
 20
150.7161884566974
 30
0.0
  0
LINE
  5
2CF
330
1F
100
AcDbEntity
  8
0
  6
Continuous
 62
     7
370
    25
100
AcDbLine
 10
32.7044761905
 20
150.7161884567
 30
0.0
 11
32.7044761905
 21
163.1887302042
 31
0.0
  0
ARC
  5
2D0
330
1F
100
AcDbEntity
  8
0
  6
Continuous
 62
     7
370
    25
100
AcDbCircle
 10
19.1400585584
 20
150.4845913528
 30
0.0
 40
0.9638213452761505
100
AcDbArc
 50
166.0963140214
 51
230.8665827135
  0
SPLINE
  5
2D1
330
1F
100
AcDbEntity
  8
0
  6
Continuous
 62
     7
370
    25
100
AcDbSpline
210
0.0
220
0.0
230
1.0
 70
     8
 71
     3
 72
    11
 73
     7
 74
     0
 42
0.00000001
 43
0.00000001
 40
0.0
 40
0.0
 40
0.0
 40
0.0
 40
0.2494385017247712
 40
0.4994432776068951
 40
0.7493957302433192
 40
1.0
 40
1.0
 40
1.0
 40
1.0
 10
18.20447619049324
 20
150.7161884566974
 30
0.0
 10
19.40774181202834
 20
150.5944472418949
 30
0.0
 10
21.8170047032651
 20
150.3506884359354
 30
0.0
 10
25.4461294482996
 20
150.2416120387313
 30
0.0
 10
29.08092963379953
 20
150.349775270963
 30
0.0
 10
31.49557923194957
 20
150.5939447435655
 30
0.0
 10
32.70447619045934
 20
150.7161884566974
 30
0.0
  0
LINE
  5
2D2
330
1F
100
AcDbEntity
  8
0
  6
Continuous
 62
     7
370
    25
100
AcDbLine
 10
18.2044761905
 20
163.1887302042
 30
0.0
 11
18.2044761905
 21
150.7161884567
 31
0.0
  0
SPLINE
  5
2D3
330
1F
100
AcDbEntity
  8
0
  6
Continuous
 62
     7
370
    25
100
AcDbSpline
210
0.0
220
0.0
230
1.0
 70
     8
 71
     3
 72
    33
 73
    29
 74
     0
 42
0.00000001
 43
0.00000001
 40
0.0
 40
0.0
 40
0.0
 40
0.0
 40
0.0470638799617533
 40
0.0879698603209225
 40
0.1295867174966755
 40
0.1704926978558453
 40
0.2084682365598118
 40
0.2471450551439165
 40
0.2853792782517541
 40
0.2939890998547927
 40
0.3348950802139622
 40
0.3765119373897152
 40
0.4174179177488848
 40
0.4583238981080542
 40
0.499940755283807
 40
0.5408467356429767
 40
0.5817527160021458
 40
0.6233695731778989
 40
0.6642755535370687
 40
0.705181533896238
 40
0.746798391071991
 40
0.7877043714311605
 40
0.8286103517903299
 40
0.870227208966083
 40
0.9111331893252527
 40
0.9520391696844219
 40
0.9936560268601748
 40
1.0
 40
1.0
 40
1.0
 40
1.0
 10
23.80642796446897
 20
149.3644565878535
 30
0.0
 10
23.8565843029547
 20
148.7417156360424
 30
0.0
 10
23.9503344590061
 20
147.5777139729525
 30
0.0
 10
25.0401087522726
 20
148.0760577275409
 30
0.0
 10
26.62111188544047
 20
148.0291210314201
 30
0.0
 10
28.64980215936812
 20
148.1180705964636
 30
0.0
 10
30.93566741066491
 20
148.1688079739345
 30
0.0
 10
33.33432154755382
 20
148.2311281424635
 30
0.0
 10
35.13859114794329
 20
148.2745178957306
 30
0.0
 10
36.9256407576222
 20
148.3167388258095
 30
0.0
 10
38.71234940801836
 20
148.3624550201876
 30
0.0
 10
40.78570782498883
 20
148.4276445588509
 30
0.0
 10
42.3755284085974
 20
148.4887435314421
 30
0.0
 10
43.37755934839598
 20
148.5497621046603
 30
0.0
 10
43.71889504029114
 20
148.6151956358533
 30
0.0
 10
43.37570372799182
 20
148.6762299521354
 30
0.0
 10
42.37736802890256
 20
148.7372658168555
 30
0.0
 10
40.78551843707333
 20
148.8026946489164
 30
0.0
 10
38.71066872322442
 20
148.8637302294206
 30
0.0
 10
36.29671075035407
 20
148.9247656850143
 30
0.0
 10
33.7041118544231
 20
148.990194896148
 30
0.0
 10
31.11327894144714
 20
149.0512293889127
 30
0.0
 10
28.69678231722442
 20
149.1122688290272
 30
0.0
 10
26.62584824367224
 20
149.1776830261586
 30
0.0
 10
25.02305756611248
 20
149.2387728210285
 30
0.0
 10
24.07061527106531
 20
149.2996054610001
 30
0.0
 10
23.68991500989692
 20
149.3472645332993
 30
0.0
 10
23.83730586499491
 20
149.3711837769443
 30
0.0
 10
23.85680184994018
 20
149.3743476721107
 30
0.0
  0
LINE
  5
2D4
330
1F
100
AcDbEntity
  8
0
  6
Continuous
 62
     7
370
    25
100
AcDbLine
 10
50.2044761905
 20
163.1887302042
 30
0.0
 11
49.2044761905
 21
163.1887302042
 31
0.0
  0
ARC
  5
2D5
330
1F
100
AcDbEntity
  8
0
  6
Continuous
 62
     7
370
    25
100
AcDbCircle
 10
51.2044761905
 20
163.1887302042
 30
0.0
 40
1.000000000000014
100
AcDbArc
 50
90.0
 51
180.0
  0
LINE
  5
2D6
330
1F
100
AcDbEntity
  8
0
  6
Continuous
 62
     7
370
    25
100
AcDbLine
 10
18.2044761905
 20
163.1887302042
 30
0.0
 11
17.2044761905
 21
163.1887302042
 31
0.0
  0
ARC
  5
2D7
330
1F
100
AcDbEntity
  8
0
  6
Continuous
 62
     7
370
    25
100
AcDbCircle
 10
16.2044761905
 20
163.1887302042
 30
0.0
 40
1.0
100
AcDbArc
 50
0.0
 51
90.0
  0
LINE
  5
2D8
330
1F
100
AcDbEntity
  8
0
  6
Continuous
 62
     7
370
    25
100
AcDbLine
 10
50.2044761905
 20
163.1887302042
 30
0.0
 11
50.2044761905
 21
150.7161884567
 31
0.0
  0
SPLINE
  5
2D9
330
1F
100
AcDbEntity
  8
0
  6
Continuous
 62
     7
370
    25
100
AcDbSpline
210
0.0
220
0.0
230
1.0
 70
     8
 71
     3
 72
    11
 73
     7
 74
     0
 42
0.00000001
 43
0.00000001
 40
0.0
 40
0.0
 40
0.0
 40
0.0
 40
0.1883467346499919
 40
0.5045742105980914
 40
0.8244987390967838
 40
1.0
 40
1.0
 40
1.0
 40
1.0
 10
50.20447619047623
 20
150.7161884566974
 30
0.0
 10
50.19680300079107
 20
150.7219799018953
 30
0.0
 10
50.17624679823543
 20
150.737494977824
 30
0.0
 10
49.95997505800393
 20
150.7457991339232
 30
0.0
 10
49.59621973318102
 20
150.7369662563687
 30
0.0
 10
49.30694856159933
 20
150.7216235185873
 30
0.0
 10
49.20447619047624
 20
150.7161884566993
 30
0.0
  0
ARC
  5
2DA
330
1F
100
AcDbEntity
  8
0
  6
Continuous
 62
     7
370
    25
100
AcDbCircle
 10
49.207934785
 20
150.71803111
 30
0.0
 40
0.9965431090430736
100
AcDbArc
 50
280.1146335193
 51
359.8940574493
  0
SPLINE
  5
2DB
330
1F
100
AcDbEntity
  8
0
  6
Continuous
 62
     7
370
    25
100
AcDbSpline
210
0.0
220
0.0
230
1.0
 70
     8
 71
     3
 72
    11
 73
     7
 74
     0
 42
0.00000001
 43
0.00000001
 40
0.0
 40
0.0
 40
0.0
 40
0.0
 40
0.1883467346500103
 40
0.504574210598104
 40
0.8244987390967876
 40
1.0
 40
1.0
 40
1.0
 40
1.0
 10
18.20447619049324
 20
150.7161884566974
 30
0.0
 10
18.09472210369726
 20
150.7219799018953
 30
0.0
 10
17.80069480448297
 20
150.737494977824
 30
0.0
 10
17.43664044799381
 20
150.7457991339232
 30
0.0
 10
17.23002875034151
 20
150.7369662563687
 30
0.0
 10
17.21116023529691
 20
150.7216235185873
 30
0.0
 10
17.20447619047623
 20
150.7161884566993
 30
0.0
  0
LINE
  5
2DC
330
1F
100
AcDbEntity
  8
0
  6
Continuous
 62
     7
370
    25
100
AcDbLine
 10
17.2044761905
 20
150.7161884567
 30
0.0
 11
17.2044761905
 21
163.1887302042
 31
0.0
  0
ARC
  5
2DD
330
1F
100
AcDbEntity
  8
0
  6
Continuous
 62
     7
370
    25
100
AcDbCircle
 10
18.2010175959
 20
150.71803111
 30
0.0
 40
0.9965431090463045
100
AcDbArc
 50
180.1059425507
 51
259.8853664806
  0
SPLINE
  5
2DE
330
1F
100
AcDbEntity
  8
0
  6
Continuous
 62
     7
370
    25
100
AcDbSpline
210
0.0
220
0.0
230
1.0
 70
    24
 71
     3
 72
     9
 73
     5
 74
     0
 42
0.00000001
 43
0.00000001
 40
0.0
 40
0.0
 40
0.0
 40
0.0
 40
0.4994316274486572
 40
1.0
 40
1.0
 40
1.0
 40
1.0
 10
50.20447619047623
 20
150.7161884566974
 30
0.0
 10
50.20447619047623
 20
150.5913141628255
 30
0.0
 10
50.20447619047621
 20
150.3412813515081
 30
0.0
 10
50.20447619047624
 20
150.2989872088555
 30
0.0
 10
50.20447619047624
 20
150.2778160986994
 30
0.0
  0
SPLINE
  5
2DF
330
1F
100
AcDbEntity
  8
0
  6
Continuous
 62
     7
370
    25
100
AcDbSpline
210
0.0
220
0.0
230
1.0
 70
    24
 71
     3
 72
     9
 73
     5
 74
     0
 42
0.00000001
 43
0.00000001
 40
0.0
 40
0.0
 40
0.0
 40
0.0
 40
0.4993505873118099
 40
1.0
 40
1.0
 40
1.0
 40
1.0
 10
17.20447619047623
 20
150.2778160986994
 30
0.0
 10
17.20447619047623
 20
150.2988847635039
 30
0.0
 10
17.20447619047627
 20
150.3410768933218
 30
0.0
 10
17.20447619047623
 20
150.5910430481117
 30
0.0
 10
17.20447619047623
 20
150.7161884566993
 30
0.0
  0
LINE
  5
2E0
330
1F
100
AcDbEntity
  8
0
  6
Continuous
 62
     7
370
    25
100
AcDbLine
 10
263.5044761905
 20
164.1887302042
 30
0.0
 11
213.9044761905
 21
164.1887302042
 31
0.0
  0
LINE
  5
2E1
330
1F
100
AcDbEntity
  8
0
  6
Continuous
 62
     7
370
    25
100
AcDbLine
 10
216.7940334747
 20
168.1887302042
 30
0.0
 11
264.0044761905
 21
168.1887302042
 31
0.0
  0
LINE
  5
2E2
330
1F
100
AcDbEntity
  8
0
  6
Continuous
 62
     7
370
    25
100
AcDbLine
 10
213.4044761905
 20
168.1887302042
 30
0.0
 11
216.7940334747
 21
168.1887302042
 31
0.0
  0
ARC
  5
2E3
330
1F
100
AcDbEntity
  8
0
  6
Continuous
 62
     7
370
    25
100
AcDbCircle
 10
238.7044761905
 20
163.1887302042
 30
0.0
 40
1.0
100
AcDbArc
 50
90.0
 51
180.0
  0
LINE
  5
2E4
330
1F
100
AcDbEntity
  8
0
  6
Continuous
 62
     7
370
    25
100
AcDbLine
 10
237.7044761905
 20
163.1887302042
 30
0.0
 11
223.2044761905
 21
163.1887302042
 31
0.0
  0
ELLIPSE
  5
2E5
330
1F
100
AcDbEntity
  8
0
  6
Continuous
 62
     7
370
    25
100
AcDbEllipse
 10
221.2044761905
 20
163.1887302042
 30
0.0
 11
-2.0
 21
0.0
 31
3.552713678800501E-15
210
1.776356839400250E-15
220
0.0
230
1.0
 40
0.5
 41
3.14159265358979
 42
4.712388980384697
  0
SPLINE
  5
2E6
330
1F
100
AcDbEntity
  8
0
  6
Continuous
 62
     7
370
    25
100
AcDbSpline
210
0.0
220
0.0
230
1.0
 70
     8
 71
     3
 72
    11
 73
     7
 74
     0
 42
0.00000001
 43
0.00000001
 40
0.0
 40
0.0
 40
0.0
 40
0.0
 40
0.1755702971684278
 40
0.4954273686125967
 40
0.8115831191424636
 40
1.0
 40
1.0
 40
1.0
 40
1.0
 10
223.026006523265
 20
149.7369759165594
 30
0.0
 10
223.0296496263001
 20
149.7424107347216
 30
0.0
 10
223.039929798854
 20
149.7577468006986
 30
0.0
 10
223.1448337223367
 20
149.7665902083883
 30
0.0
 10
223.3286348078364
 20
149.7582756862061
 30
0.0
 10
223.4765349305022
 20
149.7427671097721
 30
0.0
 10
223.5317636093041
 20
149.7369759165594
 30
0.0
  0
SPLINE
  5
2E7
330
1F
100
AcDbEntity
  8
0
  6
Continuous
 62
     7
370
    25
100
AcDbSpline
210
0.0
220
0.0
230
1.0
 70
     8
 71
     3
 72
    11
 73
     7
 74
     0
 42
0.00000001
 43
0.00000001
 40
0.0
 40
0.0
 40
0.0
 40
0.0
 40
0.2497319698433375
 40
0.5000251141114276
 40
0.8819169336526688
 40
1.0
 40
1.0
 40
1.0
 40
1.0
 10
238.1987191044371
 20
149.7369759165594
 30
0.0
 10
236.9769692530743
 20
149.6150947826829
 30
0.0
 10
234.5307241478659
 20
149.371058634997
 30
0.0
 10
230.2065672538895
 20
149.2417037539337
 30
0.0
 10
226.5373253204208
 20
149.4163161429096
 30
0.0
 10
224.1059912228489
 20
149.6757122612827
 30
0.0
 10
223.5317636093042
 20
149.7369759165594
 30
0.0
  0
SPLINE
  5
2E8
330
1F
100
AcDbEntity
  8
0
  6
Continuous
 62
     7
370
    25
100
AcDbSpline
210
0.0
220
0.0
230
1.0
 70
     8
 71
     3
 72
    11
 73
     7
 74
     0
 42
0.00000001
 43
0.00000001
 40
0.0
 40
0.0
 40
0.0
 40
0.0
 40
0.1755702971684312
 40
0.4954273686125967
 40
0.8115831191424633
 40
1.0
 40
1.0
 40
1.0
 40
1.0
 10
238.1987191044371
 20
149.7369759165594
 30
0.0
 10
238.2539256120345
 20
149.7424107347216
 30
0.0
 10
238.4097083112175
 20
149.7577468006986
 30
0.0
 10
238.6982344338979
 20
149.7665902083883
 30
0.0
 10
238.9918032485139
 20
149.7582756862061
 30
0.0
 10
239.1508443480619
 20
149.7427671097721
 30
0.0
 10
239.2102332765153
 20
149.7369759165594
 30
0.0
  0
SPLINE
  5
2E9
330
1F
100
AcDbEntity
  8
0
  6
Continuous
 62
     7
370
    25
100
AcDbSpline
210
0.0
220
0.0
230
1.0
 70
     8
 71
     3
 72
    11
 73
     7
 74
     0
 42
0.00000001
 43
0.00000001
 40
0.0
 40
0.0
 40
0.0
 40
0.0
 40
0.2494542507989792
 40
0.4994676090797703
 40
0.8818193942259381
 40
1.0
 40
1.0
 40
1.0
 40
1.0
 10
253.8771887716482
 20
149.7369759165594
 30
0.0
 10
252.6632130408222
 20
149.6152138184153
 30
0.0
 10
250.2325406677739
 20
149.3714167139692
 30
0.0
 10
245.9179493885601
 20
149.2416055728463
 30
0.0
 10
242.2352564124052
 20
149.4159909561174
 30
0.0
 10
239.7880441009041
 20
149.6756644566869
 30
0.0
 10
239.2102332765153
 20
149.7369759165594
 30
0.0
  0
SPLINE
  5
2EA
330
1F
100
AcDbEntity
  8
0
  6
Continuous
 62
     7
370
    25
100
AcDbSpline
210
0.0
220
0.0
230
1.0
 70
     8
 71
     3
 72
    11
 73
     7
 74
     0
 42
0.00000001
 43
0.00000001
 40
0.0
 40
0.0
 40
0.0
 40
0.0
 40
0.1755702971684328
 40
0.4954273686125973
 40
0.8115831191424563
 40
1.0
 40
1.0
 40
1.0
 40
1.0
 10
253.8771887716482
 20
149.7369759165594
 30
0.0
 10
253.9287521762106
 20
149.7424107347216
 30
0.0
 10
254.0742547028397
 20
149.7577468006986
 30
0.0
 10
254.2578769020374
 20
149.7665902083883
 30
0.0
 10
254.3676446311536
 20
149.7582756862061
 30
0.0
 10
254.3787856080358
 20
149.7427671097721
 30
0.0
 10
254.3829458576873
 20
149.7369759165594
 30
0.0
  0
ARC
  5
2EB
330
1F
100
AcDbEntity
  8
0
  6
Continuous
 62
     7
370
    25
100
AcDbCircle
 10
238.84657722
 20
150.6783097675
 30
0.0
 40
1.142728995301488
100
AcDbArc
 50
178.1004361743
 51
235.4629231257
  0
ARC
  5
2EC
330
1F
100
AcDbEntity
  8
0
  6
Continuous
 62
     7
370
    25
100
AcDbCircle
 10
224.1400585584
 20
150.4845913528
 30
0.0
 40
0.9638213452761096
100
AcDbArc
 50
166.0963140214
 51
230.8665827135
  0
SPLINE
  5
2ED
330
1F
100
AcDbEntity
  8
0
  6
Continuous
 62
     7
370
    25
100
AcDbSpline
210
0.0
220
0.0
230
1.0
 70
     8
 71
     3
 72
    11
 73
     7
 74
     0
 42
0.00000001
 43
0.00000001
 40
0.0
 40
0.0
 40
0.0
 40
0.0
 40
0.2497158009043106
 40
0.4999999743307856
 40
0.7496752808046292
 40
1.0
 40
1.0
 40
1.0
 40
1.0
 10
223.2044761904932
 20
150.7161884566974
 30
0.0
 10
224.4090812548883
 20
150.5943283055315
 30
0.0
 10
226.8210331581926
 20
150.3503306400484
 30
0.0
 10
230.4515280579398
 20
150.241611104141
 30
0.0
 10
234.084969034782
 20
150.350133529658
 30
0.0
 10
236.496929566719
 20
150.5940645397556
 30
0.0
 10
237.7044761904604
 20
150.7161884566975
 30
0.0
  0
LINE
  5
2EE
330
1F
100
AcDbEntity
  8
0
  6
Continuous
 62
     7
370
    25
100
AcDbLine
 10
237.7044761905
 20
150.7161884567
 30
0.0
 11
237.7044761905
 21
163.1887302042
 31
0.0
  0
LINE
  5
2EF
330
1F
100
AcDbEntity
  8
0
  6
Continuous
 62
     7
370
    25
100
AcDbLine
 10
223.2044761905
 20
163.1887302042
 30
0.0
 11
223.2044761905
 21
150.7161884567
 31
0.0
  0
ELLIPSE
  5
2F0
330
1F
100
AcDbEntity
  8
0
  6
Continuous
 62
     7
370
    25
100
AcDbEllipse
 10
256.2044761905
 20
163.1887302042
 30
0.0
 11
2.0
 21
0.0
 31
0.0
210
0.0
220
0.0
230
1.0
 40
0.5
 41
1.570796326794897
 42
3.141592653589793
  0
LINE
  5
2F1
330
1F
100
AcDbEntity
  8
0
  6
Continuous
 62
     7
370
    25
100
AcDbLine
 10
254.2044761905
 20
163.1887302042
 30
0.0
 11
239.7044761905
 21
163.1887302042
 31
0.0
  0
ARC
  5
2F2
330
1F
100
AcDbEntity
  8
0
  6
Continuous
 62
     7
370
    25
100
AcDbCircle
 10
238.7044761905
 20
163.1887302042
 30
0.0
 40
1.0
100
AcDbArc
 50
0.0
 51
90.0
  0
LINE
  5
2F3
330
1F
100
AcDbEntity
  8
0
  6
Continuous
 62
     7
370
    25
100
AcDbLine
 10
239.7044761905
 20
163.1887302042
 30
0.0
 11
237.7044761905
 21
163.1887302042
 31
0.0
  0
LINE
  5
2F4
330
1F
100
AcDbEntity
  8
0
  6
Continuous
 62
     7
370
    25
100
AcDbLine
 10
239.7044761905
 20
163.1887302042
 30
0.0
 11
239.7044761905
 21
150.7161884567
 31
0.0
  0
SPLINE
  5
2F5
330
1F
100
AcDbEntity
  8
0
  6
Continuous
 62
     7
370
    25
100
AcDbSpline
210
0.0
220
0.0
230
1.0
 70
     8
 71
     3
 72
    11
 73
     7
 74
     0
 42
0.00000001
 43
0.00000001
 40
0.0
 40
0.0
 40
0.0
 40
0.0
 40
0.1883467346483229
 40
0.5045742105936664
 40
0.8244987390895728
 40
1.0
 40
1.0
 40
1.0
 40
1.0
 10
239.7044761904931
 20
150.7161884566974
 30
0.0
 10
239.5870489140121
 20
150.7219799018953
 30
0.0
 10
239.2724654122421
 20
150.737494977824
 30
0.0
 10
238.6921393155215
 20
150.7457991339231
 30
0.0
 10
238.12177229304
 20
150.7369662563691
 30
0.0
 10
237.8136326064092
 20
150.7216235185862
 30
0.0
 10
237.7044761904604
 20
150.7161884566975
 30
0.0
  0
ARC
  5
2F6
330
1F
100
AcDbEntity
  8
0
  6
Continuous
 62
     7
370
    25
100
AcDbCircle
 10
238.5623751611
 20
150.6783097674
 30
0.0
 40
1.142728995198575
100
AcDbArc
 50
304.5370768714
 51
1.8995638284
  0
ARC
  5
2F7
330
1F
100
AcDbEntity
  8
0
  6
Continuous
 62
     7
370
    25
100
AcDbCircle
 10
253.2688938226
 20
150.4845913528
 30
0.0
 40
0.9638213452588638
100
AcDbArc
 50
309.1334172848
 51
13.9036859786
  0
SPLINE
  5
2F8
330
1F
100
AcDbEntity
  8
0
  6
Continuous
 62
     7
370
    25
100
AcDbSpline
210
0.0
220
0.0
230
1.0
 70
     8
 71
     3
 72
    11
 73
     7
 74
     0
 42
0.00000001
 43
0.00000001
 40
0.0
 40
0.0
 40
0.0
 40
0.0
 40
0.2499930973934124
 40
0.5005566710537426
 40
0.7499548284117815
 40
1.0
 40
1.0
 40
1.0
 40
1.0
 10
239.7044761904931
 20
150.7161884566974
 30
0.0
 10
240.9104206885366
 20
150.5942094075055
 30
0.0
 10
243.3250616114669
 20
150.349972956826
 30
0.0
 10
246.9569266403752
 20
150.2416106926649
 30
0.0
 10
250.5890084098621
 20
150.3504919004586
 30
0.0
 10
252.9982798833539
 20
150.5941843724615
 30
0.0
 10
254.2044761904762
 20
150.7161884566993
 30
0.0
  0
LINE
  5
2F9
330
1F
100
AcDbEntity
  8
0
  6
Continuous
 62
     7
370
    25
100
AcDbLine
 10
254.2044761905
 20
150.7161884567
 30
0.0
 11
254.2044761905
 21
163.1887302042
 31
0.0
  0
LINE
  5
2FA
330
1F
100
AcDbEntity
  8
0
  6
Continuous
 62
     7
370
    25
100
AcDbLine
 10
223.2044761905
 20
163.1887302042
 30
0.0
 11
222.2044761905
 21
163.1887302042
 31
0.0
  0
ARC
  5
2FB
330
1F
100
AcDbEntity
  8
0
  6
Continuous
 62
     7
370
    25
100
AcDbCircle
 10
221.2044761905
 20
163.1887302042
 30
0.0
 40
1.0
100
AcDbArc
 50
0.0
 51
90.0
  0
LINE
  5
2FC
330
1F
100
AcDbEntity
  8
0
  6
Continuous
 62
     7
370
    25
100
AcDbLine
 10
255.2044761905
 20
163.1887302042
 30
0.0
 11
254.2044761905
 21
163.1887302042
 31
0.0
  0
ARC
  5
2FD
330
1F
100
AcDbEntity
  8
0
  6
Continuous
 62
     7
370
    25
100
AcDbCircle
 10
256.2044761905
 20
163.1887302042
 30
0.0
 40
1.0
100
AcDbArc
 50
90.0
 51
180.0
  0
ARC
  5
2FE
330
1F
100
AcDbEntity
  8
0
  6
Continuous
 62
     7
370
    25
100
AcDbCircle
 10
223.2010175959
 20
150.71803111
 30
0.0
 40
0.9965431090461963
100
AcDbArc
 50
180.1059425507
 51
259.8853664806
  0
SPLINE
  5
2FF
330
1F
100
AcDbEntity
  8
0
  6
Continuous
 62
     7
370
    25
100
AcDbSpline
210
0.0
220
0.0
230
1.0
 70
     8
 71
     3
 72
    11
 73
     7
 74
     0
 42
0.00000001
 43
0.00000001
 40
0.0
 40
0.0
 40
0.0
 40
0.0
 40
0.188346734649992
 40
0.5045742105980936
 40
0.8244987390967862
 40
1.0
 40
1.0
 40
1.0
 40
1.0
 10
223.2044761904932
 20
150.7161884566974
 30
0.0
 10
223.0947221036973
 20
150.7219799018953
 30
0.0
 10
222.800694804483
 20
150.737494977824
 30
0.0
 10
222.4366404479938
 20
150.7457991339233
 30
0.0
 10
222.2300287503415
 20
150.7369662563687
 30
0.0
 10
222.2111602352969
 20
150.7216235185873
 30
0.0
 10
222.2044761904762
 20
150.7161884566993
 30
0.0
  0
LINE
  5
300
330
1F
100
AcDbEntity
  8
0
  6
Continuous
 62
     7
370
    25
100
AcDbLine
 10
222.2044761905
 20
150.7161884567
 30
0.0
 11
222.2044761905
 21
163.1887302042
 31
0.0
  0
LINE
  5
301
330
1F
100
AcDbEntity
  8
0
  6
Continuous
 62
     7
370
    25
100
AcDbLine
 10
255.2044761905
 20
163.1887302042
 30
0.0
 11
255.2044761905
 21
150.7161884567
 31
0.0
  0
SPLINE
  5
302
330
1F
100
AcDbEntity
  8
0
  6
Continuous
 62
     7
370
    25
100
AcDbSpline
210
0.0
220
0.0
230
1.0
 70
     8
 71
     3
 72
    11
 73
     7
 74
     0
 42
0.00000001
 43
0.00000001
 40
0.0
 40
0.0
 40
0.0
 40
0.0
 40
0.18834673464999
 40
0.5045742105980937
 40
0.8244987390967877
 40
1.0
 40
1.0
 40
1.0
 40
1.0
 10
255.2044761904762
 20
150.7161884566974
 30
0.0
 10
255.196803000791
 20
150.7219799018953
 30
0.0
 10
255.1762467982354
 20
150.737494977824
 30
0.0
 10
254.9599750580039
 20
150.7457991339232
 30
0.0
 10
254.5962197331809
 20
150.7369662563687
 30
0.0
 10
254.3069485615993
 20
150.7216235185873
 30
0.0
 10
254.2044761904762
 20
150.7161884566993
 30
0.0
  0
ARC
  5
303
330
1F
100
AcDbEntity
  8
0
  6
Continuous
 62
     7
370
    25
100
AcDbCircle
 10
254.207934785
 20
150.71803111
 30
0.0
 40
0.996543109043073
100
AcDbArc
 50
280.1146335193
 51
359.8940574493
  0
SPLINE
  5
304
330
1F
100
AcDbEntity
  8
0
  6
Continuous
 62
     7
370
    25
100
AcDbSpline
210
0.0
220
0.0
230
1.0
 70
    24
 71
     3
 72
     9
 73
     5
 74
     0
 42
0.00000001
 43
0.00000001
 40
0.0
 40
0.0
 40
0.0
 40
0.0
 40
0.4993505873118098
 40
1.0
 40
1.0
 40
1.0
 40
1.0
 10
222.2044761904762
 20
150.2778160986994
 30
0.0
 10
222.2044761904762
 20
150.2988847635039
 30
0.0
 10
222.2044761904762
 20
150.3410768933218
 30
0.0
 10
222.2044761904762
 20
150.5910430481117
 30
0.0
 10
222.2044761904762
 20
150.7161884566993
 30
0.0
  0
SPLINE
  5
305
330
1F
100
AcDbEntity
  8
0
  6
Continuous
 62
     7
370
    25
100
AcDbSpline
210
0.0
220
0.0
230
1.0
 70
    24
 71
     3
 72
     9
 73
     5
 74
     0
 42
0.00000001
 43
0.00000001
 40
0.0
 40
0.0
 40
0.0
 40
0.0
 40
0.499431627448657
 40
1.0
 40
1.0
 40
1.0
 40
1.0
 10
255.2044761904762
 20
150.7161884566973
 30
0.0
 10
255.2044761904762
 20
150.5913141628255
 30
0.0
 10
255.2044761904762
 20
150.3412813515081
 30
0.0
 10
255.2044761904762
 20
150.2989872088555
 30
0.0
 10
255.2044761904762
 20
150.2778160986994
 30
0.0
  0
SPLINE
  5
306
330
1F
100
AcDbEntity
  8
0
  6
Continuous
 62
     8
370
    25
100
AcDbSpline
210
0.0
220
0.0
230
1.0
 70
     8
 71
     3
 72
    15
 73
    11
 74
     0
 42
0.00000001
 43
0.00000001
 40
0.0
 40
0.0
 40
0.0
 40
0.0
 40
0.1602830368631304
 40
0.3205975445874102
 40
0.4329983176534319
 40
0.5458272494166813
 40
0.6583884299228926
 40
0.8051379141933659
 40
0.9519908851115723
 40
0.9999999999999999
 40
0.9999999999999999
 40
0.9999999999999999
 40
0.9999999999999999
 10
204.0322590851004
 20
105.7387302041586
 30
0.0
 10
205.5373183724045
 20
105.7003602358841
 30
0.0
 10
208.5477324587076
 20
105.6236127655627
 30
0.0
 10
212.180565980764
 20
105.0633651599339
 30
0.0
 10
215.0538248642403
 20
104.2947290939326
 30
0.0
 10
217.3066647137888
 20
103.394454336046
 30
0.0
 10
219.5188232413721
 20
102.1495878768779
 30
0.0
 10
221.6634133615009
 20
100.4209453103588
 30
0.0
 10
223.3523724840635
 20
98.71981405144197
 30
0.0
 10
224.4587440118064
 20
97.6937359080166
 30
0.0
 10
224.7313261180936
 20
97.44093607131008
 30
0.0
  0
SPLINE
  5
307
330
1F
100
AcDbEntity
  8
0
  6
Continuous
 62
     8
370
    25
100
AcDbSpline
210
0.0
220
0.0
230
1.0
 70
     8
 71
     3
 72
    14
 73
    10
 74
     0
 42
0.00000001
 43
0.00000001
 40
0.0
 40
0.0
 40
0.0
 40
0.0
 40
0.1576470041825299
 40
0.3205799398557714
 40
0.4869561438668303
 40
0.658160121392064
 40
0.804404430932291
 40
0.9517409373998005
 40
1.0
 40
1.0
 40
1.0
 40
1.0
 10
68.37669329585201
 20
105.7387302041586
 30
0.0
 10
66.89445162590405
 20
105.7018808178356
 30
0.0
 10
63.88026846481172
 20
105.626946478852
 30
0.0
 10
59.79894783906833
 20
104.9989514460693
 30
0.0
 10
56.14374654307512
 20
103.9314857726486
 30
0.0
 10
53.20516177576101
 20
102.3946829926029
 30
0.0
 10
50.74592465593257
 20
100.435342622609
 30
0.0
 10
49.05663779512362
 20
98.72068573206853
 30
0.0
 10
47.94848793404434
 20
97.69065593546023
 30
0.0
 10
47.67507543410314
 20
97.43651790630382
 30
0.0
  0
SPLINE
  5
308
330
1F
100
AcDbEntity
  8
0
  6
Continuous
 62
     8
370
    25
100
AcDbSpline
210
0.0
220
0.0
230
1.0
 70
     8
 71
     3
 72
    14
 73
    10
 74
     0
 42
0.00000001
 43
0.00000001
 40
0.0
 40
0.0
 40
0.0
 40
0.0
 40
0.15764700418253
 40
0.3205799398557717
 40
0.4869561438668306
 40
0.6581601213920645
 40
0.8044044309322915
 40
0.9517409373998011
 40
0.9999999999999999
 40
0.9999999999999999
 40
0.9999999999999999
 40
0.9999999999999999
 10
68.37669329585201
 20
105.7387302041586
 30
0.0
 10
66.89445162590405
 20
105.7755795904816
 30
0.0
 10
63.88026846481171
 20
105.8505139294652
 30
0.0
 10
59.7989478390683
 20
106.4785089622478
 30
0.0
 10
56.14374654307512
 20
107.5459746356685
 30
0.0
 10
53.20516177576101
 20
109.0827774157143
 30
0.0
 10
50.74592465593251
 20
111.0421177857082
 30
0.0
 10
49.05663779512366
 20
112.7567746762486
 30
0.0
 10
47.94848793404434
 20
113.786804472857
 30
0.0
 10
47.67507543410314
 20
114.0409425020133
 30
0.0
  0
SPLINE
  5
309
330
1F
100
AcDbEntity
  8
0
  6
Continuous
 62
     8
370
    25
100
AcDbSpline
210
0.0
220
0.0
230
1.0
 70
     8
 71
     3
 72
    14
 73
    10
 74
     0
 42
0.00000001
 43
0.00000001
 40
0.0
 40
0.0
 40
0.0
 40
0.0
 40
0.1576470041825304
 40
0.3205799398557724
 40
0.4869561438668318
 40
0.658160121392066
 40
0.8044044309322934
 40
0.9517409373998034
 40
0.9999999999999999
 40
0.9999999999999999
 40
0.9999999999999999
 40
0.9999999999999999
 10
204.0322590851004
 20
105.7387302041586
 30
0.0
 10
205.5145007550484
 20
105.7755795904816
 30
0.0
 10
208.5286839161407
 20
105.8505139294652
 30
0.0
 10
212.6100045418841
 20
106.4785089622478
 30
0.0
 10
216.2652058378773
 20
107.5459746356685
 30
0.0
 10
219.2037906051914
 20
109.0827774157143
 30
0.0
 10
221.6630277250198
 20
111.0421177857082
 30
0.0
 10
223.3523145858288
 20
112.7567746762486
 30
0.0
 10
224.460464446908
 20
113.7868044728569
 30
0.0
 10
224.7338769468492
 20
114.0409425020133
 30
0.0
  0
SPLINE
  5
30A
330
1F
100
AcDbEntity
  8
0
  6
Continuous
 62
     8
370
    25
100
AcDbSpline
210
0.0
220
0.0
230
1.0
 70
     8
 71
     3
 72
    10
 73
     6
 74
     0
 42
0.00000001
 43
0.00000001
 40
0.0
 40
0.0
 40
0.0
 40
0.0
 40
0.1587834324320609
 40
0.5775838594321104
 40
1.0
 40
1.0
 40
1.0
 40
1.0
 10
225.1656530141027
 20
118.0207831594721
 30
0.0
 10
224.8038086852736
 20
117.9560426507385
 30
0.0
 10
223.4875791469798
 20
117.7205453301224
 30
0.0
 10
221.3592200570001
 20
117.3883563539497
 30
0.0
 10
219.794895552639
 20
117.214316761601
 30
0.0
 10
219.0093714139046
 20
117.126922937299
 30
0.0
  0
SPLINE
  5
30B
330
1F
100
AcDbEntity
  8
0
  6
Continuous
 62
     8
370
    25
100
AcDbSpline
210
0.0
220
0.0
230
1.0
 70
     8
 71
     3
 72
    10
 73
     6
 74
     0
 42
0.00000001
 43
0.00000001
 40
0.0
 40
0.0
 40
0.0
 40
0.0
 40
0.1435950727531529
 40
0.5699570383203126
 40
1.0
 40
1.0
 40
1.0
 40
1.0
 10
47.3638122183864
 20
117.9994582404274
 30
0.0
 10
47.68508410868188
 20
117.9420275602806
 30
0.0
 10
48.9602753222631
 20
117.7140739143953
 30
0.0
 10
51.04932921576336
 20
117.3885586894125
 30
0.0
 10
52.61392207443721
 20
117.2143843997404
 30
0.0
 10
53.39958096704782
 20
117.126922937299
 30
0.0
  0
LINE
  5
30C
330
1F
100
AcDbEntity
  8
0
  6
Continuous
 62
     8
370
    25
100
AcDbLine
 10
238.7044761905
 20
123.5887302042
 30
0.0
 11
238.7044761905
 21
121.9855669899
 31
0.0
  0
ARC
  5
30D
330
1F
100
AcDbEntity
  8
0
  6
Continuous
 62
     8
370
    25
100
AcDbCircle
 10
214.9203621505
 20
119.1724702295
 30
0.0
 40
20.04855797683754
100
AcDbArc
 50
8.0467381216
 51
12.7253726916
  0
LINE
  5
30E
330
1F
100
AcDbEntity
  8
0
  6
Continuous
 62
     8
370
    25
100
AcDbLine
 10
33.7044761905
 20
123.5887302042
 30
0.0
 11
33.7044761905
 21
121.9855669899
 31
0.0
  0
ARC
  5
30F
330
1F
100
AcDbEntity
  8
0
  6
Continuous
 62
     8
370
    25
100
AcDbCircle
 10
57.4885902304
 20
119.1724702295
 30
0.0
 40
20.04855797684047
100
AcDbArc
 50
167.2746273084
 51
171.9532618784
  0
ARC
  5
310
330
1F
100
AcDbEntity
  8
0
  6
Continuous
 62
     8
370
    25
100
AcDbCircle
 10
255.8985309473
 20
119.1979208053
 30
0.0
 40
11.08449576169045
100
AcDbArc
 50
156.6640494735
 51
165.7471376012
  0
ARC
  5
311
330
1F
100
AcDbEntity
  8
0
  6
Continuous
 62
     8
370
    25
100
AcDbCircle
 10
16.5315414617
 20
119.2056415863
 30
0.0
 40
11.06204509860085
100
AcDbArc
 50
14.1249713685
 51
23.3425641992
  0
ARC
  5
312
330
1F
100
AcDbEntity
  8
0
  6
Continuous
 62
     8
370
    25
100
AcDbCircle
 10
50.9551567383
 20
122.1212742182
 30
0.0
 40
8.733351931266093
100
AcDbArc
 50
170.3267620196
 51
185.860434459
  0
ARC
  5
313
330
1F
100
AcDbEntity
  8
0
  6
Continuous
 62
     8
370
    25
100
AcDbCircle
 10
221.4537956426
 20
122.1212742182
 30
0.0
 40
8.73335193126673
100
AcDbArc
 50
354.139565541
 51
9.6732379804
  0
SPLINE
  5
314
330
1F
100
AcDbEntity
  8
0
  6
Continuous
 62
     8
370
    25
100
AcDbSpline
210
0.0
220
0.0
230
1.0
 70
     8
 71
     3
 72
    12
 73
     8
 74
     0
 42
0.00000001
 43
0.00000001
 40
0.0
 40
0.0
 40
0.0
 40
0.0
 40
0.1888351719915406
 40
0.3778191278505444
 40
0.6690019738316139
 40
0.9604379894415118
 40
1.0
 40
1.0
 40
1.0
 40
1.0
 10
26.68818342308153
 20
123.5887302041586
 30
0.0
 10
26.14826496571911
 20
123.2061828956262
 30
0.0
 10
25.06800264742483
 20
122.4407868682496
 30
0.0
 10
23.42880185798295
 20
120.8391351271723
 30
0.0
 10
21.84751562966938
 20
118.779736100696
 30
0.0
 10
20.76013590969931
 20
117.0022398302917
 30
0.0
 10
20.34911034652233
 20
115.9585833045595
 30
0.0
 10
20.29998317238639
 20
115.8338419247742
 30
0.0
  0
SPLINE
  5
315
330
1F
100
AcDbEntity
  8
0
  6
Continuous
 62
     8
370
    25
100
AcDbSpline
210
0.0
220
0.0
230
1.0
 70
     8
 71
     3
 72
    12
 73
     8
 74
     0
 42
0.00000001
 43
0.00000001
 40
0.0
 40
0.0
 40
0.0
 40
0.0
 40
0.1914163446347758
 40
0.3858741130650122
 40
0.680511036920965
 40
0.9809045576000042
 40
0.9999999999999999
 40
0.9999999999999999
 40
0.9999999999999999
 40
0.9999999999999999
 10
245.7207689578709
 20
123.5887302041586
 30
0.0
 10
246.2567550727144
 20
123.209166058062
 30
0.0
 10
247.3372436123687
 20
122.4440068523225
 30
0.0
 10
248.9711348179495
 20
120.8498045457551
 30
0.0
 10
250.5533641012
 20
118.7845580784844
 30
0.0
 10
251.6146193123698
 20
117.0740066391739
 30
0.0
 10
252.0066269014428
 20
116.0892943375162
 30
0.0
 10
252.0300566883918
 20
116.0304393559367
 30
0.0
  0
SPLINE
  5
316
330
1F
100
AcDbEntity
  8
0
  6
Continuous
 62
     8
370
    25
100
AcDbSpline
210
0.0
220
0.0
230
1.0
 70
     8
 71
     3
 72
     9
 73
     5
 74
     0
 42
0.00000001
 43
0.00000001
 40
0.0
 40
0.0
 40
0.0
 40
0.0
 40
0.6147996445328601
 40
1.0
 40
1.0
 40
1.0
 40
1.0
 10
150.3794517072028
 20
107.2350293456858
 30
0.0
 10
150.5408437518309
 20
106.8876012471918
 30
0.0
 10
150.803355362017
 20
106.3224934082663
 30
0.0
 10
151.1684931871231
 20
105.9010646945039
 30
0.0
 10
151.3091444071484
 20
105.7387302041586
 30
0.0
  0
SPLINE
  5
317
330
1F
100
AcDbEntity
  8
0
  6
Continuous
 62
     8
370
    25
100
AcDbSpline
210
0.0
220
0.0
230
1.0
 70
     8
 71
     3
 72
     9
 73
     5
 74
     0
 42
0.00000001
 43
0.00000001
 40
0.0
 40
0.0
 40
0.0
 40
0.0
 40
0.6024188916798836
 40
1.0
 40
1.0
 40
1.0
 40
1.0
 10
150.4059404714806
 20
104.2924730318669
 30
0.0
 10
150.559405050883
 20
104.6219574806252
 30
0.0
 10
150.8141523397246
 20
105.1688932645272
 30
0.0
 10
151.1683300432418
 20
105.5766241191009
 30
0.0
 10
151.3091444071484
 20
105.7387302041586
 30
0.0
  0
SPLINE
  5
318
330
1F
100
AcDbEntity
  8
0
  6
Continuous
 62
     8
370
    25
100
AcDbSpline
210
0.0
220
0.0
230
1.0
 70
     8
 71
     3
 72
     9
 73
     5
 74
     0
 42
0.00000001
 43
0.00000001
 40
0.0
 40
0.0
 40
0.0
 40
0.0
 40
0.5867016543059278
 40
1.0
 40
1.0
 40
1.0
 40
1.0
 10
121.9716708358991
 20
107.1257785351813
 30
0.0
 10
121.8275999842563
 20
106.8175050071978
 30
0.0
 10
121.5820393137087
 20
106.292070102215
 30
0.0
 10
121.2408294471763
 20
105.9005463310719
 30
0.0
 10
121.099807973804
 20
105.7387302041586
 30
0.0
  0
SPLINE
  5
319
330
1F
100
AcDbEntity
  8
0
  6
Continuous
 62
     8
370
    25
100
AcDbSpline
210
0.0
220
0.0
230
1.0
 70
     8
 71
     3
 72
     9
 73
     5
 74
     0
 42
0.00000001
 43
0.00000001
 40
0.0
 40
0.0
 40
0.0
 40
0.0
 40
0.6127634771885141
 40
1.0
 40
1.0
 40
1.0
 40
1.0
 10
122.0250278937145
 20
104.2508809366447
 30
0.0
 10
121.8649737303753
 20
104.5952781433072
 30
0.0
 10
121.6037731704569
 20
105.1573175263373
 30
0.0
 10
121.2404860248507
 20
105.5764332778769
 30
0.0
 10
121.099807973804
 20
105.7387302041586
 30
0.0
  0
SPLINE
  5
31A
330
1F
100
AcDbEntity
  8
0
  6
Continuous
 62
     8
370
    25
100
AcDbSpline
210
0.0
220
0.0
230
1.0
 70
     8
 71
     3
 72
    10
 73
     6
 74
     0
 42
0.00000001
 43
0.00000001
 40
0.0
 40
0.0
 40
0.0
 40
0.0
 40
0.4740293043912113
 40
0.7560774926864288
 40
1.0
 40
1.0
 40
1.0
 40
1.0
 10
149.6665841392343
 20
115.5537038530432
 30
0.0
 10
149.0130560643794
 20
115.6334702681209
 30
0.0
 10
147.9706777479774
 20
115.7606978267418
 30
0.0
 10
146.899028954369
 20
115.8888412598505
 30
0.0
 10
146.3670466216892
 20
115.9926221037145
 30
0.0
 10
146.1203361765691
 20
116.0407511798356
 30
0.0
  0
SPLINE
  5
31B
330
1F
100
AcDbEntity
  8
0
  6
Continuous
 62
     8
370
    25
100
AcDbSpline
210
0.0
220
0.0
230
1.0
 70
     8
 71
     3
 72
    10
 73
     6
 74
     0
 42
0.00000001
 43
0.00000001
 40
0.0
 40
0.0
 40
0.0
 40
0.0
 40
0.0000355648223611
 40
0.8254116194023853
 40
1.0
 40
1.0
 40
1.0
 40
1.0
 10
146.8110184750734
 20
116.3452724887558
 30
0.0
 10
146.8110049540927
 20
116.345274597518
 30
0.0
 10
146.4972012061545
 20
116.3942161271147
 30
0.0
 10
146.1085899147796
 20
116.443952276015
 30
0.0
 10
145.6819618533813
 20
116.4587548936612
 30
0.0
 10
145.6074749019091
 20
116.4613393506204
 30
0.0
  0
LWPOLYLINE
  5
31C
330
1F
100
AcDbEntity
  8
0
  6
Continuous
 62
     8
370
    25
100
AcDbPolyline
 90
        4
 70
   128
 43
0.0
 10
126.7827364366
 20
95.0412665429
 10
125.5979744688
 20
95.1321815933
 10
125.5979339059
 20
95.1321879196
 10
125.5979339059
 20
95.1321879196
  0
SPLINE
  5
31D
330
1F
100
AcDbEntity
  8
0
  6
Continuous
 62
     8
370
    25
100
AcDbSpline
210
0.0
220
0.0
230
1.0
 70
     8
 71
     3
 72
    10
 73
     6
 74
     0
 42
0.00000001
 43
0.00000001
 40
0.0
 40
0.0
 40
0.0
 40
0.0
 40
0.4676547225502868
 40
0.7459100245350654
 40
1.0
 40
1.0
 40
1.0
 40
1.0
 10
122.7423682417181
 20
95.92375655527397
 30
0.0
 10
123.3959387928567
 20
95.84403892971378
 30
0.0
 10
124.4383848589984
 20
95.71688919045052
 30
0.0
 10
125.5242974666606
 20
95.58660415733401
 30
0.0
 10
126.0699266953887
 20
95.47997310316939
 30
0.0
 10
126.3303571400893
 20
95.42907778562984
 30
0.0
  0
SPLINE
  5
31E
330
1F
100
AcDbEntity
  8
0
  6
Continuous
 62
     8
370
    25
100
AcDbSpline
210
0.0
220
0.0
230
1.0
 70
     8
 71
     3
 72
    10
 73
     6
 74
     0
 42
0.00000001
 43
0.00000001
 40
0.0
 40
0.0
 40
0.0
 40
0.0
 40
0.491605907720696
 40
0.7841122028872421
 40
1.0
 40
1.0
 40
1.0
 40
1.0
 10
149.6665841392343
 20
95.92375655527397
 30
0.0
 10
149.0131793380945
 20
95.84384854435604
 30
0.0
 10
147.9709976434638
 20
95.71639514014512
 30
0.0
 10
146.9367148657367
 20
95.59392345991569
 30
0.0
 10
146.4405258765551
 20
95.49762078700918
 30
0.0
 10
146.22982093436
 20
95.45672618924421
 30
0.0
  0
LWPOLYLINE
  5
31F
330
1F
100
AcDbEntity
  8
0
  6
Continuous
 62
     8
370
    25
100
AcDbPolyline
 90
        4
 70
   128
 43
0.0
 10
145.7257807179
 20
95.0489068425
 10
146.8109779121
 20
95.1321815933
 10
146.8110184751
 20
95.1321879196
 10
146.8110184751
 20
95.1321879196
  0
SPLINE
  5
320
330
1F
100
AcDbEntity
  8
0
  6
Continuous
 62
     8
370
    25
100
AcDbSpline
210
0.0
220
0.0
230
1.0
 70
     8
 71
     3
 72
    10
 73
     6
 74
     0
 42
0.00000001
 43
0.00000001
 40
0.0
 40
0.0
 40
0.0
 40
0.0
 40
0.4828391197903924
 40
0.7701291622274027
 40
1.0
 40
1.0
 40
1.0
 40
1.0
 10
122.7423682417181
 20
115.5537038530432
 30
0.0
 10
123.3958356947648
 20
115.6335399001253
 30
0.0
 10
124.4381173192864
 20
115.7608785219038
 30
0.0
 10
125.4906881760953
 20
115.8861380183108
 30
0.0
 10
126.0044039180137
 20
115.9861029893836
 30
0.0
 10
126.232743439603
 20
116.0305360324226
 30
0.0
  0
SPLINE
  5
321
330
1F
100
AcDbEntity
  8
0
  6
Continuous
 62
     8
370
    25
100
AcDbSpline
210
0.0
220
0.0
230
1.0
 70
     8
 71
     3
 72
    10
 73
     6
 74
     0
 42
0.00000001
 43
0.00000001
 40
0.0
 40
0.0
 40
0.0
 40
0.0
 40
0.0000398027910898
 40
0.9237691648401145
 40
1.0
 40
1.0
 40
1.0
 40
1.0
 10
125.5979339058791
 20
116.3452724887558
 30
0.0
 10
125.597947426861
 20
116.3452745975168
 30
0.0
 10
125.9117512036312
 20
116.3942161006443
 30
0.0
 10
126.2568123523056
 20
116.44065264873
 30
0.0
 10
126.6369274048507
 20
116.4548771099177
 30
0.0
 10
126.6659050461541
 20
116.4559614956353
 30
0.0
  0
SPLINE
  5
322
330
1F
100
AcDbEntity
  8
0
  6
Continuous
 62
     8
370
    25
100
AcDbSpline
210
0.0
220
0.0
230
1.0
 70
     8
 71
     3
 72
    10
 73
     6
 74
     0
 42
0.00000001
 43
0.00000001
 40
0.0
 40
0.0
 40
0.0
 40
0.0
 40
0.5748607860085201
 40
0.8760179337390107
 40
1.0
 40
1.0
 40
1.0
 40
1.0
 10
150.7498415663552
 20
95.73666030672983
 30
0.0
 10
149.7911226206834
 20
95.52172317964758
 30
0.0
 10
148.3301515294818
 20
95.1941851347276
 30
0.0
 10
146.6447109960334
 20
95.03625688820617
 30
0.0
 10
145.8939481380068
 20
95.0170943482204
 30
0.0
 10
145.6750054308963
 20
95.0115060345009
 30
0.0
  0
SPLINE
  5
323
330
1F
100
AcDbEntity
  8
0
  6
Continuous
 62
     8
370
    25
100
AcDbSpline
210
0.0
220
0.0
230
1.0
 70
     8
 71
     3
 72
    10
 73
     6
 74
     0
 42
0.00000001
 43
0.00000001
 40
0.0
 40
0.0
 40
0.0
 40
0.0
 40
0.1364445961792161
 40
0.4333173796071868
 40
1.0
 40
1.0
 40
1.0
 40
1.0
 10
145.5988886263531
 20
116.4683807984902
 30
0.0
 10
145.8434003837066
 20
116.4622596117334
 30
0.0
 10
146.6199147854963
 20
116.4428200979688
 30
0.0
 10
148.3304671263661
 20
116.283717815377
 30
0.0
 10
149.791247665093
 20
115.9559125706305
 30
0.0
 10
150.7498415663552
 20
115.7408001015874
 30
0.0
  0
SPLINE
  5
324
330
1F
100
AcDbEntity
  8
0
  6
Continuous
 62
     8
370
    25
100
AcDbSpline
210
0.0
220
0.0
230
1.0
 70
     8
 71
     3
 72
    10
 73
     6
 74
     0
 42
0.00000001
 43
0.00000001
 40
0.0
 40
0.0
 40
0.0
 40
0.0
 40
0.1145146335850854
 40
0.4189264921053845
 40
1.0
 40
1.0
 40
1.0
 40
1.0
 10
126.6775552253739
 20
116.4641567382877
 30
0.0
 10
126.4775475568975
 20
116.4589744121867
 30
0.0
 10
125.7458636809959
 20
116.4400160168582
 30
0.0
 10
124.0790497814992
 20
116.2829262145676
 30
0.0
 10
122.6179283902302
 20
115.9555989260389
 30
0.0
 10
121.6591108145972
 20
115.7408001015874
 30
0.0
  0
SPLINE
  5
325
330
1F
100
AcDbEntity
  8
0
  6
Continuous
 62
     8
370
    25
100
AcDbSpline
210
0.0
220
0.0
230
1.0
 70
     8
 71
     3
 72
    10
 73
     6
 74
     0
 42
0.00000001
 43
0.00000001
 40
0.0
 40
0.0
 40
0.0
 40
0.0
 40
0.5655607632313929
 40
0.8618458299266906
 40
1.0
 40
1.0
 40
1.0
 40
1.0
 10
121.6591108145972
 20
95.73666030672983
 30
0.0
 10
122.617687970252
 20
95.52152435636802
 30
0.0
 10
124.0784429907097
 20
95.19368332894724
 30
0.0
 10
125.7924941679959
 20
95.03441373748758
 30
0.0
 10
126.5725990941806
 20
95.01493548317715
 30
0.0
 10
126.8206769368929
 20
95.00874128654164
 30
0.0
  0
ELLIPSE
  5
326
330
1F
100
AcDbEntity
  8
0
  6
Continuous
 62
     8
370
    25
100
AcDbEllipse
 10
-21.756609257
 20
102.1540731374
 30
0.0
 11
1.499999304622801
 21
-0.08287263343869711
 31
0.0
210
0.0
220
0.0
230
1.0
 40
0.0174284859
 41
3.125102257568945
 42
3.637263423929827
  0
ELLIPSE
  5
327
330
1F
100
AcDbEntity
  8
0
  6
Continuous
 62
     8
370
    25
100
AcDbEllipse
 10
294.1655616379
 20
109.0779659821
 30
0.0
 11
1.499999304622804
 21
-0.08287263343869711
 31
0.0
210
0.0
220
0.0
230
1.0
 40
0.0174284859
 41
6.266694911159444
 42
6.778856077518971
  0
LINE
  5
328
330
1F
100
AcDbEntity
  8
0
  6
Continuous
 62
     8
370
    25
100
AcDbLine
 10
7.9044761905
 20
165.1887302042
 30
0.0
 11
59.5044761905
 21
165.1887302042
 31
0.0
  0
LINE
  5
329
330
1F
100
AcDbEntity
  8
0
  6
Continuous
 62
     8
370
    25
100
AcDbLine
 10
56.0479316081
 20
167.6887302042
 30
0.0
 11
7.9044761905
 21
167.6887302042
 31
0.0
  0
LINE
  5
32A
330
1F
100
AcDbEntity
  8
0
  6
Continuous
 62
     8
370
    25
100
AcDbLine
 10
59.5044761905
 20
167.6887302042
 30
0.0
 11
56.0479316081
 21
167.6887302042
 31
0.0
  0
SPLINE
  5
32B
330
1F
100
AcDbEntity
  8
0
  6
Continuous
 62
     8
370
    25
100
AcDbSpline
210
0.0
220
0.0
230
1.0
 70
     8
 71
     3
 72
     9
 73
     5
 74
     0
 42
0.00000001
 43
0.00000001
 40
0.0
 40
0.0
 40
0.0
 40
0.0
 40
0.4994388537606267
 40
1.0
 40
1.0
 40
1.0
 40
1.0
 10
18.02600652326511
 20
149.7369759165594
 30
0.0
 10
18.01936915758293
 20
149.6119721815042
 30
0.0
 10
18.00607951134854
 20
149.3616838146422
 30
0.0
 10
18.00312048218926
 20
149.3196460368143
 30
0.0
 10
18.00163930716155
 20
149.2986035585595
 30
0.0
  0
SPLINE
  5
32C
330
1F
100
AcDbEntity
  8
0
  6
Continuous
 62
     8
370
    25
100
AcDbSpline
210
0.0
220
0.0
230
1.0
 70
     8
 71
     3
 72
     9
 73
     5
 74
     0
 42
0.00000001
 43
0.00000001
 40
0.0
 40
0.0
 40
0.0
 40
0.0
 40
0.7638220045043461
 40
1.0
 40
1.0
 40
1.0
 40
1.0
 10
49.40731307379092
 20
149.2986035585595
 30
0.0
 10
49.40396934157874
 20
149.3471642504627
 30
0.0
 10
49.39959170884168
 20
149.4107401773369
 30
0.0
 10
49.38612613089499
 20
149.6746469451415
 30
0.0
 10
49.38294585768733
 20
149.7369759165594
 30
0.0
  0
LINE
  5
32D
330
1F
100
AcDbEntity
  8
0
  6
Continuous
 62
     8
370
    25
100
AcDbLine
 10
45.6531699497
 20
148.9038568498
 30
0.0
 11
47.5016393072
 21
148.9038568498
 31
0.0
  0
LINE
  5
32E
330
1F
100
AcDbEntity
  8
0
  6
Continuous
 62
     8
370
    25
100
AcDbLine
 10
19.9073130738
 20
148.9038568498
 30
0.0
 11
45.6531699497
 21
148.9038568498
 31
0.0
  0
LINE
  5
32F
330
1F
100
AcDbEntity
  8
0
  6
Continuous
 62
     8
370
    25
100
AcDbLine
 10
44.9628064397
 20
147.9246443096
 30
0.0
 11
20.7044761905
 21
147.9246443096
 31
0.0
  0
LINE
  5
330
330
1F
100
AcDbEntity
  8
0
  6
Continuous
 62
     8
370
    25
100
AcDbLine
 10
46.7044761905
 20
147.9246443096
 30
0.0
 11
44.9628064397
 21
147.9246443096
 31
0.0
  0
LINE
  5
331
330
1F
100
AcDbEntity
  8
0
  6
Continuous
 62
     8
370
    25
100
AcDbLine
 10
212.9044761905
 20
165.1887302042
 30
0.0
 11
264.5044761905
 21
165.1887302042
 31
0.0
  0
LINE
  5
332
330
1F
100
AcDbEntity
  8
0
  6
Continuous
 62
     8
370
    25
100
AcDbLine
 10
216.3610207728
 20
167.6887302042
 30
0.0
 11
212.9044761905
 21
167.6887302042
 31
0.0
  0
LINE
  5
333
330
1F
100
AcDbEntity
  8
0
  6
Continuous
 62
     8
370
    25
100
AcDbLine
 10
264.5044761905
 20
167.6887302042
 30
0.0
 11
216.3610207728
 21
167.6887302042
 31
0.0
  0
SPLINE
  5
334
330
1F
100
AcDbEntity
  8
0
  6
Continuous
 62
     8
370
    25
100
AcDbSpline
210
0.0
220
0.0
230
1.0
 70
     8
 71
     3
 72
     9
 73
     5
 74
     0
 42
0.00000001
 43
0.00000001
 40
0.0
 40
0.0
 40
0.0
 40
0.0
 40
0.4994388537606265
 40
1.0
 40
1.0
 40
1.0
 40
1.0
 10
223.026006523265
 20
149.7369759165594
 30
0.0
 10
223.0193691575829
 20
149.6119721815042
 30
0.0
 10
223.0060795113485
 20
149.3616838146422
 30
0.0
 10
223.0031204821892
 20
149.3196460368143
 30
0.0
 10
223.0016393071615
 20
149.2986035585595
 30
0.0
  0
SPLINE
  5
335
330
1F
100
AcDbEntity
  8
0
  6
Continuous
 62
     8
370
    25
100
AcDbSpline
210
0.0
220
0.0
230
1.0
 70
     8
 71
     3
 72
     9
 73
     5
 74
     0
 42
0.00000001
 43
0.00000001
 40
0.0
 40
0.0
 40
0.0
 40
0.0
 40
0.763822004504346
 40
1.0
 40
1.0
 40
1.0
 40
1.0
 10
254.4073130737909
 20
149.2986035585595
 30
0.0
 10
254.4039693415787
 20
149.3471642504627
 30
0.0
 10
254.3995917088416
 20
149.4107401773369
 30
0.0
 10
254.386126130895
 20
149.6746469451415
 30
0.0
 10
254.3829458576873
 20
149.7369759165594
 30
0.0
  0
LINE
  5
336
330
1F
100
AcDbEntity
  8
0
  6
Continuous
 62
     8
370
    25
100
AcDbLine
 10
226.7557824313
 20
148.9038568498
 30
0.0
 11
252.5016393072
 21
148.9038568498
 31
0.0
  0
LINE
  5
337
330
1F
100
AcDbEntity
  8
0
  6
Continuous
 62
     8
370
    25
100
AcDbLine
 10
224.9073130738
 20
148.9038568498
 30
0.0
 11
226.7557824313
 21
148.9038568498
 31
0.0
  0
LINE
  5
338
330
1F
100
AcDbEntity
  8
0
  6
Continuous
 62
     8
370
    25
100
AcDbLine
 10
227.4461459413
 20
147.9246443096
 30
0.0
 11
225.7044761905
 21
147.9246443096
 31
0.0
  0
LINE
  5
339
330
1F
100
AcDbEntity
  8
0
  6
Continuous
 62
     8
370
    25
100
AcDbLine
 10
251.7044761905
 20
147.9246443096
 30
0.0
 11
227.4461459413
 21
147.9246443096
 31
0.0
  0
ENDSEC
  0
SECTION
  2
OBJECTS
  0
DICTIONARY
  5
C
330
0
100
AcDbDictionary
281
     1
  3
ACAD_GROUP
350
D
  3
ACAD_LAYOUT
350
1A
  3
ACAD_MLINESTYLE
350
17
  3
ACAD_PLOTSETTINGS
350
19
  3
ACAD_PLOTSTYLENAME
350
E
  3
ACAD_SCALELIST
350
47
  3
DWGPROPS
350
33A
  0
DICTIONARY
  5
D
102
{ACAD_REACTORS
330
C
102
}
330
C
100
AcDbDictionary
281
     1
  0
DICTIONARY
  5
1A
102
{ACAD_REACTORS
330
C
102
}
330
C
100
AcDbDictionary
281
     1
  3
Layout1
350
1E
  3
Layout2
350
26
  3
Model
350
22
  0
DICTIONARY
  5
17
102
{ACAD_REACTORS
330
C
102
}
330
C
100
AcDbDictionary
281
     1
  3
Standard
350
18
  0
DICTIONARY
  5
19
102
{ACAD_REACTORS
330
C
102
}
330
C
100
AcDbDictionary
281
     1
  0
ACDBDICTIONARYWDFLT
  5
E
102
{ACAD_REACTORS
330
C
102
}
330
C
100
AcDbDictionary
281
     1
  3
Normal
350
F
100
AcDbDictionaryWithDefault
340
F
  0
DICTIONARY
  5
47
102
{ACAD_REACTORS
330
C
102
}
330
C
100
AcDbDictionary
281
     1
  3
A0
350
48
  3
A1
350
49
  3
A2
350
4A
  3
A3
350
4B
  3
A4
350
4C
  3
A5
350
4D
  3
A6
350
4E
  3
A7
350
4F
  3
A8
350
50
  3
A9
350
51
  3
B0
350
52
  3
B1
350
53
  3
B2
350
54
  3
B3
350
55
  3
B4
350
56
  3
B5
350
57
  3
B6
350
58
  3
B7
350
59
  3
B8
350
5A
  3
B9
350
5B
  3
C0
350
5C
  3
C1
350
5D
  3
C2
350
5E
  3
C3
350
5F
  3
C4
350
60
  3
C5
350
61
  3
C6
350
62
  3
C7
350
63
  3
C8
350
64
  3
C9
350
65
  3
D0
350
66
  3
D1
350
67
  3
D2
350
68
  0
XRECORD
  5
33A
102
{ACAD_REACTORS
330
C
102
}
330
C
100
AcDbXrecord
280
     1
  1
DWGPROPS COOKIE
  2

  3

  4

  6

  7

  8
vishesh
  9

300
=
301
=
302
=
303
=
304
=
305
=
306
=
307
=
308
=
309
=
 40
0.0
 41
2460383.483405104
 42
2460383.483405556
  1

 90
        0
  0
LAYOUT
  5
1E
102
{ACAD_REACTORS
330
1A
102
}
330
1A
100
AcDbPlotSettings
  1

  2
none_device
  4

  6

 40
0.0
 41
0.0
 42
0.0
 43
0.0
 44
0.0
 45
0.0
 46
0.0
 47
0.0
 48
0.0
 49
0.0
140
0.0
141
0.0
142
1.0
143
1.0
 70
   688
 72
     1
 73
     0
 74
     5
  7

 75
    16
147
1.0
148
0.0
149
0.0
100
AcDbLayout
  1
Layout1
 70
     1
 71
     1
 10
0.0
 20
0.0
 11
420.0
 21
297.0
 12
0.0
 22
0.0
 32
0.0
 14
1.0000000000E+20
 24
1.0000000000E+20
 34
1.0000000000E+20
 15
-1.0000000000E+20
 25
-1.0000000000E+20
 35
-1.0000000000E+20
146
0.0
 13
0.0
 23
0.0
 33
0.0
 16
1.0
 26
0.0
 36
0.0
 17
0.0
 27
1.0
 37
0.0
 76
     0
330
1B
  0
LAYOUT
  5
26
102
{ACAD_REACTORS
330
1A
102
}
330
1A
100
AcDbPlotSettings
  1

  2
none_device
  4

  6

 40
0.0
 41
0.0
 42
0.0
 43
0.0
 44
0.0
 45
0.0
 46
0.0
 47
0.0
 48
0.0
 49
0.0
140
0.0
141
0.0
142
1.0
143
1.0
 70
   688
 72
     1
 73
     0
 74
     5
  7

 75
    16
147
1.0
148
0.0
149
0.0
100
AcDbLayout
  1
Layout2
 70
     1
 71
     2
 10
0.0
 20
0.0
 11
0.0
 21
0.0
 12
0.0
 22
0.0
 32
0.0
 14
0.0
 24
0.0
 34
0.0
 15
0.0
 25
0.0
 35
0.0
146
0.0
 13
0.0
 23
0.0
 33
0.0
 16
1.0
 26
0.0
 36
0.0
 17
0.0
 27
1.0
 37
0.0
 76
     0
330
23
  0
LAYOUT
  5
22
102
{ACAD_REACTORS
330
1A
102
}
330
1A
100
AcDbPlotSettings
  1

  2
none_device
  4
Letter_(8.50_x_11.00_Inches)
  6

 40
6.35
 41
6.35
 42
6.35000508
 43
6.35000508
 44
215.9
 45
279.4
 46
0.0
 47
0.0
 48
0.0
 49
0.0
140
0.0
141
0.0
142
1.0
143
1.0
 70
  1712
 72
     1
 73
     0
 74
     0
  7

 75
     0
147
1.0
148
0.0
149
0.0
100
AcDbLayout
  1
Model
 70
     1
 71
     0
 10
0.0
 20
0.0
 11
279.4
 21
215.9
 12
0.0
 22
0.0
 32
0.0
 14
0.0
 24
0.0
 34
0.0
 15
279.4
 25
215.9
 35
0.0
146
0.0
 13
0.0
 23
0.0
 33
0.0
 16
1.0
 26
0.0
 36
0.0
 17
0.0
 27
1.0
 37
0.0
 76
     0
330
1F
331
29
  0
MLINESTYLE
  5
18
102
{ACAD_REACTORS
330
17
102
}
330
17
100
AcDbMlineStyle
  2
Standard
 70
     0
  3

 62
   256
 51
90.0
 52
90.0
 71
     2
 49
0.5
 62
   256
  6
BYLAYER
 49
-0.5
 62
   256
  6
BYLAYER
  0
ACDBPLACEHOLDER
  5
F
102
{ACAD_REACTORS
330
E
102
}
330
E
  0
SCALE
  5
48
102
{ACAD_REACTORS
330
47
102
}
330
47
100
AcDbScale
 70
     0
300
1:1
140
1.0
141
1.0
290
     1
  0
SCALE
  5
49
102
{ACAD_REACTORS
330
47
102
}
330
47
100
AcDbScale
 70
     0
300
1:2
140
1.0
141
2.0
290
     0
  0
SCALE
  5
4A
102
{ACAD_REACTORS
330
47
102
}
330
47
100
AcDbScale
 70
     0
300
1:4
140
1.0
141
4.0
290
     0
  0
SCALE
  5
4B
102
{ACAD_REACTORS
330
47
102
}
330
47
100
AcDbScale
 70
     0
300
1:5
140
1.0
141
5.0
290
     0
  0
SCALE
  5
4C
102
{ACAD_REACTORS
330
47
102
}
330
47
100
AcDbScale
 70
     0
300
1:8
140
1.0
141
8.0
290
     0
  0
SCALE
  5
4D
102
{ACAD_REACTORS
330
47
102
}
330
47
100
AcDbScale
 70
     0
300
1:10
140
1.0
141
10.0
290
     0
  0
SCALE
  5
4E
102
{ACAD_REACTORS
330
47
102
}
330
47
100
AcDbScale
 70
     0
300
1:16
140
1.0
141
16.0
290
     0
  0
SCALE
  5
4F
102
{ACAD_REACTORS
330
47
102
}
330
47
100
AcDbScale
 70
     0
300
1:20
140
1.0
141
20.0
290
     0
  0
SCALE
  5
50
102
{ACAD_REACTORS
330
47
102
}
330
47
100
AcDbScale
 70
     0
300
1:30
140
1.0
141
30.0
290
     0
  0
SCALE
  5
51
102
{ACAD_REACTORS
330
47
102
}
330
47
100
AcDbScale
 70
     0
300
1:40
140
1.0
141
40.0
290
     0
  0
SCALE
  5
52
102
{ACAD_REACTORS
330
47
102
}
330
47
100
AcDbScale
 70
     0
300
1:50
140
1.0
141
50.0
290
     0
  0
SCALE
  5
53
102
{ACAD_REACTORS
330
47
102
}
330
47
100
AcDbScale
 70
     0
300
1:100
140
1.0
141
100.0
290
     0
  0
SCALE
  5
54
102
{ACAD_REACTORS
330
47
102
}
330
47
100
AcDbScale
 70
     0
300
2:1
140
2.0
141
1.0
290
     0
  0
SCALE
  5
55
102
{ACAD_REACTORS
330
47
102
}
330
47
100
AcDbScale
 70
     0
300
4:1
140
4.0
141
1.0
290
     0
  0
SCALE
  5
56
102
{ACAD_REACTORS
330
47
102
}
330
47
100
AcDbScale
 70
     0
300
8:1
140
8.0
141
1.0
290
     0
  0
SCALE
  5
57
102
{ACAD_REACTORS
330
47
102
}
330
47
100
AcDbScale
 70
     0
300
10:1
140
10.0
141
1.0
290
     0
  0
SCALE
  5
58
102
{ACAD_REACTORS
330
47
102
}
330
47
100
AcDbScale
 70
     0
300
100:1
140
100.0
141
1.0
290
     0
  0
SCALE
  5
59
102
{ACAD_REACTORS
330
47
102
}
330
47
100
AcDbScale
 70
     0
300
1/128" = 1'-0"
140
0.0078125
141
12.0
290
     0
  0
SCALE
  5
5A
102
{ACAD_REACTORS
330
47
102
}
330
47
100
AcDbScale
 70
     0
300
1/64" = 1'-0"
140
0.015625
141
12.0
290
     0
  0
SCALE
  5
5B
102
{ACAD_REACTORS
330
47
102
}
330
47
100
AcDbScale
 70
     0
300
1/32" = 1'-0"
140
0.03125
141
12.0
290
     0
  0
SCALE
  5
5C
102
{ACAD_REACTORS
330
47
102
}
330
47
100
AcDbScale
 70
     0
300
1/16" = 1'-0"
140
0.0625
141
12.0
290
     0
  0
SCALE
  5
5D
102
{ACAD_REACTORS
330
47
102
}
330
47
100
AcDbScale
 70
     0
300
3/32" = 1'-0"
140
0.09375
141
12.0
290
     0
  0
SCALE
  5
5E
102
{ACAD_REACTORS
330
47
102
}
330
47
100
AcDbScale
 70
     0
300
1/8" = 1'-0"
140
0.125
141
12.0
290
     0
  0
SCALE
  5
5F
102
{ACAD_REACTORS
330
47
102
}
330
47
100
AcDbScale
 70
     0
300
3/16" = 1'-0"
140
0.1875
141
12.0
290
     0
  0
SCALE
  5
60
102
{ACAD_REACTORS
330
47
102
}
330
47
100
AcDbScale
 70
     0
300
1/4" = 1'-0"
140
0.25
141
12.0
290
     0
  0
SCALE
  5
61
102
{ACAD_REACTORS
330
47
102
}
330
47
100
AcDbScale
 70
     0
300
3/8" = 1'-0"
140
0.375
141
12.0
290
     0
  0
SCALE
  5
62
102
{ACAD_REACTORS
330
47
102
}
330
47
100
AcDbScale
 70
     0
300
1/2" = 1'-0"
140
0.5
141
12.0
290
     0
  0
SCALE
  5
63
102
{ACAD_REACTORS
330
47
102
}
330
47
100
AcDbScale
 70
     0
300
3/4" = 1'-0"
140
0.75
141
12.0
290
     0
  0
SCALE
  5
64
102
{ACAD_REACTORS
330
47
102
}
330
47
100
AcDbScale
 70
     0
300
1" = 1'-0"
140
1.0
141
12.0
290
     0
  0
SCALE
  5
65
102
{ACAD_REACTORS
330
47
102
}
330
47
100
AcDbScale
 70
     0
300
1-1/2" = 1'-0"
140
1.5
141
12.0
290
     0
  0
SCALE
  5
66
102
{ACAD_REACTORS
330
47
102
}
330
47
100
AcDbScale
 70
     0
300
3" = 1'-0"
140
3.0
141
12.0
290
     0
  0
SCALE
  5
67
102
{ACAD_REACTORS
330
47
102
}
330
47
100
AcDbScale
 70
     0
300
6" = 1'-0"
140
6.0
141
12.0
290
     0
  0
SCALE
  5
68
102
{ACAD_REACTORS
330
47
102
}
330
47
100
AcDbScale
 70
     0
300
1'-0" = 1'-0"
140
12.0
141
12.0
290
     0
  0
ENDSEC
  0
EOF
