  0
SECTION
  2
HEADER
  9
$ACADVER
  1
AC1015
  9
$ACADMAINTVER
 70
     6
  9
$DWGCODEPAGE
  3
ANSI_1252
  9
$INSBASE
 10
0.0
 20
0.0
 30
0.0
  9
$EXTMIN
 10
0.0
 20
0.0
 30
0.0
  9
$EXTMAX
 10
279.4
 20
215.9
 30
0.0
  9
$LIMMIN
 10
0.0
 20
0.0
  9
$LIMMAX
 10
279.4
 20
215.9
  9
$ORTHOMODE
 70
     0
  9
$REGENMODE
 70
     1
  9
$FILLMODE
 70
     1
  9
$QTEXTMODE
 70
     0
  9
$MIRRTEXT
 70
     1
  9
$LTSCALE
 40
1.0
  9
$ATTMODE
 70
     1
  9
$TEXTSIZE
 40
3.5277777778
  9
$TRACEWID
 40
1.0
  9
$TEXTSTYLE
  7
Standard
  9
$CLAYER
  8
0
  9
$CELTYPE
  6
ByLayer
  9
$CECOLOR
 62
   256
  9
$CELTSCALE
 40
1.0
  9
$DISPSILH
 70
     0
  9
$DIMSCALE
 40
1.0
  9
$DIMASZ
 40
3.556
  9
$DIMEXO
 40
1.0
  9
$DIMDLI
 40
3.75
  9
$DIMRND
 40
0.0
  9
$DIMDLE
 40
0.0
  9
$DIMEXE
 40
1.0
  9
$DIMTP
 40
0.0
  9
$DIMTM
 40
0.0
  9
$DIMTXT
 40
3.5277777778
  9
$DIMCEN
 40
2.5
  9
$DIMTSZ
 40
0.0
  9
$DIMTOL
 70
     0
  9
$DIMLIM
 70
     0
  9
$DIMTIH
 70
     1
  9
$DIMTOH
 70
     1
  9
$DIMSE1
 70
     0
  9
$DIMSE2
 70
     0
  9
$DIMTAD
 70
     1
  9
$DIMZIN
 70
     0
  9
$DIMBLK
  1

  9
$DIMASO
 70
     1
  9
$DIMSHO
 70
     1
  9
$DIMPOST
  1

  9
$DIMAPOST
  1

  9
$DIMALT
 70
     0
  9
$DIMALTD
 70
     3
  9
$DIMALTF
 40
0.0393700787
  9
$DIMLFAC
 40
2.0
  9
$DIMTOFL
 70
     1
  9
$DIMTVP
 40
0.0
  9
$DIMTIX
 70
     0
  9
$DIMSOXD
 70
     0
  9
$DIMSAH
 70
     0
  9
$DIMBLK1
  1

  9
$DIMBLK2
  1

  9
$DIMSTYLE
  2
ISO-25
  9
$DIMCLRD
 70
     0
  9
$DIMCLRE
 70
     0
  9
$DIMCLRT
 70
     0
  9
$DIMTFAC
 40
1.0
  9
$DIMGAP
 40
1.524
  9
$DIMJUST
 70
     0
  9
$DIMSD1
 70
     0
  9
$DIMSD2
 70
     0
  9
$DIMTOLJ
 70
     0
  9
$DIMTZIN
 70
     0
  9
$DIMALTZ
 70
     0
  9
$DIMALTTZ
 70
     0
  9
$DIMUPT
 70
     0
  9
$DIMDEC
 70
     2
  9
$DIMTDEC
 70
     2
  9
$DIMALTU
 70
     2
  9
$DIMALTTD
 70
     3
  9
$DIMTXSTY
  7
Standard
  9
$DIMAUNIT
 70
     0
  9
$DIMADEC
 70
     2
  9
$DIMALTRND
 40
0.0
  9
$DIMAZIN
 70
     0
  9
$DIMDSEP
 70
    44
  9
$DIMATFIT
 70
     3
  9
$DIMFRAC
 70
     0
  9
$DIMLDRBLK
  1

  9
$DIMLUNIT
 70
     2
  9
$DIMLWD
 70
    -2
  9
$DIMLWE
 70
    -2
  9
$DIMTMOVE
 70
     0
  9
$LUNITS
 70
     2
  9
$LUPREC
 70
     2
  9
$SKETCHINC
 40
1.0
  9
$FILLETRAD
 40
10.0
  9
$AUNITS
 70
     0
  9
$AUPREC
 70
     2
  9
$MENU
  1
.
  9
$ELEVATION
 40
0.0
  9
$PELEVATION
 40
0.0
  9
$THICKNESS
 40
0.0
  9
$LIMCHECK
 70
     0
  9
$CHAMFERA
 40
0.0
  9
$CHAMFERB
 40
0.0
  9
$CHAMFERC
 40
0.0
  9
$CHAMFERD
 40
0.0
  9
$SKPOLY
 70
     0
  9
$TDCREATE
 40
2460383.734095127
  9
$TDUCREATE
 40
2460383.504928461
  9
$TDUPDATE
 40
2460383.734096238
  9
$TDUUPDATE
 40
2460383.504929572
  9
$TDINDWG
 40
0.0000000116
  9
$TDUSRTIMER
 40
0.0000000116
  9
$USRTIMER
 70
     1
  9
$ANGBASE
 50
0.0
  9
$ANGDIR
 70
     0
  9
$PDMODE
 70
     0
  9
$PDSIZE
 40
-1.0
  9
$PLINEWID
 40
0.0
  9
$SPLFRAME
 70
     0
  9
$SPLINETYPE
 70
     6
  9
$SPLINESEGS
 70
     8
  9
$HANDSEED
  5
33B
  9
$SURFTAB1
 70
     6
  9
$SURFTAB2
 70
     6
  9
$SURFTYPE
 70
     6
  9
$SURFU
 70
     6
  9
$SURFV
 70
     6
  9
$UCSBASE
  2

  9
$UCSNAME
  2

  9
$UCSORG
 10
0.0
 20
0.0
 30
0.0
  9
$UCSXDIR
 10
1.0
 20
0.0
 30
0.0
  9
$UCSYDIR
 10
0.0
 20
1.0
 30
0.0
  9
$UCSORTHOREF
  2

  9
$UCSORTHOVIEW
 70
     0
  9
$UCSORGTOP
 10
0.0
 20
0.0
 30
0.0
  9
$UCSORGBOTTOM
 10
0.0
 20
0.0
 30
0.0
  9
$UCSORGLEFT
 10
0.0
 20
0.0
 30
0.0
  9
$UCSORGRIGHT
 10
0.0
 20
0.0
 30
0.0
  9
$UCSORGFRONT
 10
0.0
 20
0.0
 30
0.0
  9
$UCSORGBACK
 10
0.0
 20
0.0
 30
0.0
  9
$PUCSBASE
  2

  9
$PUCSNAME
  2

  9
$PUCSORG
 10
0.0
 20
0.0
 30
0.0
  9
$PUCSXDIR
 10
1.0
 20
0.0
 30
0.0
  9
$PUCSYDIR
 10
0.0
 20
1.0
 30
0.0
  9
$PUCSORTHOREF
  2

  9
$PUCSORTHOVIEW
 70
     0
  9
$PUCSORGTOP
 10
0.0
 20
0.0
 30
0.0
  9
$PUCSORGBOTTOM
 10
0.0
 20
0.0
 30
0.0
  9
$PUCSORGLEFT
 10
0.0
 20
0.0
 30
0.0
  9
$PUCSORGRIGHT
 10
0.0
 20
0.0
 30
0.0
  9
$PUCSORGFRONT
 10
0.0
 20
0.0
 30
0.0
  9
$PUCSORGBACK
 10
0.0
 20
0.0
 30
0.0
  9
$USERI1
 70
     0
  9
$USERI2
 70
     0
  9
$USERI3
 70
     0
  9
$USERI4
 70
     0
  9
$USERI5
 70
     0
  9
$USERR1
 40
0.0
  9
$USERR2
 40
0.0
  9
$USERR3
 40
0.0
  9
$USERR4
 40
0.0
  9
$USERR5
 40
0.0
  9
$WORLDVIEW
 70
     1
  9
$SHADEDGE
 70
     3
  9
$SHADEDIF
 70
    70
  9
$TILEMODE
 70
     1
  9
$MAXACTVP
 70
    64
  9
$PINSBASE
 10
0.0
 20
0.0
 30
0.0
  9
$PLIMCHECK
 70
     0
  9
$PEXTMIN
 10
1.0000000000E+20
 20
1.0000000000E+20
 30
1.0000000000E+20
  9
$PEXTMAX
 10
-1.0000000000E+20
 20
-1.0000000000E+20
 30
-1.0000000000E+20
  9
$PLIMMIN
 10
0.0
 20
0.0
  9
$PLIMMAX
 10
420.0
 20
297.0
  9
$UNITMODE
 70
     0
  9
$VISRETAIN
 70
     1
  9
$PLINEGEN
 70
     0
  9
$PSLTSCALE
 70
     1
  9
$TREEDEPTH
 70
  3020
  9
$CMLSTYLE
  2
Standard
  9
$CMLJUST
 70
     0
  9
$CMLSCALE
 40
20.0
  9
$PROXYGRAPHICS
 70
     1
  9
$MEASUREMENT
 70
     1
  9
$CELWEIGHT
370
    -1
  9
$ENDCAPS
280
     0
  9
$JOINSTYLE
280
     0
  9
$LWDISPLAY
290
     1
  9
$INSUNITS
 70
     4
  9
$HYPERLINKBASE
  1

  9
$STYLESHEET
  1

  9
$XEDIT
290
     1
  9
$CEPSNTYPE
380
     0
  9
$PSTYLEMODE
290
     1
  9
$FINGERPRINTGUID
  2
{36bd6254-cfe1-4464-8b28-ce474d7a7d1b}
  9
$VERSIONGUID
  2
{FAEB1C32-E019-11D5-929B-00C0DF256EC4}
  9
$EXTNAMES
290
     1
  9
$PSVPSCALE
 40
0.0
  9
$OLESTARTUP
290
     0
  0
ENDSEC
  0
SECTION
  2
CLASSES
  0
CLASS
  1
ACDBDICTIONARYWDFLT
  2
AcDbDictionaryWithDefault
  3
ObjectDBX Classes
 90
        0
280
     0
281
     0
  0
CLASS
  1
VISUALSTYLE
  2
AcDbVisualStyle
  3
ObjectDBX Classes
 90
     4095
280
     0
281
     0
  0
CLASS
  1
MATERIAL
  2
AcDbMaterial
  3
ObjectDBX Classes
 90
     1153
280
     0
281
     0
  0
CLASS
  1
SCALE
  2
AcDbScale
  3
ObjectDBX Classes
 90
     1153
280
     0
281
     0
  0
CLASS
  1
TABLESTYLE
  2
AcDbTableStyle
  3
ObjectDBX Classes
 90
     4095
280
     0
281
     0
  0
CLASS
  1
MLEADERSTYLE
  2
AcDbMLeaderStyle
  3
ACDB_MLEADERSTYLE_CLASS
 90
     4095
280
     0
281
     0
  0
CLASS
  1
SUN
  2
AcDbSun
  3
SCENEOE
 90
     1153
280
     0
281
     0
  0
CLASS
  1
ACDBPLACEHOLDER
  2
AcDbPlaceHolder
  3
ObjectDBX Classes
 90
        0
280
     0
281
     0
  0
CLASS
  1
LAYOUT
  2
AcDbLayout
  3
ObjectDBX Classes
 90
        0
280
     0
281
     0
  0
ENDSEC
  0
SECTION
  2
TABLES
  0
TABLE
  2
VPORT
  5
8
330
0
100
AcDbSymbolTable
 70
     1
  0
VPORT
  5
29
330
8
100
AcDbSymbolTableRecord
100
AcDbViewportTableRecord
  2
*Active
 70
     0
 10
0.0
 20
0.0
 11
1.0
 21
1.0
 12
139.7
 22
107.95
 13
0.0
 23
0.0
 14
10.0
 24
10.0
 15
10.0
 25
10.0
 16
0.0
 26
0.0
 36
1.0
 17
0.0
 27
0.0
 37
0.0
 40
215.9
 41
1.2941176471
 42
50.0
 43
0.0
 44
0.0
 50
0.0
 51
0.0
 71
     0
 72
  2000
 73
     1
 74
     3
 75
     0
 76
     0
 77
     0
 78
     0
281
     0
 65
     1
110
0.0
120
0.0
130
0.0
111
1.0
121
0.0
131
0.0
112
0.0
122
1.0
132
0.0
 79
     0
146
0.0
  0
ENDTAB
  0
TABLE
  2
LTYPE
  5
5
330
0
100
AcDbSymbolTable
 70
     6
  0
LTYPE
  5
14
330
5
100
AcDbSymbolTableRecord
100
AcDbLinetypeTableRecord
  2
ByBlock
 70
     0
  3

 72
    65
 73
     0
 40
0.0
  0
LTYPE
  5
15
330
5
100
AcDbSymbolTableRecord
100
AcDbLinetypeTableRecord
  2
ByLayer
 70
     0
  3

 72
    65
 73
     0
 40
0.0
  0
LTYPE
  5
16
330
5
100
AcDbSymbolTableRecord
100
AcDbLinetypeTableRecord
  2
Continuous
 70
     0
  3
Solid line
 72
    65
 73
     0
 40
0.0
  0
LTYPE
  5
6E
330
5
100
AcDbSymbolTableRecord
100
AcDbLinetypeTableRecord
  2
HIDDEN
 70
     0
  3
Hidden __ __ __ __ __ __ __ __ __ __ __ __ __ __
 72
    65
 73
     2
 40
1.905
 49
1.27
 74
     0
 49
-0.635
 74
     0
  0
LTYPE
  5
6F
330
5
100
AcDbSymbolTableRecord
100
AcDbLinetypeTableRecord
  2
PHANTOM
 70
     0
  3
Phantom ______  __  __  ______  __  __  ______
 72
    65
 73
     6
 40
12.7
 49
6.35
 74
     0
 49
-1.27
 74
     0
 49
1.27
 74
     0
 49
-1.27
 74
     0
 49
1.27
 74
     0
 49
-1.27
 74
     0
  0
LTYPE
  5
70
330
5
100
AcDbSymbolTableRecord
100
AcDbLinetypeTableRecord
  2
CENTER
 70
     0
  3
Center ____ _ ____ _ ____ _ ____ _ ____ _ ____
 72
    65
 73
     4
 40
10.16
 49
6.35
 74
     0
 49
-1.27
 74
     0
 49
1.27
 74
     0
 49
-1.27
 74
     0
  0
LTYPE
  5
71
330
5
100
AcDbSymbolTableRecord
100
AcDbLinetypeTableRecord
  2
CENTERX2
 70
     0
  3
Center (2x) ________  __  ________  __  _____
 72
    65
 73
     4
 40
20.32
 49
12.7
 74
     0
 49
-2.54
 74
     0
 49
2.54
 74
     0
 49
-2.54
 74
     0
  0
LTYPE
  5
72
330
5
100
AcDbSymbolTableRecord
100
AcDbLinetypeTableRecord
  2
DOT2
 70
     0
  3
Dot (.5x) ........................................
 72
    65
 73
     2
 40
0.635
 49
0.0
 74
     0
 49
-0.635
 74
     0
  0
ENDTAB
  0
TABLE
  2
LAYER
  5
2
330
0
100
AcDbSymbolTable
 70
     5
  0
LAYER
  5
10
330
2
100
AcDbSymbolTableRecord
100
AcDbLayerTableRecord
  2
0
 70
     0
 62
     7
  6
Continuous
370
    -3
390
F
  0
LAYER
  5
73
330
2
100
AcDbSymbolTableRecord
100
AcDbLayerTableRecord
  2
FORMAT
 70
     0
 62
     7
  6
Continuous
370
    -3
390
F
  0
LAYER
  5
74
330
2
100
AcDbSymbolTableRecord
100
AcDbLayerTableRecord
  2
OUT_LINE
 70
     0
 62
     7
  6
Continuous
370
    50
390
F
  0
LAYER
  5
75
330
2
100
AcDbSymbolTableRecord
100
AcDbLayerTableRecord
  2
WATERMARK
 70
     0
 62
   254
  6
Continuous
370
    -3
390
F
  0
LAYER
  5
76
330
2
100
AcDbSymbolTableRecord
100
AcDbLayerTableRecord
  2
LAYER3
 70
     0
 62
     7
  6
Continuous
370
    35
390
F
  0
ENDTAB
  0
TABLE
  2
STYLE
  5
3
330
0
100
AcDbSymbolTable
 70
     1
  0
STYLE
  5
11
330
3
100
AcDbSymbolTableRecord
100
AcDbTextStyleTableRecord
  2
Standard
 70
     0
 40
0.0
 41
1.0
 50
0.0
 71
     0
 42
3.5277777778
  3
txt
  4

  0
ENDTAB
  0
TABLE
  2
VIEW
  5
6
330
0
100
AcDbSymbolTable
 70
     0
  0
ENDTAB
  0
TABLE
  2
UCS
  5
7
330
0
100
AcDbSymbolTable
 70
     0
  0
ENDTAB
  0
TABLE
  2
APPID
  5
9
330
0
100
AcDbSymbolTable
 70
     1
  0
APPID
  5
12
330
9
100
AcDbSymbolTableRecord
100
AcDbRegAppTableRecord
  2
ACAD
 70
     0
  0
ENDTAB
  0
TABLE
  2
DIMSTYLE
  5
A
330
0
100
AcDbSymbolTable
 70
     1
100
AcDbDimStyleTable
  0
DIMSTYLE
105
27
330
A
100
AcDbSymbolTableRecord
100
AcDbDimStyleTableRecord
  2
ISO-25
 70
     0
 41
2.5
 42
0.625
 43
3.75
 44
1.25
 73
     0
 74
     0
 77
     1
 78
     8
140
2.5
141
2.5
143
0.0393700787
147
0.625
171
     3
172
     1
178
     0
271
     2
272
     2
274
     3
278
    44
283
     0
284
     8
340
11
  0
ENDTAB
  0
TABLE
  2
BLOCK_RECORD
  5
1
330
0
100
AcDbSymbolTable
 70
     4
  0
BLOCK_RECORD
  5
1F
330
1
100
AcDbSymbolTableRecord
100
AcDbBlockTableRecord
  2
*Model_Space
340
22
  0
BLOCK_RECORD
  5
1B
330
1
100
AcDbSymbolTableRecord
100
AcDbBlockTableRecord
  2
*Paper_Space
340
1E
  0
BLOCK_RECORD
  5
23
330
1
100
AcDbSymbolTableRecord
100
AcDbBlockTableRecord
  2
*Paper_Space0
340
26
  0
BLOCK_RECORD
  5
77
330
1
100
AcDbSymbolTableRecord
100
AcDbBlockTableRecord
  2
Block5
340
0
  0
BLOCK_RECORD
  5
85
330
1
100
AcDbSymbolTableRecord
100
AcDbBlockTableRecord
  2
Block2
340
0
  0
BLOCK_RECORD
  5
90
330
1
100
AcDbSymbolTableRecord
100
AcDbBlockTableRecord
  2
Block7
340
0
  0
ENDTAB
  0
ENDSEC
  0
SECTION
  2
BLOCKS
  0
BLOCK
  5
20
330
1F
100
AcDbEntity
  8
0
100
AcDbBlockBegin
  2
*Model_Space
 70
     0
 10
0.0
 20
0.0
 30
0.0
  3
*Model_Space
  1

  0
ENDBLK
  5
21
330
1F
100
AcDbEntity
  8
0
100
AcDbBlockEnd
  0
BLOCK
  5
1C
330
1B
100
AcDbEntity
 67
     1
  8
0
100
AcDbBlockBegin
  2
*Paper_Space
 70
     0
 10
0.0
 20
0.0
 30
0.0
  3
*Paper_Space
  1

  0
ENDBLK
  5
1D
330
1B
100
AcDbEntity
 67
     1
  8
0
100
AcDbBlockEnd
  0
BLOCK
  5
24
330
23
100
AcDbEntity
  8
0
100
AcDbBlockBegin
  2
*Paper_Space0
 70
     0
 10
0.0
 20
0.0
 30
0.0
  3
*Paper_Space0
  1

  0
ENDBLK
  5
25
330
23
100
AcDbEntity
  8
0
100
AcDbBlockEnd
  0
BLOCK
  5
78
330
77
100
AcDbEntity
  8
0
100
AcDbBlockBegin
  2
Block5
 70
     0
 10
0.0
 20
0.0
 30
0.0
  3
Block5
  1

  0
LINE
  5
7A
330
77
100
AcDbEntity
  8
LAYER3
100
AcDbLine
 10
251.0883122991
 20
64.4632252413
 30
0.0
 11
250.3611798328
 21
64.9733337839
 31
0.0
  0
LINE
  5
7B
330
77
100
AcDbEntity
  8
LAYER3
100
AcDbLine
 10
250.3611798328
 20
64.9733337839
 30
0.0
 11
251.0883122991
 21
65.4834423266
 31
0.0
  0
LINE
  5
7C
330
77
100
AcDbEntity
  8
LAYER3
100
AcDbLine
 10
250.3611798328
 20
65.6106440044
 30
0.0
 11
250.3611798328
 21
64.3360235634
 31
0.0
  0
LINE
  5
7D
330
77
100
AcDbEntity
  8
LAYER3
100
AcDbLine
 10
251.0883122991
 20
65.4834423266
 30
0.0
 11
251.0883122991
 21
64.4632252413
 31
0.0
  0
LINE
  5
7E
330
77
100
AcDbEntity
  8
LAYER3
  6
Continuous
 62
     7
370
    18
100
AcDbLine
 10
254.0738326611
 20
65.4834423266
 30
0.0
 11
254.0738326611
 21
64.4632252413
 31
0.0
  0
LINE
  5
7F
330
77
100
AcDbEntity
  8
LAYER3
100
AcDbLine
 10
251.0883122991
 20
64.9733337839
 30
0.0
 11
254.0738326611
 21
64.9733337839
 31
0.0
  0
LINE
  5
80
330
77
100
AcDbEntity
  8
LAYER3
100
AcDbLine
 10
254.0738326611
 20
64.9733337839
 30
0.0
 11
254.0738326611
 21
64.4632252413
 31
0.0
  0
LINE
  5
81
330
77
100
AcDbEntity
  8
LAYER3
100
AcDbLine
 10
254.0738326611
 20
65.4834423266
 30
0.0
 11
254.8009651274
 21
64.9733337839
 31
0.0
  0
LINE
  5
82
330
77
100
AcDbEntity
  8
LAYER3
100
AcDbLine
 10
254.8009651274
 20
64.9733337839
 30
0.0
 11
254.0738326611
 21
64.4632252413
 31
0.0
  0
LINE
  5
83
330
77
100
AcDbEntity
  8
LAYER3
100
AcDbLine
 10
254.0738326611
 20
65.4834423266
 30
0.0
 11
254.0738326611
 21
64.9733337839
 31
0.0
  0
LINE
  5
84
330
77
100
AcDbEntity
  8
LAYER3
100
AcDbLine
 10
254.8009651274
 20
65.6106440044
 30
0.0
 11
254.8009651274
 21
64.3360235634
 31
0.0
  0
ENDBLK
  5
79
330
77
100
AcDbEntity
  8
0
100
AcDbBlockEnd
  0
BLOCK
  5
86
330
85
100
AcDbEntity
  8
0
100
AcDbBlockBegin
  2
Block2
 70
     0
 10
0.0
 20
0.0
 30
0.0
  3
Block2
  1

  0
CIRCLE
  5
88
330
85
100
AcDbEntity
  8
FORMAT
100
AcDbCircle
 10
44.9757425281
 20
71.5551333392
 30
0.0
 40
3.500000000000012
  0
CIRCLE
  5
89
330
85
100
AcDbEntity
  8
FORMAT
100
AcDbCircle
 10
44.9757425281
 20
71.5551333392
 30
0.0
 40
1.664444312410222
  0
LINE
  5
8A
330
85
100
AcDbEntity
  8
FORMAT
100
AcDbLine
 10
50.8419693267
 20
74.6444962432
 30
0.0
 11
58.8419693267
 21
73.6204905773
 31
0.0
  0
LINE
  5
8B
330
85
100
AcDbEntity
  8
FORMAT
100
AcDbLine
 10
58.8419693267
 20
73.6204905773
 30
0.0
 11
58.8419693267
 21
69.4897761011
 31
0.0
  0
LINE
  5
8C
330
85
100
AcDbEntity
  8
FORMAT
100
AcDbLine
 10
58.8419693267
 20
69.4897761011
 30
0.0
 11
50.8419693267
 21
68.4657704351
 31
0.0
  0
LINE
  5
8D
330
85
100
AcDbEntity
  8
FORMAT
100
AcDbLine
 10
50.8419693267
 20
68.4657704351
 30
0.0
 11
50.8419693267
 21
74.6444962432
 31
0.0
  0
LINE
  5
8E
330
85
100
AcDbEntity
  8
FORMAT
  6
CENTERX2
100
AcDbLine
 10
58.8419693267
 20
71.5551333392
 30
0.0
 11
40.5246830005
 21
71.5551333392
 31
0.0
  0
LINE
  5
8F
330
85
100
AcDbEntity
  8
FORMAT
100
AcDbLine
 10
44.9757425281
 20
77.2283416432
 30
0.0
 11
44.9757425281
 21
65.8819250352
 31
0.0
  0
ENDBLK
  5
87
330
85
100
AcDbEntity
  8
0
100
AcDbBlockEnd
  0
BLOCK
  5
91
330
90
100
AcDbEntity
  8
0
100
AcDbBlockBegin
  2
Block7
 70
     0
 10
0.0
 20
0.0
 30
0.0
  3
Block7
  1

  0
LINE
  5
93
330
90
100
AcDbEntity
  8
FORMAT
100
AcDbLine
 10
221.8284763776
 20
80.2705155621
 30
0.0
 11
222.3963943455
 21
79.286852787
 31
0.0
  0
LINE
  5
94
330
90
100
AcDbEntity
  8
FORMAT
100
AcDbLine
 10
222.3963943455
 20
79.286852787
 30
0.0
 11
222.9643123135
 21
80.2705155621
 31
0.0
  0
LINE
  5
95
330
90
100
AcDbEntity
  8
FORMAT
100
AcDbLine
 10
221.8284763776
 20
80.2705155621
 30
0.0
 11
222.9643123135
 21
80.2705155621
 31
0.0
  0
LINE
  5
96
330
90
100
AcDbEntity
  8
FORMAT
100
AcDbLine
 10
222.9643123135
 20
80.2705155621
 30
0.0
 11
223.3725273771
 21
80.9775647926
 31
0.0
  0
LINE
  5
97
330
90
100
AcDbEntity
  8
FORMAT
100
AcDbLine
 10
223.3725273771
 20
80.9775647926
 30
0.0
 11
224.1023154201
 21
80.9775647926
 31
0.0
  0
ENDBLK
  5
92
330
90
100
AcDbEntity
  8
0
100
AcDbBlockEnd
  0
ENDSEC
  0
SECTION
  2
ENTITIES
  0
LINE
  5
98
330
1F
100
AcDbEntity
  8
0
  6
Continuous
 62
     7
370
    25
100
AcDbLine
 10
139.9307298254
 20
-57.1263408436
 30
0.0
 11
139.9307298254
 21
155.6950923395
 31
0.0
  0
LINE
  5
99
330
1F
100
AcDbEntity
  8
0
  6
Continuous
 62
     7
370
    25
100
AcDbLine
 10
124.1307298254
 20
155.6950923395
 30
0.0
 11
124.1307298254
 21
-57.1263408436
 31
0.0
  0
LINE
  5
9A
330
1F
100
AcDbEntity
  8
0
  6
Continuous
 62
     7
370
    25
100
AcDbLine
 10
124.1307298254
 20
-57.1263408436
 30
0.0
 11
124.1307298254
 21
-57.2731975253
 31
0.0
  0
LINE
  5
9B
330
1F
100
AcDbEntity
  8
0
  6
Continuous
 62
     7
370
    25
100
AcDbLine
 10
139.9307298254
 20
-57.2731975253
 30
0.0
 11
139.9307298254
 21
-57.1263408436
 31
0.0
  0
LINE
  5
9C
330
1F
100
AcDbEntity
  8
0
  6
Continuous
 62
     7
370
    25
100
AcDbLine
 10
222.3307298254
 20
148.5450923395
 30
0.0
 11
223.9357348149
 21
149.7699645683
 31
0.0
  0
LINE
  5
9D
330
1F
100
AcDbEntity
  8
0
  6
Continuous
 62
     7
370
    25
100
AcDbLine
 10
223.9357348149
 20
161.6202201106
 30
0.0
 11
222.3307298254
 21
162.8450923395
 31
0.0
  0
ARC
  5
9E
330
1F
100
AcDbEntity
  8
0
  6
Continuous
 62
     7
370
    25
100
AcDbCircle
 10
223.4807298254
 20
150.3661780028
 30
0.0
 40
0.7499999999999841
100
AcDbArc
 50
307.3493490446
 51
0.0
  0
ARC
  5
9F
330
1F
100
AcDbEntity
  8
0
  6
Continuous
 62
     7
370
    25
100
AcDbCircle
 10
223.4807298254
 20
161.0240066761
 30
0.0
 40
0.7499999999999841
100
AcDbArc
 50
0.0
 51
52.6506509554
  0
ARC
  5
A0
330
1F
100
AcDbEntity
  8
0
  6
Continuous
 62
     7
370
    25
100
AcDbCircle
 10
224.2307298254
 20
151.6950923395
 30
0.0
 40
0.5
100
AcDbArc
 50
270.0
 51
336.742337232
  0
ARC
  5
A1
330
1F
100
AcDbEntity
  8
0
  6
Continuous
 62
     7
370
    25
100
AcDbCircle
 10
224.2307298254
 20
159.6950923395
 30
0.0
 40
0.5
100
AcDbArc
 50
23.257662768
 51
90.0
  0
LINE
  5
A2
330
1F
100
AcDbEntity
  8
0
  6
Continuous
 62
     7
370
    25
100
AcDbLine
 10
222.3307298254
 20
152.2717239688
 30
0.0
 11
223.4127981412
 21
151.3197015657
 31
0.0
  0
ARC
  5
A3
330
1F
100
AcDbEntity
  8
0
  6
Continuous
 62
     7
370
    25
100
AcDbCircle
 10
214.9239097455
 20
155.6950923395
 30
0.0
 40
10.63
100
AcDbArc
 50
6.6431237694
 51
23.257662768
  0
ARC
  5
A4
330
1F
100
AcDbEntity
  8
0
  6
Continuous
 62
     7
370
    25
100
AcDbCircle
 10
214.9239097455
 20
155.6950923395
 30
0.0
 40
10.63
100
AcDbArc
 50
336.742337232
 51
353.3915325368
  0
LINE
  5
A5
330
1F
100
AcDbEntity
  8
0
  6
Continuous
 62
     7
370
    25
100
AcDbLine
 10
225.2226607934
 20
156.8217902432
 30
0.0
 11
225.4870054882
 21
156.8217902432
 31
0.0
  0
LINE
  5
A6
330
1F
100
AcDbEntity
  8
0
  6
Continuous
 62
     7
370
    25
100
AcDbLine
 10
225.4870054882
 20
154.5683944357
 30
0.0
 11
225.3871736866
 21
154.5683944357
 31
0.0
  0
ARC
  5
A7
330
1F
100
AcDbEntity
  8
0
  6
Continuous
 62
     7
370
    25
100
AcDbCircle
 10
39.8307298254
 20
159.6950923395
 30
0.0
 40
0.5000000000000083
100
AcDbArc
 50
90.0
 51
156.742337232
  0
ARC
  5
A8
330
1F
100
AcDbEntity
  8
0
  6
Continuous
 62
     7
370
    25
100
AcDbCircle
 10
39.8307298254
 20
151.6950923395
 30
0.0
 40
0.5000000000000083
100
AcDbArc
 50
203.257662768
 51
270.0
  0
ARC
  5
A9
330
1F
100
AcDbEntity
  8
0
  6
Continuous
 62
     7
370
    25
100
AcDbCircle
 10
49.1375499053
 20
155.6950923395
 30
0.0
 40
10.63000000000001
100
AcDbArc
 50
186.6454578524
 51
203.257662768
  0
ARC
  5
AA
330
1F
100
AcDbEntity
  8
0
  6
Continuous
 62
     7
370
    25
100
AcDbCircle
 10
49.1375499053
 20
155.6950923395
 30
0.0
 40
10.63
100
AcDbArc
 50
156.742337232
 51
173.3788698941
  0
LINE
  5
AB
330
1F
100
AcDbEntity
  8
0
  6
Continuous
 62
     7
370
    25
100
AcDbLine
 10
38.5739276807
 20
156.8217902432
 30
0.0
 11
38.8387988575
 21
156.8217902432
 31
0.0
  0
LINE
  5
AC
330
1F
100
AcDbEntity
  8
0
  6
Continuous
 62
     7
370
    25
100
AcDbLine
 10
38.6742859642
 20
154.5683944357
 30
0.0
 11
38.5739276807
 21
154.5683944357
 31
0.0
  0
LINE
  5
AD
330
1F
100
AcDbEntity
  8
0
  6
Continuous
 62
     7
370
    25
100
AcDbLine
 10
41.7307298254
 20
162.8450923395
 30
0.0
 11
40.1257248359
 21
161.6202201106
 31
0.0
  0
LINE
  5
AE
330
1F
100
AcDbEntity
  8
0
  6
Continuous
 62
     7
370
    25
100
AcDbLine
 10
40.1257248359
 20
149.7699645683
 30
0.0
 11
41.7307298254
 21
148.5450923395
 31
0.0
  0
ARC
  5
AF
330
1F
100
AcDbEntity
  8
0
  6
Continuous
 62
     7
370
    25
100
AcDbCircle
 10
40.5807298254
 20
161.0240066761
 30
0.0
 40
0.7500000000000014
100
AcDbArc
 50
127.3493490446
 51
180.0
  0
ARC
  5
B0
330
1F
100
AcDbEntity
  8
0
  6
Continuous
 62
     7
370
    25
100
AcDbCircle
 10
40.5807298254
 20
150.3661780028
 30
0.0
 40
0.7500000000000014
100
AcDbArc
 50
180.0
 51
232.6506509554
  0
LINE
  5
B1
330
1F
100
AcDbEntity
  8
0
  6
Continuous
 62
     7
370
    25
100
AcDbLine
 10
217.4687737826
 20
146.9648555841
 30
0.0
 11
221.8394560286
 21
147.0411461264
 31
0.0
  0
LINE
  5
B2
330
1F
100
AcDbEntity
  8
0
  6
Continuous
 62
     7
370
    25
100
AcDbLine
 10
221.8394560286
 20
164.8398811301
 30
0.0
 11
216.5353535687
 21
164.9324645829
 31
0.0
  0
ARC
  5
B3
330
1F
100
AcDbEntity
  8
0
  6
Continuous
 62
     7
370
    25
100
AcDbCircle
 10
221.8307298254
 20
147.541069974
 30
0.0
 40
0.5000000000000053
100
AcDbArc
 50
271.0
 51
0.0
  0
ARC
  5
B4
330
1F
100
AcDbEntity
  8
0
  6
Continuous
 62
     7
370
    25
100
AcDbCircle
 10
221.8307298254
 20
164.3399572825
 30
0.0
 40
0.5000000000000053
100
AcDbArc
 50
0.0
 51
89.0
  0
SPLINE
  5
B5
330
1F
100
AcDbEntity
  8
0
  6
Continuous
 62
     7
370
    25
100
AcDbSpline
210
0.0
220
0.0
230
1.0
 70
     8
 71
     3
 72
    12
 73
     8
 74
     0
 42
0.00000001
 43
0.00000001
 40
0.0
 40
0.0
 40
0.0
 40
0.0
 40
0.1110213958485529
 40
0.4537544599013407
 40
0.7304995870469849
 40
0.9573202587385877
 40
0.9999999999999999
 40
0.9999999999999999
 40
0.9999999999999999
 40
0.9999999999999999
 10
215.2571057551687
 20
165.2994518955758
 30
0.0
 10
215.1630013983483
 20
165.3552267751126
 30
0.0
 10
214.7783884030148
 20
165.5831837391451
 30
0.0
 10
214.2980098156152
 20
165.9122247795933
 30
0.0
 10
213.9066857844146
 20
166.2066975971278
 30
0.0
 10
213.76412893828
 20
166.3706709206038
 30
0.0
 10
213.7867829421457
 20
166.3367450198957
 30
0.0
 10
213.7903705693888
 20
166.3313723058118
 30
0.0
  0
ARC
  5
B6
330
1F
100
AcDbEntity
  8
0
  6
Continuous
 62
     7
370
    25
100
AcDbCircle
 10
216.5807298254
 20
167.5320685903
 30
0.0
 40
2.60000000000002
100
AcDbArc
 50
239.4420525213
 51
269.0
  0
SPLINE
  5
B7
330
1F
100
AcDbEntity
  8
0
  6
Continuous
 62
     7
370
    25
100
AcDbSpline
210
0.0
220
0.0
230
1.0
 70
     8
 71
     3
 72
    13
 73
     9
 74
     0
 42
0.00000001
 43
0.00000001
 40
0.0
 40
0.0
 40
0.0
 40
0.0
 40
0.0257777025631259
 40
0.1889924819795253
 40
0.3912819398086737
 40
0.6391253350241691
 40
0.9333979274773748
 40
1.0
 40
1.0
 40
1.0
 40
1.0
 10
213.7528373076122
 20
145.2026251661715
 30
0.0
 10
213.7499221191503
 20
145.1985665590233
 30
0.0
 10
213.7285490467638
 20
145.1688103681279
 30
0.0
 10
213.8466343733719
 20
145.2996639323996
 30
0.0
 10
214.1490487185855
 20
145.5295231590442
 30
0.0
 10
214.7441336296107
 20
145.9189608362979
 30
0.0
 10
215.3358917165832
 20
146.2631302983907
 30
0.0
 10
215.7603785678332
 20
146.4898574433349
 30
0.0
 10
215.8387207370009
 20
146.5317016048014
 30
0.0
  0
ARC
  5
B8
330
1F
100
AcDbEntity
  8
0
  6
Continuous
 62
     7
370
    25
100
AcDbCircle
 10
217.5307298254
 20
143.4153962663
 30
0.0
 40
3.550000000000002
100
AcDbArc
 50
91.0
 51
118.1920130769
  0
ARC
  5
B9
330
1F
100
AcDbEntity
  8
0
  6
Continuous
 62
     7
370
    25
100
AcDbCircle
 10
207.9807298254
 20
167.412403243
 30
0.0
 40
0.5000000000000063
100
AcDbArc
 50
89.0
 51
180.0
  0
ARC
  5
BA
330
1F
100
AcDbEntity
  8
0
  6
Continuous
 62
     7
370
    25
100
AcDbCircle
 10
207.9807298254
 20
144.4686240135
 30
0.0
 40
0.5000000000000063
100
AcDbArc
 50
180.0
 51
271.0
  0
LINE
  5
BB
330
1F
100
AcDbEntity
  8
0
  6
Continuous
 62
     7
370
    25
100
AcDbLine
 10
207.9894560286
 20
143.968700166
 30
0.0
 11
212.0156346383
 21
144.038977375
 31
0.0
  0
LINE
  5
BC
330
1F
100
AcDbEntity
  8
0
  6
Continuous
 62
     7
370
    25
100
AcDbLine
 10
212.0156346383
 20
167.8420498815
 30
0.0
 11
207.9894560286
 21
167.9123270906
 31
0.0
  0
ARC
  5
BD
330
1F
100
AcDbEntity
  8
0
  6
Continuous
 62
     7
370
    25
100
AcDbCircle
 10
211.9807298254
 20
165.8423544912
 30
0.0
 40
1.999999999999997
100
AcDbArc
 50
14.5234270308
 51
89.0
  0
SPLINE
  5
BE
330
1F
100
AcDbEntity
  8
0
  6
Continuous
 62
     7
370
    25
100
AcDbSpline
210
0.0
220
0.0
230
1.0
 70
     8
 71
     3
 72
     9
 73
     5
 74
     0
 42
0.00000001
 43
0.00000001
 40
0.0
 40
0.0
 40
0.0
 40
0.0
 40
0.6627403955522465
 40
1.0
 40
1.0
 40
1.0
 40
1.0
 10
222.3307298254247
 20
151.181314945924
 30
0.0
 10
222.3737024422662
 20
151.3358542525595
 30
0.0
 10
222.4385432413634
 20
151.5690365177007
 30
0.0
 10
222.5567830176489
 20
151.9195421569438
 30
0.0
 10
222.596660517829
 20
152.0377535501917
 30
0.0
  0
LINE
  5
BF
330
1F
100
AcDbEntity
  8
0
  6
Continuous
 62
     7
370
    25
100
AcDbLine
 10
222.471225691
 20
160.2076933726
 30
0.0
 11
222.3307298254
 21
160.6894803047
 31
0.0
  0
ARC
  5
C0
330
1F
100
AcDbEntity
  8
0
  6
Continuous
 62
     7
370
    25
100
AcDbCircle
 10
211.9807298254
 20
146.0386727653
 30
0.0
 40
1.999999999999982
100
AcDbArc
 50
271.0
 51
334.3886051651
  0
LINE
  5
C1
330
1F
100
AcDbEntity
  8
0
  6
Continuous
 62
     7
370
    25
100
AcDbLine
 10
46.5926858683
 20
164.6707503837
 30
0.0
 11
42.2220036222
 21
164.5944598413
 31
0.0
  0
LINE
  5
C2
330
1F
100
AcDbEntity
  8
0
  6
Continuous
 62
     7
370
    25
100
AcDbLine
 10
42.2220036222
 20
146.7957248376
 30
0.0
 11
47.5261060822
 21
146.7031413848
 31
0.0
  0
ARC
  5
C3
330
1F
100
AcDbEntity
  8
0
  6
Continuous
 62
     7
370
    25
100
AcDbCircle
 10
42.2307298254
 20
164.0945359937
 30
0.0
 40
0.5000000000000047
100
AcDbArc
 50
91.0
 51
180.0
  0
ARC
  5
C4
330
1F
100
AcDbEntity
  8
0
  6
Continuous
 62
     7
370
    25
100
AcDbCircle
 10
42.2307298254
 20
147.2956486852
 30
0.0
 40
0.5000000000000047
100
AcDbArc
 50
180.0
 51
269.0
  0
SPLINE
  5
C5
330
1F
100
AcDbEntity
  8
0
  6
Continuous
 62
     7
370
    25
100
AcDbSpline
210
0.0
220
0.0
230
1.0
 70
     8
 71
     3
 72
    12
 73
     8
 74
     0
 42
0.00000001
 43
0.00000001
 40
0.0
 40
0.0
 40
0.0
 40
0.0
 40
0.1110213958485484
 40
0.4537544599013409
 40
0.730499587047022
 40
0.9573202587385997
 40
1.0
 40
1.0
 40
1.0
 40
1.0
 10
48.80435389568065
 20
146.336154072158
 30
0.0
 10
48.89845825250108
 20
146.2803791926211
 30
0.0
 10
49.2830712478346
 20
146.0524222285885
 30
0.0
 10
49.76344983523405
 20
145.7233811881405
 30
0.0
 10
50.15477386643489
 20
145.4289083706058
 30
0.0
 10
50.29733071256936
 20
145.2649350471301
 30
0.0
 10
50.27467670870364
 20
145.298860947838
 30
0.0
 10
50.27108908146059
 20
145.3042336619219
 30
0.0
  0
ARC
  5
C6
330
1F
100
AcDbEntity
  8
0
  6
Continuous
 62
     7
370
    25
100
AcDbCircle
 10
47.4807298254
 20
144.1035373774
 30
0.0
 40
2.600000000000005
100
AcDbArc
 50
59.4420525213
 51
89.0
  0
SPLINE
  5
C7
330
1F
100
AcDbEntity
  8
0
  6
Continuous
 62
     7
370
    25
100
AcDbSpline
210
0.0
220
0.0
230
1.0
 70
     8
 71
     3
 72
    13
 73
     9
 74
     0
 42
0.00000001
 43
0.00000001
 40
0.0
 40
0.0
 40
0.0
 40
0.0
 40
0.0257777025631122
 40
0.1889924819795163
 40
0.391281939808674
 40
0.6391253350241799
 40
0.9333979274773946
 40
1.0
 40
1.0
 40
1.0
 40
1.0
 10
50.30862234323721
 20
166.4329808015622
 30
0.0
 10
50.31153753169905
 20
166.4370394087104
 30
0.0
 10
50.33291060408561
 20
166.4667955996058
 30
0.0
 10
50.21482527747747
 20
166.3359420353342
 30
0.0
 10
49.9124109322639
 20
166.1060828086895
 30
0.0
 10
49.31732602123866
 20
165.7166451314359
 30
0.0
 10
48.72556793426602
 20
165.3724756693429
 30
0.0
 10
48.30108108301609
 20
165.1457485243989
 30
0.0
 10
48.22273891384847
 20
165.1039043629324
 30
0.0
  0
ARC
  5
C8
330
1F
100
AcDbEntity
  8
0
  6
Continuous
 62
     7
370
    25
100
AcDbCircle
 10
46.5307298254
 20
168.2202097015
 30
0.0
 40
3.55000000000001
100
AcDbArc
 50
271.0
 51
298.1920130769
  0
ARC
  5
C9
330
1F
100
AcDbEntity
  8
0
  6
Continuous
 62
     7
370
    25
100
AcDbCircle
 10
56.0807298254
 20
144.2232027247
 30
0.0
 40
0.5000000000000062
100
AcDbArc
 50
269.0
 51
0.0
  0
ARC
  5
CA
330
1F
100
AcDbEntity
  8
0
  6
Continuous
 62
     7
370
    25
100
AcDbCircle
 10
56.0807298254
 20
167.1669819542
 30
0.0
 40
0.5
100
AcDbArc
 50
0.0
 51
91.0
  0
LINE
  5
CB
330
1F
100
AcDbEntity
  8
0
  6
Continuous
 62
     7
370
    25
100
AcDbLine
 10
52.0458250126
 20
143.7935560862
 30
0.0
 11
56.0720036222
 21
143.7232788771
 31
0.0
  0
LINE
  5
CC
330
1F
100
AcDbEntity
  8
0
  6
Continuous
 62
     7
370
    25
100
AcDbLine
 10
56.0720036222
 20
167.6669058018
 30
0.0
 11
52.0458250126
 21
167.5966285927
 31
0.0
  0
ARC
  5
CD
330
1F
100
AcDbEntity
  8
0
  6
Continuous
 62
     7
370
    25
100
AcDbCircle
 10
52.0807298254
 20
145.7932514765
 30
0.0
 40
2.0
100
AcDbArc
 50
194.5234270308
 51
269.0
  0
LINE
  5
CE
330
1F
100
AcDbEntity
  8
0
  6
Continuous
 62
     7
370
    25
100
AcDbLine
 10
41.7307298254
 20
160.4542910218
 30
0.0
 11
41.6552642714
 21
160.1991521354
 31
0.0
  0
LINE
  5
CF
330
1F
100
AcDbEntity
  8
0
  6
Continuous
 62
     7
370
    25
100
AcDbLine
 10
41.6591135955
 20
151.1917112792
 30
0.0
 11
41.7307298254
 21
150.946125663
 31
0.0
  0
ARC
  5
D0
330
1F
100
AcDbEntity
  8
0
  6
Continuous
 62
     7
370
    25
100
AcDbCircle
 10
52.0807298254
 20
165.5969332024
 30
0.0
 40
1.999999999999994
100
AcDbArc
 50
91.0
 51
154.3886051651
  0
LINE
  5
D1
330
1F
100
AcDbEntity
  8
0
  6
Continuous
 62
     7
370
    25
100
AcDbLine
 10
207.4807298254
 20
161.3450923395
 30
0.0
 11
200.8307298254
 21
161.3450923395
 31
0.0
  0
LINE
  5
D2
330
1F
100
AcDbEntity
  8
0
  6
Continuous
 62
     7
370
    25
100
AcDbLine
 10
200.8307298254
 20
150.0450923395
 30
0.0
 11
207.4807298254
 21
150.0450923395
 31
0.0
  0
LINE
  5
D3
330
1F
100
AcDbEntity
  8
0
  6
Continuous
 62
     7
370
    25
100
AcDbLine
 10
65.76140101
 20
165.2577803036
 30
0.0
 11
64.4807298254
 21
163.9450923395
 31
0.0
  0
LINE
  5
D4
330
1F
100
AcDbEntity
  8
0
  6
Continuous
 62
     7
370
    25
100
AcDbLine
 10
64.4807298254
 20
147.4450923395
 30
0.0
 11
65.76140101
 21
146.1324043753
 31
0.0
  0
LINE
  5
D5
330
1F
100
AcDbEntity
  8
0
  6
Continuous
 62
     7
370
    25
100
AcDbLine
 10
71.880191326
 20
146.2950923395
 30
0.0
 11
71.9307298254
 21
146.2950923395
 31
0.0
  0
LINE
  5
D6
330
1F
100
AcDbEntity
  8
0
  6
Continuous
 62
     7
370
    25
100
AcDbLine
 10
71.5271676936
 20
165.0950923395
 30
0.0
 11
71.2807298254
 21
165.0950923395
 31
0.0
  0
SPLINE
  5
D7
330
1F
100
AcDbEntity
  8
0
  6
Continuous
 62
     7
370
    25
100
AcDbSpline
210
0.0
220
0.0
230
1.0
 70
     8
 71
     3
 72
     9
 73
     5
 74
     0
 42
0.00000001
 43
0.00000001
 40
0.0
 40
0.0
 40
0.0
 40
0.0
 40
0.188823038340183
 40
1.0
 40
1.0
 40
1.0
 40
1.0
 10
70.9948495666
 20
164.7920320934406
 30
0.0
 10
70.97777663906238
 20
164.7624837634551
 30
0.0
 10
70.88735903066197
 20
164.605996873692
 30
0.0
 10
70.79689769490633
 20
164.4495047304735
 30
0.0
 10
70.72351754342039
 20
164.3225619092138
 30
0.0
  0
SPLINE
  5
D8
330
1F
100
AcDbEntity
  8
0
  6
Continuous
 62
     7
370
    25
100
AcDbSpline
210
0.0
220
0.0
230
1.0
 70
     8
 71
     3
 72
     9
 73
     5
 74
     0
 42
0.00000001
 43
0.00000001
 40
0.0
 40
0.0
 40
0.0
 40
0.0
 40
0.4987433617574337
 40
1.0
 40
1.0
 40
1.0
 40
1.0
 10
71.42907424683683
 20
147.0676208048211
 30
0.0
 10
71.50253736851626
 20
146.9405152493844
 30
0.0
 10
71.64983380855422
 20
146.6856636259186
 30
0.0
 10
71.79708565251283
 20
146.4308274974866
 30
0.0
 10
71.87089661679055
 20
146.3030891964461
 30
0.0
  0
SPLINE
  5
D9
330
1F
100
AcDbEntity
  8
0
  6
Continuous
 62
     7
370
    25
100
AcDbSpline
210
0.0
220
0.0
230
1.0
 70
     8
 71
     3
 72
     9
 73
     5
 74
     0
 42
0.00000001
 43
0.00000001
 40
0.0
 40
0.0
 40
0.0
 40
0.0
 40
0.501113075572497
 40
0.9999999999999999
 40
0.9999999999999999
 40
0.9999999999999999
 40
0.9999999999999999
 10
71.97832563500657
 20
164.3228270960247
 30
0.0
 10
71.90452181889734
 20
164.450520706134
 30
0.0
 10
71.75724205369683
 20
164.7053406586238
 30
0.0
 10
71.61001479939091
 20
164.9601556315021
 30
0.0
 10
71.53656504729832
 20
165.0872794896194
 30
0.0
  0
SPLINE
  5
DA
330
1F
100
AcDbEntity
  8
0
  6
Continuous
 62
     7
370
    25
100
AcDbSpline
210
0.0
220
0.0
230
1.0
 70
     8
 71
     3
 72
     9
 73
     5
 74
     0
 42
0.00000001
 43
0.00000001
 40
0.0
 40
0.0
 40
0.0
 40
0.0
 40
0.1964851983542632
 40
1.0
 40
1.0
 40
1.0
 40
1.0
 10
71.00206501823972
 20
146.6006636999217
 30
0.0
 10
71.02006232435318
 20
146.6317488516753
 30
0.0
 10
71.11165856806112
 20
146.7899549252826
 30
0.0
 10
71.20349165644568
 20
146.9490686987607
 30
0.0
 10
71.27728090224353
 20
147.076918970896
 30
0.0
  0
LINE
  5
DB
330
1F
100
AcDbEntity
  8
0
  6
Continuous
 62
     7
370
    25
100
AcDbLine
 10
71.2807298254
 20
165.0950923395
 30
0.0
 11
71.0131057335
 21
164.8274682475
 31
0.0
  0
LINE
  5
DC
330
1F
100
AcDbEntity
  8
0
  6
Continuous
 62
     7
370
    25
100
AcDbLine
 10
70.7807298254
 20
146.7950923395
 30
0.0
 11
70.9764585111
 21
146.5993636538
 31
0.0
  0
SPLINE
  5
DD
330
1F
100
AcDbEntity
  8
0
  6
Continuous
 62
     7
370
    25
100
AcDbSpline
210
0.0
220
0.0
230
1.0
 70
     8
 71
     3
 72
     9
 73
     5
 74
     0
 42
0.00000001
 43
0.00000001
 40
0.0
 40
0.0
 40
0.0
 40
0.0
 40
0.5166266336148583
 40
1.0
 40
1.0
 40
1.0
 40
1.0
 10
72.14511086673761
 20
164.3312977335184
 30
0.0
 10
72.11553285741961
 20
164.3312999626194
 30
0.0
 10
72.05828066135867
 20
164.3313042773428
 30
0.0
 10
72.00107947875209
 20
164.3313000252148
 30
0.0
 10
71.97342995055435
 20
164.3312979698493
 30
0.0
  0
SPLINE
  5
DE
330
1F
100
AcDbEntity
  8
0
  6
Continuous
 62
     7
370
    25
100
AcDbSpline
210
0.0
220
0.0
230
1.0
 70
     8
 71
     3
 72
     9
 73
     5
 74
     0
 42
0.00000001
 43
0.00000001
 40
0.0
 40
0.0
 40
0.0
 40
0.0
 40
0.4973303336687774
 40
1.0
 40
1.0
 40
1.0
 40
1.0
 10
71.29374377432175
 20
147.1433324398094
 30
0.0
 10
71.32297314025573
 20
147.1419679599377
 30
0.0
 10
71.38174567825544
 20
147.1392243511542
 30
0.0
 10
71.4405656484296
 20
147.1419582112615
 30
0.0
 10
71.47013266321065
 20
147.1433324398094
 30
0.0
  0
LINE
  5
DF
330
1F
100
AcDbEntity
  8
0
  6
Continuous
 62
     7
370
    25
100
AcDbLine
 10
70.7807298254
 20
163.8200923395
 30
0.0
 11
69.2807298254
 21
163.8200923395
 31
0.0
  0
LINE
  5
E0
330
1F
100
AcDbEntity
  8
0
  6
Continuous
 62
     7
370
    25
100
AcDbLine
 10
69.2807298254
 20
147.5700923395
 30
0.0
 11
70.7807298254
 21
147.5700923395
 31
0.0
  0
LINE
  5
E1
330
1F
100
AcDbEntity
  8
0
  6
Continuous
 62
     7
370
    25
100
AcDbLine
 10
199.5507242942
 20
146.13308667
 30
0.0
 11
200.8307298254
 21
147.4450923395
 31
0.0
  0
LINE
  5
E2
330
1F
100
AcDbEntity
  8
0
  6
Continuous
 62
     7
370
    25
100
AcDbLine
 10
200.8307298254
 20
163.9450923395
 30
0.0
 11
199.5507242942
 21
165.2570980089
 31
0.0
  0
LINE
  5
E3
330
1F
100
AcDbEntity
  8
0
  6
Continuous
 62
     7
370
    25
100
AcDbLine
 10
193.7076852
 20
165.0950923395
 30
0.0
 11
193.3807298254
 21
165.0950923395
 31
0.0
  0
SPLINE
  5
E4
330
1F
100
AcDbEntity
  8
0
  6
Continuous
 62
     7
370
    25
100
AcDbSpline
210
0.0
220
0.0
230
1.0
 70
     8
 71
     3
 72
     9
 73
     5
 74
     0
 42
0.00000001
 43
0.00000001
 40
0.0
 40
0.0
 40
0.0
 40
0.0
 40
0.4921597394042843
 40
0.9999999999999999
 40
0.9999999999999999
 40
0.9999999999999999
 40
0.9999999999999999
 10
193.0194559423889
 20
146.3165613034093
 30
0.0
 10
193.0906328828757
 20
146.4397490817159
 30
0.0
 10
193.2352545062797
 20
146.6900494790132
 30
0.0
 10
193.3799046236963
 20
146.940323877509
 30
0.0
 10
193.4533637770203
 20
147.0674232932616
 30
0.0
  0
SPLINE
  5
E5
330
1F
100
AcDbEntity
  8
0
  6
Continuous
 62
     7
370
    25
100
AcDbSpline
210
0.0
220
0.0
230
1.0
 70
     8
 71
     3
 72
     9
 73
     5
 74
     0
 42
0.00000001
 43
0.00000001
 40
0.0
 40
0.0
 40
0.0
 40
0.0
 40
0.4981873554341348
 40
1.0
 40
1.0
 40
1.0
 40
1.0
 10
194.1589207183447
 20
164.3227589931664
 30
0.0
 10
194.0855461503065
 20
164.4496969261392
 30
0.0
 10
193.9382630704814
 20
164.7044965142622
 30
0.0
 10
193.7910288433899
 20
164.9593493516916
 30
0.0
 10
193.7171448465225
 20
165.0872377280172
 30
0.0
  0
SPLINE
  5
E6
330
1F
100
AcDbEntity
  8
0
  6
Continuous
 62
     7
370
    25
100
AcDbSpline
210
0.0
220
0.0
230
1.0
 70
     8
 71
     3
 72
     9
 73
     5
 74
     0
 42
0.00000001
 43
0.00000001
 40
0.0
 40
0.0
 40
0.0
 40
0.0
 40
0.5011659921197231
 40
1.0
 40
1.0
 40
1.0
 40
1.0
 10
193.6096685709919
 20
147.0675545778975
 30
0.0
 10
193.6834843501595
 20
146.9398492800684
 30
0.0
 10
193.8307724350022
 20
146.6850329121643
 30
0.0
 10
193.9780252798149
 20
146.4301739957867
 30
0.0
 10
194.0514800065646
 20
146.303041701086
 30
0.0
  0
LINE
  5
E7
330
1F
100
AcDbEntity
  8
0
  6
Continuous
 62
     7
370
    25
100
AcDbLine
 10
194.4773161021
 20
164.6030502016
 30
0.0
 11
194.3152238198
 21
164.3226295779
 31
0.0
  0
LINE
  5
E8
330
1F
100
AcDbEntity
  8
0
  6
Continuous
 62
     7
370
    25
100
AcDbLine
 10
194.0709893363
 20
146.3353518503
 30
0.0
 11
194.5307298254
 21
146.7950923395
 31
0.0
  0
LINE
  5
E9
330
1F
100
AcDbEntity
  8
0
  6
Continuous
 62
     7
370
    25
100
AcDbLine
 10
194.5307298254
 20
164.5950923395
 30
0.0
 11
194.5126013574
 21
164.6132208075
 31
0.0
  0
SPLINE
  5
EA
330
1F
100
AcDbEntity
  8
0
  6
Continuous
 62
     7
370
    25
100
AcDbSpline
210
0.0
220
0.0
230
1.0
 70
     8
 71
     3
 72
     9
 73
     5
 74
     0
 42
0.00000001
 43
0.00000001
 40
0.0
 40
0.0
 40
0.0
 40
0.0
 40
0.5178081832965679
 40
1.0
 40
1.0
 40
1.0
 40
1.0
 10
193.4433932956115
 20
147.0588786606515
 30
0.0
 10
193.4729712617464
 20
147.0588898670363
 30
0.0
 10
193.5300927346952
 20
147.0589115089977
 30
0.0
 10
193.5871633349639
 20
147.0588902146257
 30
0.0
 10
193.6146823113878
 20
147.0588799466538
 30
0.0
  0
SPLINE
  5
EB
330
1F
100
AcDbEntity
  8
0
  6
Continuous
 62
     7
370
    25
100
AcDbSpline
210
0.0
220
0.0
230
1.0
 70
     8
 71
     3
 72
     9
 73
     5
 74
     0
 42
0.00000001
 43
0.00000001
 40
0.0
 40
0.0
 40
0.0
 40
0.0
 40
0.5105586537199035
 40
1.0
 40
1.0
 40
1.0
 40
1.0
 10
194.3253371350341
 20
164.3313060164957
 30
0.0
 10
194.2962158888879
 20
164.3312805173058
 30
0.0
 10
194.2391778856458
 20
164.3312305736025
 30
0.0
 10
194.1819782233732
 20
164.3312792966958
 30
0.0
 10
194.1539823436638
 20
164.3313031437921
 30
0.0
  0
LINE
  5
EC
330
1F
100
AcDbEntity
  8
0
  6
Continuous
 62
     7
370
    25
100
AcDbLine
 10
194.5307298254
 20
147.5700923395
 30
0.0
 11
196.0307298254
 21
147.5700923395
 31
0.0
  0
LINE
  5
ED
330
1F
100
AcDbEntity
  8
0
  6
Continuous
 62
     7
370
    25
100
AcDbLine
 10
196.0307298254
 20
163.8200923395
 30
0.0
 11
194.5307298254
 21
163.8200923395
 31
0.0
  0
LINE
  5
EE
330
1F
100
AcDbEntity
  8
0
  6
Continuous
 62
     7
370
    25
100
AcDbLine
 10
88.9806566242
 20
139.3450191382
 30
0.0
 11
89.1307298254
 21
139.4950923395
 31
0.0
  0
LINE
  5
EF
330
1F
100
AcDbEntity
  8
0
  6
Continuous
 62
     7
370
    25
100
AcDbLine
 10
89.1307298254
 20
171.8950923395
 30
0.0
 11
88.9806566242
 21
172.0451655407
 31
0.0
  0
LINE
  5
F0
330
1F
100
AcDbEntity
  8
0
  6
Continuous
 62
     7
370
    25
100
AcDbLine
 10
79.8235917296
 20
172.0379542436
 30
0.0
 11
79.6807298254
 21
171.8950923395
 31
0.0
  0
LINE
  5
F1
330
1F
100
AcDbEntity
  8
0
  6
Continuous
 62
     7
370
    25
100
AcDbLine
 10
79.6807298254
 20
139.4950923395
 30
0.0
 11
79.8235917296
 21
139.3522304353
 31
0.0
  0
ARC
  5
F2
330
1F
100
AcDbEntity
  8
0
  6
Continuous
 62
     7
370
    25
100
AcDbCircle
 10
79.6807298254
 20
161.4360807115
 30
0.0
 40
9.134011627906984
100
AcDbArc
 50
90.0
 51
148.0464183091
  0
ARC
  5
F3
330
1F
100
AcDbEntity
  8
0
  6
Continuous
 62
     7
370
    25
100
AcDbCircle
 10
79.6807298254
 20
149.9541039674
 30
0.0
 40
9.134011627906972
100
AcDbArc
 50
211.9535816909
 51
270.0
  0
LINE
  5
F4
330
1F
100
AcDbEntity
  8
0
  6
Continuous
 62
     7
370
    25
100
AcDbLine
 10
87.9373764608
 20
172.4223770709
 30
0.0
 11
80.887076909
 21
172.4223770709
 31
0.0
  0
LINE
  5
F5
330
1F
100
AcDbEntity
  8
0
  6
Continuous
 62
     7
370
    25
100
AcDbLine
 10
80.887076909
 20
138.967807608
 30
0.0
 11
87.9373764608
 21
138.967807608
 31
0.0
  0
LINE
  5
F6
330
1F
100
AcDbEntity
  8
0
  6
Continuous
 62
     7
370
    25
100
AcDbLine
 10
176.2947124624
 20
172.0090749764
 30
0.0
 11
176.1807298254
 21
171.8950923395
 31
0.0
  0
LINE
  5
F7
330
1F
100
AcDbEntity
  8
0
  6
Continuous
 62
     7
370
    25
100
AcDbLine
 10
176.1807298254
 20
139.4950923395
 30
0.0
 11
176.2947124624
 21
139.3811097025
 31
0.0
  0
LINE
  5
F8
330
1F
100
AcDbEntity
  8
0
  6
Continuous
 62
     7
370
    25
100
AcDbLine
 10
185.5167471885
 20
139.3811097025
 30
0.0
 11
185.6307298254
 21
139.4950923395
 31
0.0
  0
LINE
  5
F9
330
1F
100
AcDbEntity
  8
0
  6
Continuous
 62
     7
370
    25
100
AcDbLine
 10
185.6307298254
 20
171.8950923395
 30
0.0
 11
185.5167471885
 21
172.0090749764
 31
0.0
  0
ARC
  5
FA
330
1F
100
AcDbEntity
  8
0
  6
Continuous
 62
     7
370
    25
100
AcDbCircle
 10
185.6307298254
 20
149.9541039674
 30
0.0
 40
9.134011627906972
100
AcDbArc
 50
270.0
 51
328.0464183091
  0
ARC
  5
FB
330
1F
100
AcDbEntity
  8
0
  6
Continuous
 62
     7
370
    25
100
AcDbCircle
 10
185.6307298254
 20
161.4360807115
 30
0.0
 40
9.134011627906984
100
AcDbArc
 50
31.9535816909
 51
90.0
  0
LINE
  5
FC
330
1F
100
AcDbEntity
  8
0
  6
Continuous
 62
     7
370
    25
100
AcDbLine
 10
184.4373764608
 20
172.4223770709
 30
0.0
 11
177.387076909
 21
172.4223770709
 31
0.0
  0
LINE
  5
FD
330
1F
100
AcDbEntity
  8
0
  6
Continuous
 62
     7
370
    25
100
AcDbLine
 10
177.387076909
 20
138.967807608
 30
0.0
 11
184.4373764608
 21
138.967807608
 31
0.0
  0
LINE
  5
FE
330
1F
100
AcDbEntity
  8
0
  6
Continuous
 62
     7
370
    25
100
AcDbLine
 10
56.5807298254
 20
150.0450923395
 30
0.0
 11
64.4807298254
 21
150.0450923395
 31
0.0
  0
LINE
  5
FF
330
1F
100
AcDbEntity
  8
0
  6
Continuous
 62
     7
370
    25
100
AcDbLine
 10
64.4807298254
 20
161.3450923395
 30
0.0
 11
56.5807298254
 21
161.3450923395
 31
0.0
  0
LINE
  5
100
330
1F
100
AcDbEntity
  8
0
  6
Continuous
 62
     7
370
    25
100
AcDbLine
 10
90.5432298213
 20
141.1950923395
 30
0.0
 11
90.8307298254
 21
141.1950923395
 31
0.0
  0
LINE
  5
101
330
1F
100
AcDbEntity
  8
0
  6
Continuous
 62
     7
370
    25
100
AcDbLine
 10
89.1307298254
 20
141.1950923395
 30
0.0
 11
89.2307298254
 21
141.1950923395
 31
0.0
  0
LINE
  5
102
330
1F
100
AcDbEntity
  8
0
  6
Continuous
 62
     7
370
    25
100
AcDbLine
 10
90.8307298254
 20
170.1950923395
 30
0.0
 11
89.7932298213
 21
170.1950923395
 31
0.0
  0
SPLINE
  5
103
330
1F
100
AcDbEntity
  8
0
  6
Continuous
 62
     7
370
    25
100
AcDbSpline
210
0.0
220
0.0
230
1.0
 70
     8
 71
     3
 72
     9
 73
     5
 74
     0
 42
0.00000001
 43
0.00000001
 40
0.0
 40
0.0
 40
0.0
 40
0.0
 40
0.5036319833775901
 40
1.0
 40
1.0
 40
1.0
 40
1.0
 10
175.5744448788995
 20
170.1895642336502
 30
0.0
 10
175.4962582608095
 20
170.0541922449383
 30
0.0
 10
175.3410127230547
 20
169.7854007599258
 30
0.0
 10
175.1857631461605
 20
169.5166117610035
 30
0.0
 10
175.108702221596
 20
169.3831934987185
 30
0.0
  0
SPLINE
  5
104
330
1F
100
AcDbEntity
  8
0
  6
Continuous
 62
     7
370
    25
100
AcDbSpline
210
0.0
220
0.0
230
1.0
 70
     8
 71
     3
 72
     9
 73
     5
 74
     0
 42
0.00000001
 43
0.00000001
 40
0.0
 40
0.0
 40
0.0
 40
0.0
 40
0.499995754777303
 40
1.0
 40
1.0
 40
1.0
 40
1.0
 10
175.8553230359515
 20
142.0128417161086
 30
0.0
 10
175.9335103630395
 20
141.8774732796815
 30
0.0
 10
176.0898863449171
 20
141.6067341081312
 30
0.0
 10
176.2462582583496
 20
141.335992432453
 30
0.0
 10
176.3244448788995
 20
141.2006204452552
 30
0.0
  0
SPLINE
  5
105
330
1F
100
AcDbEntity
  8
0
  6
Continuous
 62
     7
370
    25
100
AcDbSpline
210
0.0
220
0.0
230
1.0
 70
     8
 71
     3
 72
     9
 73
     5
 74
     0
 42
0.00000001
 43
0.00000001
 40
0.0
 40
0.0
 40
0.0
 40
0.0
 40
0.5000043425884825
 40
0.9999999999999999
 40
0.9999999999999999
 40
0.9999999999999999
 40
0.9999999999999999
 10
89.78703812376848
 20
170.1897261855266
 30
0.0
 10
89.70885081138914
 20
170.0543530527972
 30
0.0
 10
89.55247754475995
 20
169.783609138797
 30
0.0
 10
89.39610011624134
 20
169.5128673051549
 30
0.0
 10
89.31791208106486
 20
169.3774975640542
 30
0.0
  0
SPLINE
  5
106
330
1F
100
AcDbEntity
  8
0
  6
Continuous
 62
     7
370
    25
100
AcDbSpline
210
0.0
220
0.0
230
1.0
 70
     8
 71
     3
 72
     9
 73
     5
 74
     0
 42
0.00000001
 43
0.00000001
 40
0.0
 40
0.0
 40
0.0
 40
0.0
 40
0.496464475505401
 40
1.0
 40
1.0
 40
1.0
 40
1.0
 10
90.07120198616511
 20
142.0069911519527
 30
0.0
 10
90.1482933790288
 20
141.8735200615129
 30
0.0
 10
90.3035741627852
 20
141.6046768773072
 30
0.0
 10
90.45885081383857
 20
141.3358316273326
 30
0.0
 10
90.5370381237685
 20
141.2004584933788
 30
0.0
  0
SPLINE
  5
107
330
1F
100
AcDbEntity
  8
0
  6
Continuous
 62
     7
370
    25
100
AcDbSpline
210
0.0
220
0.0
230
1.0
 70
     8
 71
     3
 72
     9
 73
     5
 74
     0
 42
0.00000001
 43
0.00000001
 40
0.0
 40
0.0
 40
0.0
 40
0.0
 40
0.4999956574115232
 40
1.0
 40
1.0
 40
1.0
 40
1.0
 10
176.2435475697845
 20
169.3774975640542
 30
0.0
 10
176.165359534608
 20
169.5128673051549
 30
0.0
 10
176.0089821060894
 20
169.7836091387969
 30
0.0
 10
175.8526088394602
 20
170.0543530527971
 30
0.0
 10
175.7744215270809
 20
170.1897261855266
 30
0.0
  0
SPLINE
  5
108
330
1F
100
AcDbEntity
  8
0
  6
Continuous
 62
     7
370
    25
100
AcDbSpline
210
0.0
220
0.0
230
1.0
 70
     8
 71
     3
 72
     9
 73
     5
 74
     0
 42
0.00000001
 43
0.00000001
 40
0.0
 40
0.0
 40
0.0
 40
0.0
 40
0.4999956574115158
 40
1.0
 40
1.0
 40
1.0
 40
1.0
 10
174.7435475697845
 20
169.3774975640542
 30
0.0
 10
174.6653595346081
 20
169.5128673051549
 30
0.0
 10
174.5089821060895
 20
169.7836091387968
 30
0.0
 10
174.3526088394602
 20
170.0543530527972
 30
0.0
 10
174.2744215270809
 20
170.1897261855266
 30
0.0
  0
SPLINE
  5
109
330
1F
100
AcDbEntity
  8
0
  6
Continuous
 62
     7
370
    25
100
AcDbSpline
210
0.0
220
0.0
230
1.0
 70
     8
 71
     3
 72
     9
 73
     5
 74
     0
 42
0.00000001
 43
0.00000001
 40
0.0
 40
0.0
 40
0.0
 40
0.0
 40
0.503535506867365
 40
1.0
 40
1.0
 40
1.0
 40
1.0
 10
175.0244215270809
 20
141.2004584933788
 30
0.0
 10
175.1026088370108
 20
141.3358316273326
 30
0.0
 10
175.2578854935
 20
141.6046768867187
 30
0.0
 10
175.4131662826923
 20
141.8735200803357
 30
0.0
 10
175.4902576809919
 20
142.0069911801869
 30
0.0
  0
SPLINE
  5
10A
330
1F
100
AcDbEntity
  8
0
  6
Continuous
 62
     7
370
    25
100
AcDbSpline
210
0.0
220
0.0
230
1.0
 70
     8
 71
     3
 72
     9
 73
     5
 74
     0
 42
0.00000001
 43
0.00000001
 40
0.0
 40
0.0
 40
0.0
 40
0.0
 40
0.5035355244946027
 40
0.9999999999999999
 40
0.9999999999999999
 40
0.9999999999999999
 40
0.9999999999999999
 10
173.5244215270809
 20
141.2004584933788
 30
0.0
 10
173.6026088370108
 20
141.3358316273327
 30
0.0
 10
173.7578854880641
 20
141.6046768773073
 30
0.0
 10
173.9131662718206
 20
141.8735200615129
 30
0.0
 10
173.9902576646842
 20
142.0069911519527
 30
0.0
  0
LINE
  5
10B
330
1F
100
AcDbEntity
  8
0
  6
Continuous
 62
     7
370
    25
100
AcDbLine
 10
174.2682298295
 20
170.1950923395
 30
0.0
 11
173.2307298254
 21
170.1950923395
 31
0.0
  0
LINE
  5
10C
330
1F
100
AcDbEntity
  8
0
  6
Continuous
 62
     7
370
    25
100
AcDbLine
 10
175.7682298295
 20
170.1950923395
 30
0.0
 11
175.5807298254
 21
170.1950923395
 31
0.0
  0
LINE
  5
10D
330
1F
100
AcDbEntity
  8
0
  6
Continuous
 62
     7
370
    25
100
AcDbLine
 10
174.8307298254
 20
141.1950923395
 30
0.0
 11
175.0182298295
 21
141.1950923395
 31
0.0
  0
LINE
  5
10E
330
1F
100
AcDbEntity
  8
0
  6
Continuous
 62
     7
370
    25
100
AcDbLine
 10
173.2307298254
 20
141.1950923395
 30
0.0
 11
173.5182298295
 21
141.1950923395
 31
0.0
  0
LINE
  5
10F
330
1F
100
AcDbEntity
  8
0
  6
Continuous
 62
     7
370
    25
100
AcDbLine
 10
175.1119652902
 20
169.3831934987
 30
0.0
 11
174.740257681
 21
169.3831934987
 31
0.0
  0
LINE
  5
110
330
1F
100
AcDbEntity
  8
0
  6
Continuous
 62
     7
370
    25
100
AcDbLine
 10
175.4869652902
 20
142.0069911802
 30
0.0
 11
175.8587022216
 21
142.0069911802
 31
0.0
  0
LINE
  5
111
330
1F
100
AcDbEntity
  8
0
  6
Continuous
 62
     7
370
    25
100
AcDbLine
 10
89.3212019699
 20
169.3831934987
 30
0.0
 11
88.9494943607
 21
169.3831934987
 31
0.0
  0
SPLINE
  5
112
330
1F
100
AcDbEntity
  8
0
  6
Continuous
 62
     7
370
    25
100
AcDbSpline
210
0.0
220
0.0
230
1.0
 70
     8
 71
     3
 72
    17
 73
    13
 74
     0
 42
0.00000001
 43
0.00000001
 40
0.0
 40
0.0
 40
0.0
 40
0.0
 40
0.0945559122344756
 40
0.2168932501307518
 40
0.3126350607124658
 40
0.3847450754306701
 40
0.478631271196108
 40
0.5943425560924975
 40
0.7319493352502576
 40
0.8359239586399744
 40
0.9460271243545789
 40
0.9999999999999999
 40
0.9999999999999999
 40
0.9999999999999999
 40
0.9999999999999999
 10
129.968750233299
 20
183.7959245525181
 30
0.0
 10
129.9136048826775
 20
184.9131663866932
 30
0.0
 10
129.7871119533275
 20
187.4759063240477
 30
0.0
 10
129.5660463943578
 20
191.3796870839329
 30
0.0
 10
129.3396149693063
 20
195.0735571504399
 30
0.0
 10
129.1173802319121
 20
198.4553770280179
 30
0.0
 10
128.8597347544052
 20
202.1314046873646
 30
0.0
 10
128.5125792720789
 20
206.6946218061793
 30
0.0
 10
128.1183674954334
 20
211.392756370992
 30
0.0
 10
127.6943063347167
 20
215.9615580577399
 30
0.0
 10
127.3523770600485
 20
219.4062301031484
 30
0.0
 10
127.1253058582958
 20
221.4488718159244
 30
0.0
 10
127.0506107008964
 20
222.1207995772109
 30
0.0
  0
SPLINE
  5
113
330
1F
100
AcDbEntity
  8
0
  6
Continuous
 62
     7
370
    25
100
AcDbSpline
210
0.0
220
0.0
230
1.0
 70
     8
 71
     3
 72
    42
 73
    38
 74
     0
 42
0.00000001
 43
0.00000001
 40
0.0
 40
0.0
 40
0.0
 40
0.0
 40
0.0232991835441114
 40
0.0473039893772797
 40
0.0749544656269667
 40
0.0965002670960018
 40
0.1201637705934084
 40
0.1441685133653794
 40
0.1624412126397068
 40
0.1794592833164791
 40
0.1942886040877125
 40
0.2068517438144643
 40
0.220332078084474
 40
0.2342946082718791
 40
0.2503686574921509
 40
0.2784805157932898
 40
0.30886325308972
 40
0.3391391042084666
 40
0.3694465435108696
 40
0.4085723527319369
 40
0.445851859083655
 40
0.4820943358249424
 40
0.5201947191679402
 40
0.5604385620591203
 40
0.6028186500855637
 40
0.6466766808219361
 40
0.6889621551608547
 40
0.729303325681641
 40
0.7582998687913074
 40
0.7862195786783278
 40
0.8130691056790574
 40
0.8405304445158019
 40
0.8734839504735286
 40
0.9122200712101395
 40
0.9412569830436386
 40
0.9728480577443669
 40
1.0
 40
1.0
 40
1.0
 40
1.0
 10
121.5710743791643
 20
252.5549413744936
 30
0.0
 10
121.3724957309968
 20
253.1320962305836
 30
0.0
 10
120.9693244247713
 20
254.3038852389766
 30
0.0
 10
120.264570345808
 20
255.8722180192303
 30
0.0
 10
119.3977961097972
 20
257.4503345733845
 30
0.0
 10
118.3065389466704
 20
258.9036756879501
 30
0.0
 10
117.0393425399377
 20
260.1286757252268
 30
0.0
 10
115.4212234300448
 20
261.1186065432593
 30
0.0
 10
113.5811860660049
 20
261.6605526916975
 30
0.0
 10
111.9412307676721
 20
261.7356751633424
 30
0.0
 10
110.5368403072111
 20
261.4987458947253
 30
0.0
 10
109.328616084447
 20
261.0684842079007
 30
0.0
 10
108.256750429143
 20
260.4774960542256
 30
0.0
 10
107.3270785294726
 20
259.7674599075734
 30
0.0
 10
106.306143316291
 20
258.7548695372168
 30
0.0
 10
105.2683675896171
 20
257.3400665030142
 30
0.0
 10
104.2676151703713
 20
255.4653407151599
 30
0.0
 10
103.4082033906333
 20
253.3650649006839
 30
0.0
 10
102.5857850355004
 20
250.8882735569427
 30
0.0
 10
101.7616220762329
 20
247.8528244709528
 30
0.0
 10
100.9477328423113
 20
244.2312475267834
 30
0.0
 10
100.1897063448875
 20
240.2818215267622
 30
0.0
 10
99.44951227655692
 20
235.8243381174275
 30
0.0
 10
98.71767094065076
 20
230.7450941601002
 30
0.0
 10
98.00507610319126
 20
225.0739470649509
 30
0.0
 10
97.34123758520391
 20
219.0232924015886
 30
0.0
 10
96.75048796569533
 20
212.8770093900779
 30
0.0
 10
96.28204657059098
 20
207.3714078259549
 30
0.0
 10
95.9126780557561
 20
202.5718445429378
 30
0.0
 10
95.6218647470902
 20
198.4626897516558
 30
0.0
 10
95.3622267878173
 20
194.479005283926
 30
0.0
 10
95.1130452512809
 20
190.3288618244207
 30
0.0
 10
94.86277236290763
 20
185.7495168848154
 30
0.0
 10
94.64621546439145
 20
181.3024146584741
 30
0.0
 10
94.46759242286619
 20
177.1769260605928
 30
0.0
 10
94.33245904500377
 20
173.723358237294
 30
0.0
 10
94.26345161036038
 20
171.6523464268545
 30
0.0
 10
94.231555293526
 20
170.6950923394527
 30
0.0
  0
SPLINE
  5
114
330
1F
100
AcDbEntity
  8
0
  6
Continuous
 62
     7
370
    25
100
AcDbSpline
210
0.0
220
0.0
230
1.0
 70
     8
 71
     3
 72
    29
 73
    25
 74
     0
 42
0.00000001
 43
0.00000001
 40
0.0
 40
0.0
 40
0.0
 40
0.0
 40
0.0281667855961192
 40
0.0894749242663802
 40
0.1437849443134559
 40
0.1911223367577242
 40
0.23150561960673
 40
0.2663341219491406
 40
0.3018367149465623
 40
0.338760549242406
 40
0.3901808230839393
 40
0.4440911349706843
 40
0.5004659815113527
 40
0.5583104774261436
 40
0.6137987095965618
 40
0.666539813652806
 40
0.7165416253630886
 40
0.764311200464271
 40
0.813732228763448
 40
0.8523816552885517
 40
0.8922269193650167
 40
0.9322743377868062
 40
0.9722914422466362
 40
1.0
 40
1.0
 40
1.0
 40
1.0
 10
106.2378704686155
 20
170.6950923394527
 30
0.0
 10
106.2598740261837
 20
171.3788111060675
 30
0.0
 10
106.3297707717774
 20
173.5507197412792
 30
0.0
 10
106.4942112865035
 20
177.6426267745484
 30
0.0
 10
106.7164238096535
 20
182.5361326359711
 30
0.0
 10
106.9495316710106
 20
187.064113423595
 30
0.0
 10
107.1789192971389
 20
191.1041515616265
 30
0.0
 10
107.4092257861944
 20
194.8391413298586
 30
0.0
 10
107.6539845282129
 20
198.5176293269748
 30
0.0
 10
107.9627968455187
 20
202.8106193048491
 30
0.0
 10
108.3540566089033
 20
207.7698150013069
 30
0.0
 10
108.8477081937895
 20
213.3733876082153
 30
0.0
 10
109.4138216111492
 20
219.0844888284187
 30
0.0
 10
110.0392481091255
 20
224.6407306022661
 30
0.0
 10
110.6996416165298
 20
229.7940051536793
 30
0.0
 10
111.3696060304623
 20
234.3764498275041
 30
0.0
 10
112.0398793016955
 20
238.3733291001316
 30
0.0
 10
112.7228958330994
 20
241.9061381754369
 30
0.0
 10
113.3631946146948
 20
244.7381546464942
 30
0.0
 10
113.960388250549
 20
246.9970213932917
 30
0.0
 10
114.516264498741
 20
248.7633003438579
 30
0.0
 10
114.9906037699182
 20
250.0099911539168
 30
0.0
 10
115.3303881167865
 20
250.69662813584
 30
0.0
 10
115.3289221333323
 20
250.7351707108705
 30
0.0
 10
115.3283223564402
 20
250.750939610447
 30
0.0
  0
SPLINE
  5
115
330
1F
100
AcDbEntity
  8
0
  6
Continuous
 62
     7
370
    25
100
AcDbSpline
210
0.0
220
0.0
230
1.0
 70
     8
 71
     3
 72
    13
 73
     9
 74
     0
 42
0.00000001
 43
0.00000001
 40
0.0
 40
0.0
 40
0.0
 40
0.0
 40
0.0871756658659658
 40
0.3197169146313638
 40
0.5218160917786784
 40
0.747685928439694
 40
0.9974064461684268
 40
0.9999999999999999
 40
0.9999999999999999
 40
0.9999999999999999
 40
0.9999999999999999
 10
112.371559219075
 20
240.006354237413
 30
0.0
 10
112.4541806054749
 20
239.5877658963854
 30
0.0
 10
112.757194691802
 20
238.0525923870742
 30
0.0
 10
113.2335313723501
 20
235.1931791880072
 30
0.0
 10
113.8151186386132
 20
231.3822670403902
 30
0.0
 10
114.3780428191984
 20
227.183526679925
 30
0.0
 10
114.7646896610311
 20
224.1203509680751
 30
0.0
 10
114.9480246872812
 20
222.4100526518694
 30
0.0
 10
114.9499092007245
 20
222.392472376922
 30
0.0
  0
SPLINE
  5
116
330
1F
100
AcDbEntity
  8
0
  6
Continuous
 62
     7
370
    25
100
AcDbSpline
210
0.0
220
0.0
230
1.0
 70
     8
 71
     3
 72
    60
 73
    56
 74
     0
 42
0.00000001
 43
0.00000001
 40
0.0
 40
0.0
 40
0.0
 40
0.0
 40
0.0095311139691262
 40
0.0319716053148071
 40
0.052847594322348
 40
0.0691852474022322
 40
0.081490304063406
 40
0.0975113097879288
 40
0.1172566103893979
 40
0.1407382199982004
 40
0.1584807435177758
 40
0.1772690588161056
 40
0.1951124215474447
 40
0.2198178801743049
 40
0.2420532522766949
 40
0.2678382521469905
 40
0.2892451271500585
 40
0.3099580664359131
 40
0.3323494459342215
 40
0.3555828221485078
 40
0.3772547020454089
 40
0.3926317612735359
 40
0.4103441732768805
 40
0.4241460372706748
 40
0.4393044641854156
 40
0.4546814830176418
 40
0.4663866549299619
 40
0.4772881336823374
 40
0.4867875374849325
 40
0.494835265302942
 40
0.503470531921032
 40
0.512414684819348
 40
0.5227114399197132
 40
0.5407194052044005
 40
0.5601820558988835
 40
0.5795762371753537
 40
0.5989906532903955
 40
0.6240539631093587
 40
0.6479345635670237
 40
0.6711508609742186
 40
0.695557300890934
 40
0.7213368035457759
 40
0.7484847475118726
 40
0.7765794357567736
 40
0.80366677184764
 40
0.8295086208815942
 40
0.8480832997982718
 40
0.8659681781659039
 40
0.883167516073772
 40
0.9007587699548099
 40
0.9218682101397513
 40
0.9466818923238295
 40
0.9652824307397115
 40
0.9855191212644929
 40
1.0
 40
1.0
 40
1.0
 40
1.0
 10
145.6268495775395
 20
180.3017845812266
 30
0.0
 10
145.6263717050846
 20
180.9365158118615
 30
0.0
 10
145.6247687078309
 20
183.0656873287041
 30
0.0
 10
145.6022947588297
 20
186.7835142585479
 30
0.0
 10
145.5530180185061
 20
191.1285950195979
 30
0.0
 10
145.4909297855091
 20
194.8341034289957
 30
0.0
 10
145.4198298053131
 20
198.2214728429607
 30
0.0
 10
145.3262973071137
 20
201.905597623149
 30
0.0
 10
145.1830774303752
 20
206.4799760342572
 30
0.0
 10
144.9983143136978
 20
211.1896210736922
 30
0.0
 10
144.7796991794919
 20
215.7771222927871
 30
0.0
 10
144.5515101507362
 20
219.8702534608232
 30
0.0
 10
144.2592371329185
 20
224.3828538672883
 30
0.0
 10
143.9064145059141
 20
228.987678978151
 30
0.0
 10
143.4545568102378
 20
233.8887074100782
 30
0.0
 10
142.9685546159814
 20
238.2681213413788
 30
0.0
 10
142.4415962740362
 20
242.2099751802862
 30
0.0
 10
141.8910801115503
 20
245.6706398556344
 30
0.0
 10
141.2655973454132
 20
248.9104862518433
 30
0.0
 10
140.5663096393633
 20
251.820900836636
 30
0.0
 10
139.8536377513664
 20
254.1336950065543
 30
0.0
 10
139.1375253128699
 20
255.9815034488395
 30
0.0
 10
138.3401461436728
 20
257.5902396391591
 30
0.0
 10
137.315189200297
 20
259.0922385781608
 30
0.0
 10
136.1037651937873
 20
260.3721345494415
 30
0.0
 10
134.5314260922443
 20
261.4333366652789
 30
0.0
 10
132.7173782947094
 20
262.0567700286138
 30
0.0
 10
131.0824051801258
 20
262.204948101085
 30
0.0
 10
129.6688465913597
 20
262.0308752884873
 30
0.0
 10
128.4426387833051
 20
261.6549165456441
 30
0.0
 10
127.3454870351133
 20
261.1123106783303
 30
0.0
 10
126.3850792800255
 20
260.4444348808361
 30
0.0
 10
125.3200080726833
 20
259.4783751997392
 30
0.0
 10
124.2201784256796
 20
258.1112538364947
 30
0.0
 10
123.136827286234
 20
256.2830162979683
 30
0.0
 10
122.1846189201329
 20
254.2231506882115
 30
0.0
 10
121.2525783410518
 20
251.7854945043625
 30
0.0
 10
120.2938843217538
 20
248.7898140283609
 30
0.0
 10
119.3193183443066
 20
245.2081305689948
 30
0.0
 10
118.3859407378865
 20
241.2964332206527
 30
0.0
 10
117.4477235234913
 20
236.8763886441278
 30
0.0
 10
116.490126405371
 20
231.8348294910304
 30
0.0
 10
115.5253636586915
 20
226.2010977305521
 30
0.0
 10
114.5923864751257
 20
220.18606179562
 30
0.0
 10
113.7281614362021
 20
214.0722336985675
 30
0.0
 10
113.0146909340777
 20
208.5929957232589
 30
0.0
 10
112.4316771813171
 20
203.8146771186471
 30
0.0
 10
111.9579254249722
 20
199.7225744071003
 30
0.0
 10
111.5209142139445
 20
195.7544381035851
 30
0.0
 10
111.0869207858397
 20
191.6194987660768
 30
0.0
 10
110.6327259123857
 20
187.0560339181071
 30
0.0
 10
110.2179961875504
 20
182.6223284500606
 30
0.0
 10
109.8558730144802
 20
178.510975969492
 30
0.0
 10
109.5808970487658
 20
175.2381758503057
 30
0.0
 10
109.4316760774697
 20
173.3290723526103
 30
0.0
 10
109.3694352341108
 20
172.5327753527716
 30
0.0
  0
SPLINE
  5
117
330
1F
100
AcDbEntity
  8
0
  6
Continuous
 62
     7
370
    25
100
AcDbSpline
210
0.0
220
0.0
230
1.0
 70
     8
 71
     3
 72
    27
 73
    23
 74
     0
 42
0.00000001
 43
0.00000001
 40
0.0
 40
0.0
 40
0.0
 40
0.0
 40
0.0199674896311303
 40
0.0741503532041993
 40
0.1203734718057682
 40
0.1602385318234882
 40
0.2008751628997406
 40
0.2431385613030596
 40
0.3019947326844016
 40
0.3637010270811659
 40
0.4282282530508253
 40
0.4944376547261316
 40
0.5579500528190409
 40
0.6183180599739974
 40
0.6755506450914445
 40
0.7302281893541149
 40
0.7867960038387791
 40
0.8310345327575954
 40
0.8766418295690913
 40
0.9224805143119432
 40
0.9682845013838747
 40
1.0
 40
1.0
 40
1.0
 40
1.0
 10
122.2182108307784
 20
182.0080196583674
 30
0.0
 10
122.2649542197224
 20
182.5281047570615
 30
0.0
 10
122.4385383238934
 20
184.4594689133387
 30
0.0
 10
122.7677961711749
 20
187.8392475872948
 30
0.0
 10
123.1750012013548
 20
191.8541222051855
 30
0.0
 10
123.572082282427
 20
195.57752071225
 30
0.0
 10
123.9805015165467
 20
199.2408123677436
 30
0.0
 10
124.4804677480026
 20
203.5159520567535
 30
0.0
 10
125.0924555115396
 20
208.4526983099886
 30
0.0
 10
125.8354838606358
 20
214.0287075086169
 30
0.0
 10
126.6556912287171
 20
219.708878981344
 30
0.0
 10
127.5282490386792
 20
225.2317082941716
 30
0.0
 10
128.4177703334593
 20
230.3504098211633
 30
0.0
 10
129.2913997953111
 20
234.8984230266788
 30
0.0
 10
130.1392273956094
 20
238.8614393414106
 30
0.0
 10
130.9790926790013
 20
242.3602788492655
 30
0.0
 10
131.7450343286654
 20
245.1609275599432
 30
0.0
 10
132.4423569372938
 20
247.3909186809633
 30
0.0
 10
133.0764387439208
 20
249.1306542920994
 30
0.0
 10
133.6058962164972
 20
250.3549542981723
 30
0.0
 10
133.975959774316
 20
251.0257573322189
 30
0.0
 10
133.9762138639551
 20
251.0643269398909
 30
0.0
 10
133.97631781949
 20
251.0801068993152
 30
0.0
  0
SPLINE
  5
118
330
1F
100
AcDbEntity
  8
0
  6
Continuous
 62
     7
370
    25
100
AcDbSpline
210
0.0
220
0.0
230
1.0
 70
     8
 71
     3
 72
    24
 73
    20
 74
     0
 42
0.00000001
 43
0.00000001
 40
0.0
 40
0.0
 40
0.0
 40
0.0
 40
0.0302508640183311
 40
0.1109450993324509
 40
0.1810756187310465
 40
0.259454804560025
 40
0.3461104251320798
 40
0.4410762725871789
 40
0.5362142143482056
 40
0.6187853175143669
 40
0.6885875627260297
 40
0.745575946331087
 40
0.7897100851952064
 40
0.8254508919332781
 40
0.8651952661399476
 40
0.9096668826827742
 40
0.9430726614364024
 40
0.9849271988420922
 40
1.0
 40
1.0
 40
1.0
 40
1.0
 10
130.5433940720775
 20
240.4780506066263
 30
0.0
 10
130.6072636501895
 20
240.0561774105343
 30
0.0
 10
130.8415054451897
 20
238.508956689243
 30
0.0
 10
131.1901519596295
 20
235.6321717953347
 30
0.0
 10
131.600109558625
 20
231.7950830780234
 30
0.0
 10
131.9799181632447
 20
227.5921882242416
 30
0.0
 10
132.3508484629737
 20
222.6974157349286
 30
0.0
 10
132.688685161007
 20
217.2581186478352
 30
0.0
 10
132.9645758622299
 20
211.7437591387823
 30
0.0
 10
133.1679417273264
 20
206.6714676242321
 30
0.0
 10
133.3072990986363
 20
202.3748277470531
 30
0.0
 10
133.4003028966497
 20
198.887185165122
 30
0.0
 10
133.4621738654409
 20
196.1199640516094
 30
0.0
 10
133.5079224444926
 20
193.726404755839
 30
0.0
 10
133.5461720988074
 20
191.3543456004927
 30
0.0
 10
133.5758756046997
 20
189.0636789426955
 30
0.0
 10
133.5984957167545
 20
186.7778749709358
 30
0.0
 10
133.6122014798917
 20
185.0740427269828
 30
0.0
 10
133.6161865504544
 20
184.0411562462291
 30
0.0
 10
133.6172416880686
 20
183.7676761760921
 30
0.0
  0
LINE
  5
119
330
1F
100
AcDbEntity
  8
0
  6
Continuous
 62
     7
370
    25
100
AcDbLine
 10
143.5807298254
 20
-59.6282715525
 30
0.0
 11
143.5807298254
 21
-57.7108304367
 31
0.0
  0
LINE
  5
11A
330
1F
100
AcDbEntity
  8
0
  6
Continuous
 62
     7
370
    25
100
AcDbLine
 10
120.4807298254
 20
-57.7108304367
 30
0.0
 11
120.4807298254
 21
-59.6282715525
 31
0.0
  0
LINE
  5
11B
330
1F
100
AcDbEntity
  8
0
  6
Continuous
 62
     7
370
    25
100
AcDbLine
 10
128.3074733333
 20
-70.443157528
 30
0.0
 11
128.4847712615
 21
-70.5028797303
 31
0.0
  0
LINE
  5
11C
330
1F
100
AcDbEntity
  8
0
  6
Continuous
 62
     7
370
    25
100
AcDbLine
 10
135.5766883894
 20
-70.5028797303
 30
0.0
 11
135.7539863176
 21
-70.443157528
 31
0.0
  0
ARC
  5
11D
330
1F
100
AcDbEntity
  8
0
  6
Continuous
 62
     7
370
    25
100
AcDbCircle
 10
132.0307298254
 20
155.6950923395
 30
0.0
 40
7.900000000000006
100
AcDbArc
 50
0.0
 51
90.0
  0
ARC
  5
11E
330
1F
100
AcDbEntity
  8
0
  6
Continuous
 62
     7
370
    25
100
AcDbCircle
 10
132.0307298254
 20
155.6950923395
 30
0.0
 40
7.900000000000006
100
AcDbArc
 50
90.0
 51
180.0
  0
ARC
  5
11F
330
1F
100
AcDbEntity
  8
0
  6
Continuous
 62
     7
370
    25
100
AcDbCircle
 10
132.0779120191
 20
-57.2347739263
 30
0.0
 40
7.852911808525785
100
AcDbArc
 50
269.6557510264
 51
359.7196557283
  0
ARC
  5
120
330
1F
100
AcDbEntity
  8
0
  6
Continuous
 62
     7
370
    25
100
AcDbCircle
 10
131.9835476318
 20
-57.2347739263
 30
0.0
 40
7.852911808525925
100
AcDbArc
 50
180.2803442717
 51
270.3442489736
  0
SPLINE
  5
121
330
1F
100
AcDbEntity
  8
0
  6
Continuous
 62
     7
370
    25
100
AcDbSpline
210
0.0
220
0.0
230
1.0
 70
     8
 71
     3
 72
     9
 73
     5
 74
     0
 42
0.00000001
 43
0.00000001
 40
0.0
 40
0.0
 40
0.0
 40
0.0
 40
0.3733283679056121
 40
1.0
 40
1.0
 40
1.0
 40
1.0
 10
142.7555477674355
 20
-56.82070144567608
 30
0.0
 10
142.7469971404027
 20
-56.85520340027394
 30
0.0
 10
142.7240933705102
 20
-56.94762057926156
 30
0.0
 10
142.6966570857906
 20
-57.06591479307133
 30
0.0
 10
142.6794635444668
 20
-57.14004642110676
 30
0.0
  0
SPLINE
  5
122
330
1F
100
AcDbEntity
  8
0
  6
Continuous
 62
     7
370
    25
100
AcDbSpline
210
0.0
220
0.0
230
1.0
 70
     8
 71
     3
 72
     9
 73
     5
 74
     0
 42
0.00000001
 43
0.00000001
 40
0.0
 40
0.0
 40
0.0
 40
0.0
 40
0.8169784353419365
 40
1.0
 40
1.0
 40
1.0
 40
1.0
 10
142.679463544463
 20
-57.14004642110626
 30
0.0
 10
142.6316175502219
 20
-57.86538735321295
 30
0.0
 10
142.5730529759672
 20
-58.75322098593683
 30
0.0
 10
142.3894361923723
 20
-59.63582692917274
 30
0.0
 10
142.3558303613412
 20
-59.7973628498803
 30
0.0
  0
SPLINE
  5
123
330
1F
100
AcDbEntity
  8
0
  6
Continuous
 62
     7
370
    25
100
AcDbSpline
210
0.0
220
0.0
230
1.0
 70
     8
 71
     3
 72
    19
 73
    15
 74
     0
 42
0.00000001
 43
0.00000001
 40
0.0
 40
0.0
 40
0.0
 40
0.0
 40
0.0309875197273645
 40
0.1220346502357653
 40
0.2130781325958136
 40
0.3044553685839387
 40
0.3960144663038078
 40
0.4877063042634163
 40
0.5797065501159616
 40
0.6717020630512975
 40
0.7640557667699919
 40
0.8564125362484855
 40
0.9489597756151685
 40
1.0
 40
1.0
 40
1.0
 40
1.0
 10
142.3558319295931
 20
-59.79735559303351
 30
0.0
 10
142.2611498916793
 20
-60.18481065681514
 30
0.0
 10
141.8882743120244
 20
-61.71068118813444
 30
0.0
 10
140.5450268648882
 20
-64.18114879707304
 30
0.0
 10
137.9036900245673
 20
-66.61945615086917
 30
0.0
 10
134.5810390678835
 20
-68.06171054928795
 30
0.0
 10
130.9593484880513
 20
-68.33598922273964
 30
0.0
 10
127.4422092008345
 20
-67.41248061843824
 30
0.0
 10
124.4276235879346
 20
-65.3866511849896
 30
0.0
 10
122.2588605530467
 20
-62.48609009955908
 30
0.0
 10
121.1695128112338
 20
-59.02482318845814
 30
0.0
 10
121.3426701310491
 20
-55.43553477939373
 30
0.0
 10
122.3738708805926
 20
-52.47237909450253
 30
0.0
 10
123.6700015723412
 20
-51.13449993349817
 30
0.0
 10
124.1307298254247
 20
-50.65893158795215
 30
0.0
  0
LINE
  5
124
330
1F
100
AcDbEntity
  8
0
  6
Continuous
 62
     7
370
    25
100
AcDbLine
 10
139.9307298254
 20
-50.6394732101
 30
0.0
 11
141.0474547248
 21
-51.8333418755
 31
0.0
  0
ARC
  5
125
330
1F
100
AcDbEntity
  8
0
  6
Continuous
 62
     7
370
    25
100
AcDbCircle
 10
132.2411487649
 20
-57.7137054816
 30
0.0
 40
10.58913125798436
100
AcDbArc
 50
348.3951793204
 51
33.7328054928
  0
SPLINE
  5
126
330
1F
100
AcDbEntity
  8
0
  6
Continuous
 62
     7
370
    25
100
AcDbSpline
210
0.0
220
0.0
230
1.0
 70
     8
 71
     3
 72
     9
 73
     5
 74
     0
 42
0.00000001
 43
0.00000001
 40
0.0
 40
0.0
 40
0.0
 40
0.0
 40
0.6275173949569981
 40
1.0
 40
1.0
 40
1.0
 40
1.0
 10
142.6138204759714
 20
-59.84381871195821
 30
0.0
 10
142.7163756188464
 20
-59.21502940056899
 30
0.0
 10
142.8798055790344
 20
-58.21300249829925
 30
0.0
 10
142.7892705069382
 20
-57.19856264492057
 30
0.0
 10
142.755547767436
 20
-56.82070144567464
 30
0.0
  0
LINE
  5
127
330
1F
100
AcDbEntity
  8
0
  6
Continuous
 62
     7
370
    25
100
AcDbLine
 10
130.6889521235
 20
-68.3402403461
 30
0.0
 11
131.5146216245
 21
-68.4143148093
 31
0.0
  0
ELLIPSE
  5
128
330
1F
100
AcDbEntity
  8
0
  6
Continuous
 62
     7
370
    25
100
AcDbEllipse
 10
132.0307298254
 20
-56.8005881943
 30
0.0
 11
-7.47887353973229
 21
8.46273894897412
 31
0.0
210
0.0
220
0.0
230
1.0
 40
0.9206752664
 41
3.737259005293316
 42
3.746698979911438
  0
LINE
  5
129
330
1F
100
AcDbEntity
  8
0
  6
Continuous
 62
     7
370
    25
100
AcDbLine
 10
128.5530931566
 20
-67.74457267
 30
0.0
 11
129.0360849522
 21
-67.883500777
 31
0.0
  0
LINE
  5
12A
330
1F
100
AcDbEntity
  8
0
  6
Continuous
 62
     7
370
    25
100
AcDbLine
 10
142.7555477674
 20
-56.8207014457
 30
0.0
 11
142.6727154214
 21
-57.2046289322
 31
0.0
  0
LINE
  5
12B
330
1F
100
AcDbEntity
  8
0
  6
Continuous
 62
     7
370
    25
100
AcDbLine
 10
124.9946427649
 20
159.1642067384
 30
0.0
 11
124.5671623108
 21
158.2845247008
 31
0.0
  0
LINE
  5
12C
330
1F
100
AcDbEntity
  8
0
  6
Continuous
 62
     7
370
    25
100
AcDbLine
 10
224.2307298254
 20
150.7390619553
 30
0.0
 11
224.2307298254
 21
150.3661780028
 31
0.0
  0
LINE
  5
12D
330
1F
100
AcDbEntity
  8
0
  6
Continuous
 62
     7
370
    25
100
AcDbLine
 10
224.2307298254
 20
161.0240066761
 30
0.0
 11
224.2307298254
 21
150.7390619553
 31
0.0
  0
SPLINE
  5
12E
330
1F
100
AcDbEntity
  8
0
  6
Continuous
 62
     7
370
    25
100
AcDbSpline
210
0.0
220
0.0
230
1.0
 70
     8
 71
     3
 72
    11
 73
     7
 74
     0
 42
0.00000001
 43
0.00000001
 40
0.0
 40
0.0
 40
0.0
 40
0.0
 40
0.3039812236456108
 40
0.608083627866646
 40
0.9095125090057321
 40
1.0
 40
1.0
 40
1.0
 40
1.0
 10
225.4507516270949
 20
156.9530628655831
 30
0.0
 10
225.4604669901575
 20
156.9122758590149
 30
0.0
 10
225.4799015892629
 20
156.8306855863449
 30
0.0
 10
225.4913734162143
 20
156.8134970869396
 30
0.0
 10
225.4920099399233
 20
156.8466635388382
 30
0.0
 10
225.4840799839359
 20
156.9078977734158
 30
0.0
 10
225.4822490784877
 20
156.9220358208255
 30
0.0
  0
ARC
  5
12F
330
1F
100
AcDbEntity
  8
0
  6
Continuous
 62
     7
370
    25
100
AcDbCircle
 10
221.7662609393
 20
156.1090788295
 30
0.0
 40
3.779918078707337
100
AcDbArc
 50
12.9018176402
 51
24.2162786883
  0
ARC
  5
130
330
1F
100
AcDbEntity
  8
0
  6
Continuous
 62
     7
370
    25
100
AcDbCircle
 10
218.2130050323
 20
157.1645519117
 30
0.0
 40
7.018032155408002
100
AcDbArc
 50
355.9555700063
 51
4.0444299937
  0
ARC
  5
131
330
1F
100
AcDbEntity
  8
0
  6
Continuous
 62
     7
370
    25
100
AcDbCircle
 10
221.7662609393
 20
155.1191150254
 30
0.0
 40
3.77991807870584
100
AcDbArc
 50
12.9018176402
 51
24.2162786883
  0
SPLINE
  5
132
330
1F
100
AcDbEntity
  8
0
  6
Continuous
 62
     7
370
    25
100
AcDbSpline
210
0.0
220
0.0
230
1.0
 70
     8
 71
     3
 72
    12
 73
     8
 74
     0
 42
0.00000001
 43
0.00000001
 40
0.0
 40
0.0
 40
0.0
 40
0.0
 40
0.2133534395476094
 40
0.4267919313634458
 40
0.638353973909152
 40
0.8490950351927495
 40
1.0
 40
1.0
 40
1.0
 40
1.0
 10
225.4507516270949
 20
154.9204891149647
 30
0.0
 10
225.4604107708223
 20
154.9939477852373
 30
0.0
 10
225.4797329088458
 20
155.1408944097092
 30
0.0
 10
225.4920459788539
 20
155.397557141261
 30
0.0
 10
225.489708538557
 20
155.6429585032976
 30
0.0
 10
225.4745910195433
 20
155.838640263058
 30
0.0
 10
225.4577704071624
 20
155.9264559743839
 30
0.0
 10
225.4507516270949
 20
155.9630990614666
 30
0.0
  0
ARC
  5
133
330
1F
100
AcDbEntity
  8
0
  6
Continuous
 62
     7
370
    25
100
AcDbCircle
 10
218.1353349402
 20
156.0602418792
 30
0.0
 40
7.403671904253585
100
AcDbArc
 50
342.9486797798
 51
351.1444282848
  0
ARC
  5
134
330
1F
100
AcDbEntity
  8
0
  6
Continuous
 62
     7
370
    25
100
AcDbCircle
 10
221.9317469819
 20
153.5501707639
 30
0.0
 40
3.299286112125765
100
AcDbArc
 50
354.1006273552
 51
5.8993726448
  0
ARC
  5
135
330
1F
100
AcDbEntity
  8
0
  6
Continuous
 62
     7
370
    25
100
AcDbCircle
 10
218.1353349402
 20
155.3820297689
 30
0.0
 40
7.403671904251972
100
AcDbArc
 50
342.9486797798
 51
351.1444282848
  0
SPLINE
  5
136
330
1F
100
AcDbEntity
  8
0
  6
Continuous
 62
     7
370
    25
100
AcDbSpline
210
0.0
220
0.0
230
1.0
 70
     8
 71
     3
 72
    11
 73
     7
 74
     0
 42
0.00000001
 43
0.00000001
 40
0.0
 40
0.0
 40
0.0
 40
0.0
 40
0.0714051685223774
 40
0.414134850803526
 40
0.7555345466479035
 40
1.0
 40
1.0
 40
1.0
 40
1.0
 10
225.4870054881977
 20
154.5614923347056
 30
0.0
 10
225.4879567822929
 20
154.5636340601528
 30
0.0
 10
225.493474086521
 20
154.5760556140386
 30
0.0
 10
225.4888803588107
 20
154.5162937589206
 30
0.0
 10
225.4747308666337
 20
154.4001484380807
 30
0.0
 10
225.4578115808614
 20
154.288757420334
 30
0.0
 10
225.4507516270949
 20
154.2422770046784
 30
0.0
  0
SPLINE
  5
137
330
1F
100
AcDbEntity
  8
0
  6
Continuous
 62
     7
370
    25
100
AcDbSpline
210
0.0
220
0.0
230
1.0
 70
     8
 71
     3
 72
    11
 73
     7
 74
     0
 42
0.00000001
 43
0.00000001
 40
0.0
 40
0.0
 40
0.0
 40
0.0
 40
0.3067489698104707
 40
0.6136202235443585
 40
0.9177936117939343
 40
1.0
 40
1.0
 40
1.0
 40
1.0
 10
225.4507516270949
 20
156.4696955639407
 30
0.0
 10
225.4604698947009
 20
156.3960487103384
 30
0.0
 10
225.4799103040509
 20
156.2487256441884
 30
0.0
 10
225.4913386686071
 20
155.9948788107448
 30
0.0
 10
225.4920909924367
 20
155.8007171499492
 30
0.0
 10
225.4843909796009
 20
155.7136226223136
 30
0.0
 10
225.4827527203469
 20
155.6950923394527
 30
0.0
  0
ARC
  5
138
330
1F
100
AcDbEntity
  8
0
  6
Continuous
 62
     7
370
    25
100
AcDbCircle
 10
218.204700605
 20
155.3430374851
 30
0.0
 40
7.333117607219919
100
AcDbArc
 50
8.8379125451
 51
11.3659567697
  0
ARC
  5
139
330
1F
100
AcDbEntity
  8
0
  6
Continuous
 62
     7
370
    25
100
AcDbCircle
 10
42.1297126689
 20
153.5501707639
 30
0.0
 40
3.299286112125001
100
AcDbArc
 50
174.1006273552
 51
185.8993726448
  0
ARC
  5
13A
330
1F
100
AcDbEntity
  8
0
  6
Continuous
 62
     7
370
    25
100
AcDbCircle
 10
45.9261247106
 20
156.0602418792
 30
0.0
 40
7.403671904246591
100
AcDbArc
 50
188.8555717152
 51
197.0513202202
  0
SPLINE
  5
13B
330
1F
100
AcDbEntity
  8
0
  6
Continuous
 62
     7
370
    25
100
AcDbSpline
210
0.0
220
0.0
230
1.0
 70
     8
 71
     3
 72
    12
 73
     8
 74
     0
 42
0.00000001
 43
0.00000001
 40
0.0
 40
0.0
 40
0.0
 40
0.0
 40
0.2133534395476214
 40
0.4267919313634498
 40
0.6383539739091488
 40
0.8490950351927615
 40
1.0
 40
1.0
 40
1.0
 40
1.0
 10
38.61070802375443
 20
155.9630990614665
 30
0.0
 10
38.60104888002708
 20
155.9092267701885
 30
0.0
 10
38.58172674200361
 20
155.8014607117165
 30
0.0
 10
38.5694136719955
 20
155.5698512910396
 30
0.0
 10
38.57175111229226
 20
155.3196935606811
 30
0.0
 10
38.58686863130606
 20
155.0932745285972
 30
0.0
 10
38.60368924368704
 20
154.9713604960106
 30
0.0
 10
38.61070802375443
 20
154.9204891149647
 30
0.0
  0
ARC
  5
13C
330
1F
100
AcDbEntity
  8
0
  6
Continuous
 62
     7
370
    25
100
AcDbCircle
 10
42.2951987116
 20
155.1191150254
 30
0.0
 40
3.779918078703702
100
AcDbArc
 50
155.7837213117
 51
167.0981823598
  0
ARC
  5
13D
330
1F
100
AcDbEntity
  8
0
  6
Continuous
 62
     7
370
    25
100
AcDbCircle
 10
45.8484546186
 20
157.1645519117
 30
0.0
 40
7.018032155406393
100
AcDbArc
 50
175.9555700063
 51
184.0444299937
  0
ARC
  5
13E
330
1F
100
AcDbEntity
  8
0
  6
Continuous
 62
     7
370
    25
100
AcDbCircle
 10
42.2951987116
 20
156.1090788295
 30
0.0
 40
3.779918078702853
100
AcDbArc
 50
155.7837213117
 51
167.0981823598
  0
SPLINE
  5
13F
330
1F
100
AcDbEntity
  8
0
  6
Continuous
 62
     7
370
    25
100
AcDbSpline
210
0.0
220
0.0
230
1.0
 70
     8
 71
     3
 72
    11
 73
     7
 74
     0
 42
0.00000001
 43
0.00000001
 40
0.0
 40
0.0
 40
0.0
 40
0.0
 40
0.1771553424640969
 40
0.480854306193254
 40
0.7833747449113244
 40
1.0
 40
1.0
 40
1.0
 40
1.0
 10
38.5791607476411
 20
156.9206297108511
 30
0.0
 10
38.57625763729541
 20
156.8964072707507
 30
0.0
 10
38.56837769931751
 20
156.8306600882676
 30
0.0
 10
38.57219673291526
 20
156.8109968882934
 30
0.0
 10
38.58679338345336
 20
156.8511600234946
 30
0.0
 10
38.60366708925797
 20
156.923060690049
 30
0.0
 10
38.61070802375443
 20
156.9530628655831
 30
0.0
  0
ARC
  5
140
330
1F
100
AcDbEntity
  8
0
  6
Continuous
 62
     7
370
    25
100
AcDbCircle
 10
45.8587198104
 20
155.3427053631
 30
0.0
 40
7.335106118686248
100
AcDbArc
 50
168.3668500212
 51
171.1618771205
  0
SPLINE
  5
141
330
1F
100
AcDbEntity
  8
0
  6
Continuous
 62
     7
370
    25
100
AcDbSpline
210
0.0
220
0.0
230
1.0
 70
     8
 71
     3
 72
    11
 73
     7
 74
     0
 42
0.00000001
 43
0.00000001
 40
0.0
 40
0.0
 40
0.0
 40
0.0
 40
0.1769183548232171
 40
0.4807047869467062
 40
0.783312354631837
 40
1.0
 40
1.0
 40
1.0
 40
1.0
 10
38.57914884800015
 20
155.6950923394527
 30
0.0
 10
38.5762509045966
 20
155.7372334301247
 30
0.0
 10
38.5683769038024
 20
155.8517349697386
 30
0.0
 10
38.57219745017523
 20
156.0718292372618
 30
0.0
 10
38.5867932623363
 20
156.2966841944636
 30
0.0
 10
38.60366705359876
 20
156.4187576571064
 30
0.0
 10
38.61070802375443
 20
156.4696955639407
 30
0.0
  0
SPLINE
  5
142
330
1F
100
AcDbEntity
  8
0
  6
Continuous
 62
     7
370
    25
100
AcDbSpline
210
0.0
220
0.0
230
1.0
 70
     8
 71
     3
 72
    10
 73
     6
 74
     0
 42
0.00000001
 43
0.00000001
 40
0.0
 40
0.0
 40
0.0
 40
0.0
 40
0.345678615197162
 40
0.6914950334237407
 40
1.0
 40
1.0
 40
1.0
 40
1.0
 10
38.61070802375443
 20
154.2422770046784
 30
0.0
 10
38.60111756838921
 20
154.3061949194195
 30
0.0
 10
38.58193283447231
 20
154.4340562294547
 30
0.0
 10
38.56903399857625
 20
154.5485207919867
 30
0.0
 10
38.57235966664785
 20
154.5594950568992
 30
0.0
 10
38.57392768068668
 20
154.5646692959027
 30
0.0
  0
ARC
  5
143
330
1F
100
AcDbEntity
  8
0
  6
Continuous
 62
     7
370
    25
100
AcDbCircle
 10
45.9261247106
 20
155.3820297689
 30
0.0
 40
7.403671904241669
100
AcDbArc
 50
188.8555717152
 51
197.0513202202
  0
LINE
  5
144
330
1F
100
AcDbEntity
  8
0
  6
Continuous
 62
     7
370
    25
100
AcDbLine
 10
39.8307298254
 20
150.3661780028
 30
0.0
 11
39.8307298254
 21
161.0240066761
 31
0.0
  0
LINE
  5
145
330
1F
100
AcDbEntity
  8
0
  6
Continuous
 62
     7
370
    25
100
AcDbLine
 10
207.9894560286
 20
164.1911736369
 30
0.0
 11
207.9894560286
 21
147.689853905
 31
0.0
  0
SPLINE
  5
146
330
1F
100
AcDbEntity
  8
0
  6
Continuous
 62
     7
370
    25
100
AcDbSpline
210
0.0
220
0.0
230
1.0
 70
     8
 71
     3
 72
    11
 73
     7
 74
     0
 42
0.00000001
 43
0.00000001
 40
0.0
 40
0.0
 40
0.0
 40
0.0
 40
0.2500000000000168
 40
0.4999999999999941
 40
0.7499999999999969
 40
1.0
 40
1.0
 40
1.0
 40
1.0
 10
207.9894560286433
 20
147.6898523657411
 30
0.0
 10
207.9230849759059
 20
147.6957448431441
 30
0.0
 10
207.7903428704312
 20
147.70752979795
 30
0.0
 10
207.6218791296505
 20
147.8114514803819
 30
0.0
 10
207.5037917706155
 20
147.9616318848378
 30
0.0
 10
207.4884171404883
 20
148.0811909438698
 30
0.0
 10
207.4807298254247
 20
148.1409704733858
 30
0.0
  0
LINE
  5
147
330
1F
100
AcDbEntity
  8
0
  6
Continuous
 62
     7
370
    25
100
AcDbLine
 10
207.4807298254
 20
148.1410253236
 30
0.0
 11
207.4807298254
 21
163.7399483938
 31
0.0
  0
SPLINE
  5
148
330
1F
100
AcDbEntity
  8
0
  6
Continuous
 62
     7
370
    25
100
AcDbSpline
210
0.0
220
0.0
230
1.0
 70
     8
 71
     3
 72
    11
 73
     7
 74
     0
 42
0.00000001
 43
0.00000001
 40
0.0
 40
0.0
 40
0.0
 40
0.0
 40
0.250000000000024
 40
0.5
 40
0.7500000000000054
 40
1.0
 40
1.0
 40
1.0
 40
1.0
 10
207.9894560286433
 20
164.1911733515761
 30
0.0
 10
207.9230849759059
 20
164.1852794785036
 30
0.0
 10
207.7903428704312
 20
164.1734917323586
 30
0.0
 10
207.6218791296505
 20
164.0695454354364
 30
0.0
 10
207.5037917706154
 20
163.9193294598269
 30
0.0
 10
207.4884171404883
 20
163.7997420824957
 30
0.0
 10
207.4807298254247
 20
163.7399483938301
 30
0.0
  0
LWPOLYLINE
  5
149
330
1F
100
AcDbEntity
  8
0
  6
Continuous
 62
     7
370
    25
100
AcDbPolyline
 90
        3
 70
   128
 43
0.0
 10
207.9894560286
 20
147.689853905
 10
213.9809298254
 20
147.7561063162
 10
217.4687737826
 20
147.7949222826
  0
LWPOLYLINE
  5
14A
330
1F
100
AcDbEntity
  8
0
  6
Continuous
 62
     7
370
    25
100
AcDbPolyline
 90
        3
 70
   128
 43
0.0
 10
216.5353535687
 20
164.0965110447
 10
213.9809298254
 20
164.1249209403
 10
207.9894560117
 20
164.1911733518
  0
LINE
  5
14B
330
1F
100
AcDbEntity
  8
0
  6
Continuous
 62
     7
370
    25
100
AcDbLine
 10
222.3307298254
 20
164.3399572825
 30
0.0
 11
222.3307298254
 21
147.541069974
 31
0.0
  0
LINE
  5
14C
330
1F
100
AcDbEntity
  8
0
  6
Continuous
 62
     7
370
    25
100
AcDbLine
 10
207.9894560286
 20
147.6898526516
 30
0.0
 11
207.9894560286
 21
144.194379715
 31
0.0
  0
ARC
  5
14D
330
1F
100
AcDbEntity
  8
0
  6
Continuous
 62
     7
370
    25
100
AcDbCircle
 10
207.9747911201
 20
144.6882660718
 30
0.0
 40
0.494104030492884
100
AcDbArc
 50
180.7535768612
 51
271.7007770082
  0
LINE
  5
14E
330
1F
100
AcDbEntity
  8
0
  6
Continuous
 62
     7
370
    25
100
AcDbLine
 10
207.4807298254
 20
144.6817676066
 30
0.0
 11
207.4807298254
 21
148.1410240693
 31
0.0
  0
LINE
  5
14F
330
1F
100
AcDbEntity
  8
0
  6
Continuous
 62
     7
370
    25
100
AcDbLine
 10
207.9894560286
 20
167.6866475415
 30
0.0
 11
207.9894560286
 21
164.1911748908
 31
0.0
  0
ARC
  5
150
330
1F
100
AcDbEntity
  8
0
  6
Continuous
 62
     7
370
    25
100
AcDbCircle
 10
207.9747911201
 20
167.1927611847
 30
0.0
 40
0.4941040304929243
100
AcDbArc
 50
88.2992229918
 51
179.2464231388
  0
LINE
  5
151
330
1F
100
AcDbEntity
  8
0
  6
Continuous
 62
     7
370
    25
100
AcDbLine
 10
207.4807298254
 20
163.7400031873
 30
0.0
 11
207.4807298254
 21
167.19925965
 31
0.0
  0
SPLINE
  5
152
330
1F
100
AcDbEntity
  8
0
  6
Continuous
 62
     7
370
    25
100
AcDbSpline
210
0.0
220
0.0
230
1.0
 70
     8
 71
     3
 72
    12
 73
     8
 74
     0
 42
0.00000001
 43
0.00000001
 40
0.0
 40
0.0
 40
0.0
 40
0.0
 40
0.1662426524176548
 40
0.3368059756191312
 40
0.60541810712546
 40
0.8801435087136193
 40
1.0
 40
1.0
 40
1.0
 40
1.0
 10
212.0719638553685
 20
144.2638532466101
 30
0.0
 10
212.1714205626438
 20
144.4193384220931
 30
0.0
 10
212.3729188715227
 20
144.7343498554482
 30
0.0
 10
213.1951666275451
 20
145.3973149604469
 30
0.0
 10
214.5569957945317
 20
146.2495098772523
 30
0.0
 10
216.1181019831907
 20
147.0921385558644
 30
0.0
 10
217.0883416753523
 20
147.6299966485595
 30
0.0
 10
217.3830574930551
 20
147.7933740993868
 30
0.0
  0
LINE
  5
153
330
1F
100
AcDbEntity
  8
0
  6
Continuous
 62
     7
370
    25
100
AcDbLine
 10
212.0719638554
 20
144.2638532466
 30
0.0
 11
207.9894560286
 21
144.194379715
 31
0.0
  0
LWPOLYLINE
  5
154
330
1F
100
AcDbEntity
  8
0
  6
Continuous
 62
     7
370
    25
100
AcDbPolyline
 90
        3
 70
   128
 43
0.0
 10
217.3830574931
 20
147.7933740994
 10
213.9807298254
 20
147.7558503958
 10
207.9894560456
 20
147.6898523659
  0
LINE
  5
155
330
1F
100
AcDbEntity
  8
0
  6
Continuous
 62
     7
370
    25
100
AcDbLine
 10
216.5028194294
 20
164.0970980856
 30
0.0
 11
216.4646436254
 21
164.0977853884
 31
0.0
  0
LINE
  5
156
330
1F
100
AcDbEntity
  8
0
  6
Continuous
 62
     7
370
    25
100
AcDbLine
 10
216.5028194294
 20
164.0970980856
 30
0.0
 11
216.5353535687
 21
164.0965110447
 31
0.0
  0
LWPOLYLINE
  5
157
330
1F
100
AcDbEntity
  8
0
  6
Continuous
 62
     7
370
    25
100
AcDbPolyline
 90
        3
 70
   128
 43
0.0
 10
216.4646436254
 20
164.0977853884
 10
213.9807298254
 20
164.1251768607
 10
207.9894560286
 20
164.1911748908
  0
LINE
  5
158
330
1F
100
AcDbEntity
  8
0
  6
Continuous
 62
     7
370
    25
100
AcDbLine
 10
217.4687737826
 20
147.7949222826
 30
0.0
 11
217.4241674494
 21
147.7941156655
 31
0.0
  0
LINE
  5
159
330
1F
100
AcDbEntity
  8
0
  6
Continuous
 62
     7
370
    25
100
AcDbLine
 10
217.3830574931
 20
147.7933740994
 30
0.0
 11
217.4241674494
 21
147.7941156655
 31
0.0
  0
LINE
  5
15A
330
1F
100
AcDbEntity
  8
0
  6
Continuous
 62
     7
370
    25
100
AcDbLine
 10
212.0156346383
 20
167.5712418431
 30
0.0
 11
212.0156346383
 21
167.6181325849
 31
0.0
  0
SPLINE
  5
15B
330
1F
100
AcDbEntity
  8
0
  6
Continuous
 62
     7
370
    25
100
AcDbSpline
210
0.0
220
0.0
230
1.0
 70
     8
 71
     3
 72
    12
 73
     8
 74
     0
 42
0.00000001
 43
0.00000001
 40
0.0
 40
0.0
 40
0.0
 40
0.0
 40
0.0460732444350177
 40
0.2494607408078313
 40
0.4779405209378899
 40
0.7057893369168761
 40
1.0
 40
1.0
 40
1.0
 40
1.0
 10
216.4646436254418
 20
164.0977853883835
 30
0.0
 10
216.3626711844447
 20
164.1602907857993
 30
0.0
 10
215.8105476909716
 20
164.4987224056046
 30
0.0
 10
214.7665677356591
 20
165.1172645024296
 30
0.0
 10
213.4952894601473
 20
165.9249890539983
 30
0.0
 10
212.32852643557
 20
166.797066967538
 30
0.0
 10
212.1284111547921
 20
167.2922037015122
 30
0.0
 10
212.0156346382992
 20
167.5712418430686
 30
0.0
  0
LINE
  5
15C
330
1F
100
AcDbEntity
  8
0
  6
Continuous
 62
     7
370
    25
100
AcDbLine
 10
212.0156346383
 20
167.6181325849
 30
0.0
 11
207.9894560286
 21
167.6866475415
 31
0.0
  0
LINE
  5
15D
330
1F
100
AcDbEntity
  8
0
  6
Continuous
 62
     7
370
    25
100
AcDbLine
 10
207.4807298254
 20
167.19925965
 30
0.0
 11
207.4807298254
 21
167.412403243
 31
0.0
  0
LINE
  5
15E
330
1F
100
AcDbEntity
  8
0
  6
Continuous
 62
     7
370
    25
100
AcDbLine
 10
207.4807298254
 20
144.4686240135
 30
0.0
 11
207.4807298254
 21
144.6817676066
 31
0.0
  0
LINE
  5
15F
330
1F
100
AcDbEntity
  8
0
  6
Continuous
 62
     7
370
    25
100
AcDbLine
 10
212.0156346383
 20
144.0555661814
 30
0.0
 11
212.0719638554
 21
144.2638532466
 31
0.0
  0
LINE
  5
160
330
1F
100
AcDbEntity
  8
0
  6
Continuous
 62
     7
370
    25
100
AcDbLine
 10
56.0720036222
 20
147.4444323309
 30
0.0
 11
56.0720036222
 21
163.9457520627
 31
0.0
  0
SPLINE
  5
161
330
1F
100
AcDbEntity
  8
0
  6
Continuous
 62
     7
370
    25
100
AcDbSpline
210
0.0
220
0.0
230
1.0
 70
     8
 71
     3
 72
    11
 73
     7
 74
     0
 42
0.00000001
 43
0.00000001
 40
0.0
 40
0.0
 40
0.0
 40
0.0
 40
0.2499999999999979
 40
0.4999999999999962
 40
0.7499999999999943
 40
1.0
 40
1.0
 40
1.0
 40
1.0
 10
56.07200362220605
 20
163.9457536019927
 30
0.0
 10
56.13837467494343
 20
163.9398611245897
 30
0.0
 10
56.27111678041817
 20
163.9280761697838
 30
0.0
 10
56.43958052119888
 20
163.8241544873519
 30
0.0
 10
56.55766788023398
 20
163.6739740828959
 30
0.0
 10
56.57304251036112
 20
163.5544150238639
 30
0.0
 10
56.58072982542468
 20
163.4946354943479
 30
0.0
  0
LINE
  5
162
330
1F
100
AcDbEntity
  8
0
  6
Continuous
 62
     7
370
    25
100
AcDbLine
 10
56.5807298254
 20
163.4945806441
 30
0.0
 11
56.5807298254
 21
147.8956575739
 31
0.0
  0
SPLINE
  5
163
330
1F
100
AcDbEntity
  8
0
  6
Continuous
 62
     7
370
    25
100
AcDbSpline
210
0.0
220
0.0
230
1.0
 70
     8
 71
     3
 72
    11
 73
     7
 74
     0
 42
0.00000001
 43
0.00000001
 40
0.0
 40
0.0
 40
0.0
 40
0.0
 40
0.2500000000000009
 40
0.5000000000000018
 40
0.7500000000000026
 40
0.9999999999999999
 40
0.9999999999999999
 40
0.9999999999999999
 40
0.9999999999999999
 10
56.07200362220605
 20
147.4444326161576
 30
0.0
 10
56.13837467494341
 20
147.4503264892301
 30
0.0
 10
56.27111678041817
 20
147.4621142353751
 30
0.0
 10
56.43958052119888
 20
147.5660605322973
 30
0.0
 10
56.55766788023398
 20
147.7162765079068
 30
0.0
 10
56.57304251036111
 20
147.835863885238
 30
0.0
 10
56.58072982542468
 20
147.8956575739037
 30
0.0
  0
LWPOLYLINE
  5
164
330
1F
100
AcDbEntity
  8
0
  6
Continuous
 62
     7
370
    25
100
AcDbPolyline
 90
        3
 70
   128
 43
0.0
 10
56.0720036222
 20
163.9457520627
 10
50.0805298254
 20
163.8794996515
 10
46.5926858683
 20
163.8406836852
  0
LWPOLYLINE
  5
165
330
1F
100
AcDbEntity
  8
0
  6
Continuous
 62
     7
370
    25
100
AcDbPolyline
 90
        3
 70
   128
 43
0.0
 10
47.5261060822
 20
147.539094923
 10
50.0805298254
 20
147.5106850274
 10
56.0720036392
 20
147.444432616
  0
LINE
  5
166
330
1F
100
AcDbEntity
  8
0
  6
Continuous
 62
     7
370
    25
100
AcDbLine
 10
41.7307298254
 20
147.2956486852
 30
0.0
 11
41.7307298254
 21
164.0945359937
 31
0.0
  0
LINE
  5
167
330
1F
100
AcDbEntity
  8
0
  6
Continuous
 62
     7
370
    25
100
AcDbLine
 10
56.0720036222
 20
163.9457533161
 30
0.0
 11
56.0720036222
 21
167.4412262527
 31
0.0
  0
ARC
  5
168
330
1F
100
AcDbEntity
  8
0
  6
Continuous
 62
     7
370
    25
100
AcDbCircle
 10
56.0866685307
 20
166.9473398959
 30
0.0
 40
0.4941040304929027
100
AcDbArc
 50
0.7535768612
 51
91.7007770082
  0
LINE
  5
169
330
1F
100
AcDbEntity
  8
0
  6
Continuous
 62
     7
370
    25
100
AcDbLine
 10
56.5807298254
 20
166.9538383611
 30
0.0
 11
56.5807298254
 21
163.4945818984
 31
0.0
  0
LINE
  5
16A
330
1F
100
AcDbEntity
  8
0
  6
Continuous
 62
     7
370
    25
100
AcDbLine
 10
56.0720036222
 20
143.9489584262
 30
0.0
 11
56.0720036222
 21
147.4444310769
 31
0.0
  0
ARC
  5
16B
330
1F
100
AcDbEntity
  8
0
  6
Continuous
 62
     7
370
    25
100
AcDbCircle
 10
56.0866685307
 20
144.442844783
 30
0.0
 40
0.494104030492884
100
AcDbArc
 50
268.2992229918
 51
359.2464231388
  0
LINE
  5
16C
330
1F
100
AcDbEntity
  8
0
  6
Continuous
 62
     7
370
    25
100
AcDbLine
 10
56.5807298254
 20
147.8956027805
 30
0.0
 11
56.5807298254
 21
144.4363463178
 31
0.0
  0
SPLINE
  5
16D
330
1F
100
AcDbEntity
  8
0
  6
Continuous
 62
     7
370
    25
100
AcDbSpline
210
0.0
220
0.0
230
1.0
 70
     8
 71
     3
 72
    12
 73
     8
 74
     0
 42
0.00000001
 43
0.00000001
 40
0.0
 40
0.0
 40
0.0
 40
0.0
 40
0.166242652417655
 40
0.3368059756191314
 40
0.6054181071254596
 40
0.880143508713619
 40
0.9999999999999999
 40
0.9999999999999999
 40
0.9999999999999999
 40
0.9999999999999999
 10
51.98949579548083
 20
167.3717527211236
 30
0.0
 10
51.8900390882056
 20
167.2162675456406
 30
0.0
 10
51.68854077932669
 20
166.9012561122854
 30
0.0
 10
50.8662930233042
 20
166.238291007287
 30
0.0
 10
49.50446385631763
 20
165.3860960904815
 30
0.0
 10
47.94335766765871
 20
164.5434674118694
 30
0.0
 10
46.97311797549711
 20
164.0056093191742
 30
0.0
 10
46.67840215779423
 20
163.842231868347
 30
0.0
  0
LINE
  5
16E
330
1F
100
AcDbEntity
  8
0
  6
Continuous
 62
     7
370
    25
100
AcDbLine
 10
51.9894957955
 20
167.3717527211
 30
0.0
 11
56.0720036222
 21
167.4412262527
 31
0.0
  0
LWPOLYLINE
  5
16F
330
1F
100
AcDbEntity
  8
0
  6
Continuous
 62
     7
370
    25
100
AcDbPolyline
 90
        3
 70
   128
 43
0.0
 10
46.6784021578
 20
163.8422318683
 10
50.0807298254
 20
163.8797555719
 10
56.0720036053
 20
163.9457536018
  0
LINE
  5
170
330
1F
100
AcDbEntity
  8
0
  6
Continuous
 62
     7
370
    25
100
AcDbLine
 10
52.0458250126
 20
144.0643641247
 30
0.0
 11
52.0458250126
 21
144.0174733829
 31
0.0
  0
SPLINE
  5
171
330
1F
100
AcDbEntity
  8
0
  6
Continuous
 62
     7
370
    25
100
AcDbSpline
210
0.0
220
0.0
230
1.0
 70
     8
 71
     3
 72
    12
 73
     8
 74
     0
 42
0.00000001
 43
0.00000001
 40
0.0
 40
0.0
 40
0.0
 40
0.0
 40
0.0460732444350187
 40
0.249460740807831
 40
0.4779405209378897
 40
0.7057893369168756
 40
1.0
 40
1.0
 40
1.0
 40
1.0
 10
47.59681602540761
 20
147.5378205793502
 30
0.0
 10
47.69878846640467
 20
147.4753151819344
 30
0.0
 10
48.25091195987785
 20
147.1368835621291
 30
0.0
 10
49.29489191519023
 20
146.5183414653042
 30
0.0
 10
50.56617019070202
 20
145.7106169137353
 30
0.0
 10
51.73293321527939
 20
144.8385390001959
 30
0.0
 10
51.93304849605723
 20
144.3434022662215
 30
0.0
 10
52.04582501255012
 20
144.0643641246651
 30
0.0
  0
LWPOLYLINE
  5
172
330
1F
100
AcDbEntity
  8
0
  6
Continuous
 62
     7
370
    25
100
AcDbPolyline
 90
        3
 70
   128
 43
0.0
 10
47.5968160254
 20
147.5378205794
 10
50.0807298254
 20
147.510429107
 10
56.0720036222
 20
147.4444310769
  0
LINE
  5
173
330
1F
100
AcDbEntity
  8
0
  6
Continuous
 62
     7
370
    25
100
AcDbLine
 10
52.0458250126
 20
144.0174733829
 30
0.0
 11
56.0720036222
 21
143.9489584262
 31
0.0
  0
LINE
  5
174
330
1F
100
AcDbEntity
  8
0
  6
Continuous
 62
     7
370
    25
100
AcDbLine
 10
46.5926858683
 20
163.8406836852
 30
0.0
 11
46.6372922015
 21
163.8414903023
 31
0.0
  0
LINE
  5
175
330
1F
100
AcDbEntity
  8
0
  6
Continuous
 62
     7
370
    25
100
AcDbLine
 10
46.6784021578
 20
163.8422318683
 30
0.0
 11
46.6372922015
 21
163.8414903023
 31
0.0
  0
LINE
  5
176
330
1F
100
AcDbEntity
  8
0
  6
Continuous
 62
     7
370
    25
100
AcDbLine
 10
47.5586402214
 20
147.5385078821
 30
0.0
 11
47.5968160254
 21
147.5378205794
 31
0.0
  0
LINE
  5
177
330
1F
100
AcDbEntity
  8
0
  6
Continuous
 62
     7
370
    25
100
AcDbLine
 10
47.5586402214
 20
147.5385078821
 30
0.0
 11
47.5261060822
 21
147.539094923
 31
0.0
  0
LINE
  5
178
330
1F
100
AcDbEntity
  8
0
  6
Continuous
 62
     7
370
    25
100
AcDbLine
 10
56.5807298254
 20
144.4363463178
 30
0.0
 11
56.5807298254
 21
144.2232027247
 31
0.0
  0
LINE
  5
179
330
1F
100
AcDbEntity
  8
0
  6
Continuous
 62
     7
370
    25
100
AcDbLine
 10
56.5807298254
 20
167.1669819542
 30
0.0
 11
56.5807298254
 21
166.9538383611
 31
0.0
  0
LINE
  5
17A
330
1F
100
AcDbEntity
  8
0
  6
Continuous
 62
     7
370
    25
100
AcDbLine
 10
52.0458250126
 20
167.5800397864
 30
0.0
 11
51.9894957955
 21
167.3717527211
 31
0.0
  0
LINE
  5
17B
330
1F
100
AcDbEntity
  8
0
  6
Continuous
 62
     7
370
    25
100
AcDbLine
 10
66.4807298254
 20
164.4115493467
 30
0.0
 11
66.4807298254
 21
165.5099754755
 31
0.0
  0
SPLINE
  5
17C
330
1F
100
AcDbEntity
  8
0
  6
Continuous
 62
     7
370
    25
100
AcDbSpline
210
0.0
220
0.0
230
1.0
 70
     8
 71
     3
 72
    13
 73
     9
 74
     0
 42
0.00000001
 43
0.00000001
 40
0.0
 40
0.0
 40
0.0
 40
0.0
 40
0.0295448902054257
 40
0.2606471239688184
 40
0.4913152552054746
 40
0.7308682638478782
 40
0.9709134921287369
 40
1.0
 40
1.0
 40
1.0
 40
1.0
 10
66.48072982542469
 20
164.4115493467072
 30
0.0
 10
66.4528050076088
 20
164.3500040396001
 30
0.0
 10
66.20645027755378
 20
163.807046960399
 30
0.0
 10
65.84436159365639
 20
162.7516007946418
 30
0.0
 10
65.63261402346227
 20
161.1932655745581
 30
0.0
 10
65.82745465831441
 20
159.6124549781291
 30
0.0
 10
66.19879981453585
 20
158.5184516991757
 30
0.0
 10
66.45323197898098
 20
157.9578400161833
 30
0.0
 10
66.48072982542469
 20
157.8972517096416
 30
0.0
  0
LINE
  5
17D
330
1F
100
AcDbEntity
  8
0
  6
Continuous
 62
     7
370
    25
100
AcDbLine
 10
66.4807298254
 20
155.3009495476
 30
0.0
 11
66.4807298254
 21
157.8972517096
 31
0.0
  0
SPLINE
  5
17E
330
1F
100
AcDbEntity
  8
0
  6
Continuous
 62
     7
370
    25
100
AcDbSpline
210
0.0
220
0.0
230
1.0
 70
     8
 71
     3
 72
    11
 73
     7
 74
     0
 42
0.00000001
 43
0.00000001
 40
0.0
 40
0.0
 40
0.0
 40
0.0
 40
0.243164119738092
 40
0.4936284730588945
 40
0.7421706076863281
 40
1.0
 40
1.0
 40
1.0
 40
1.0
 10
66.48072982542467
 20
155.3009495475568
 30
0.0
 10
66.2705895022159
 20
154.7318733271995
 30
0.0
 10
65.84400005725429
 20
153.5766361729201
 30
0.0
 10
65.63361562711133
 20
151.7440566055977
 30
0.0
 10
65.82430232077829
 20
149.8728115109564
 30
0.0
 10
66.259261491173
 20
148.6864359109911
 30
0.0
 10
66.48072982542469
 20
148.0823685736299
 30
0.0
  0
LINE
  5
17F
330
1F
100
AcDbEntity
  8
0
  6
Continuous
 62
     7
370
    25
100
AcDbLine
 10
66.4807298254
 20
146.5844925403
 30
0.0
 11
66.4807298254
 21
148.0823685736
 31
0.0
  0
SPLINE
  5
180
330
1F
100
AcDbEntity
  8
0
  6
Continuous
 62
     7
370
    25
100
AcDbSpline
210
0.0
220
0.0
230
1.0
 70
     8
 71
     3
 72
    11
 73
     7
 74
     0
 42
0.00000001
 43
0.00000001
 40
0.0
 40
0.0
 40
0.0
 40
0.0
 40
0.2431641197380907
 40
0.4936284730588919
 40
0.7421706076863273
 40
1.0
 40
1.0
 40
1.0
 40
1.0
 10
66.48072982542467
 20
146.5844925403023
 30
0.0
 10
66.2705895022159
 20
146.5289704230261
 30
0.0
 10
65.84400005725429
 20
146.4162593125156
 30
0.0
 10
65.63361562711133
 20
146.2374630563816
 30
0.0
 10
65.82430232077829
 20
146.0548943847688
 30
0.0
 10
66.259261491173
 20
145.9391452410892
 30
0.0
 10
66.48072982542469
 20
145.880209203441
 30
0.0
  0
SPLINE
  5
181
330
1F
100
AcDbEntity
  8
0
  6
Continuous
 62
     7
370
    25
100
AcDbSpline
210
0.0
220
0.0
230
1.0
 70
     8
 71
     3
 72
     9
 73
     5
 74
     0
 42
0.00000001
 43
0.00000001
 40
0.0
 40
0.0
 40
0.0
 40
0.0
 40
0.3487394647221094
 40
1.0
 40
1.0
 40
1.0
 40
1.0
 10
65.7873413408429
 20
165.2324726638102
 30
0.0
 10
65.81168317535746
 20
165.2656860179104
 30
0.0
 10
65.88148265886004
 20
165.3609243188774
 30
0.0
 10
66.24438551626031
 20
165.4511893941957
 30
0.0
 10
66.48072982542469
 20
165.5099754754644
 30
0.0
  0
LINE
  5
182
330
1F
100
AcDbEntity
  8
0
  6
Continuous
 62
     7
370
    25
100
AcDbLine
 10
64.4807298254
 20
160.4360705033
 30
0.0
 11
64.4807298254
 21
163.9450923395
 31
0.0
  0
LINE
  5
183
330
1F
100
AcDbEntity
  8
0
  6
Continuous
 62
     7
370
    25
100
AcDbLine
 10
64.4807298254
 20
147.4450923395
 30
0.0
 11
64.4807298254
 21
160.4360705033
 31
0.0
  0
SPLINE
  5
184
330
1F
100
AcDbEntity
  8
0
  6
Continuous
 62
     7
370
    25
100
AcDbSpline
210
0.0
220
0.0
230
1.0
 70
     8
 71
     3
 72
    27
 73
    23
 74
     0
 42
0.00000001
 43
0.00000001
 40
0.0
 40
0.0
 40
0.0
 40
0.0
 40
0.0136139090399478
 40
0.0776727084403657
 40
0.1348261364597257
 40
0.1770440798320013
 40
0.2043098191732025
 40
0.2303999875176522
 40
0.2595714286585741
 40
0.2865528382490246
 40
0.3220521810161566
 40
0.3830134828479141
 40
0.4812574504364836
 40
0.5465783976780292
 40
0.6342111976224546
 40
0.690740177653238
 40
0.7424867965677212
 40
0.7860227414525571
 40
0.8208210581933933
 40
0.8874577604484434
 40
0.9380042021573733
 40
1.0
 40
1.0
 40
1.0
 40
1.0
 10
71.88019132602723
 20
146.3072365233147
 30
0.0
 10
71.8774885374089
 20
146.3040879822143
 30
0.0
 10
71.86206806473558
 20
146.2861243162177
 30
0.0
 10
71.83432352166675
 20
146.4511949739543
 30
0.0
 10
71.80124657041236
 20
146.8242087414386
 30
0.0
 10
71.77570632560156
 20
147.2524952229932
 30
0.0
 10
71.75670885737101
 20
147.6398439822239
 30
0.0
 10
71.7408774317924
 20
148.0163838933272
 30
0.0
 10
71.72491940339165
 20
148.4328425065683
 30
0.0
 10
71.70744030966794
 20
148.9409157329506
 30
0.0
 10
71.6824436513499
 20
149.6872286545859
 30
0.0
 10
71.64268937306663
 20
151.0011480974862
 30
0.0
 10
71.59668285004985
 20
152.7321866898081
 30
0.0
 10
71.54893670892172
 20
154.7917309907066
 30
0.0
 10
71.50682690141669
 20
156.5557826864352
 30
0.0
 10
71.46678612983918
 20
158.1633665091173
 30
0.0
 10
71.43600628352934
 20
159.3611425148441
 30
0.0
 10
71.41003601595818
 20
160.3324583240197
 30
0.0
 10
71.38244277656774
 20
161.3521475974201
 30
0.0
 10
71.3523949198506
 20
162.3204844133547
 30
0.0
 10
71.31624779316215
 20
163.3081368505782
 30
0.0
 10
71.29334578456178
 20
163.7798787789827
 30
0.0
 10
71.2807298254247
 20
164.0397458061879
 30
0.0
  0
LINE
  5
185
330
1F
100
AcDbEntity
  8
0
  6
Continuous
 62
     7
370
    25
100
AcDbLine
 10
71.2807298254
 20
165.0950923395
 30
0.0
 11
71.2807298254
 21
164.0397458063
 31
0.0
  0
SPLINE
  5
186
330
1F
100
AcDbEntity
  8
0
  6
Continuous
 62
     7
370
    25
100
AcDbSpline
210
0.0
220
0.0
230
1.0
 70
     8
 71
     3
 72
    35
 73
    31
 74
     0
 42
0.00000001
 43
0.00000001
 40
0.0
 40
0.0
 40
0.0
 40
0.0
 40
0.0240674770331332
 40
0.0679877929768137
 40
0.1125749483174371
 40
0.1439040808921705
 40
0.1776893127437589
 40
0.2210914069396794
 40
0.25679880758231
 40
0.2935583688291123
 40
0.3694549076630431
 40
0.3999481985346628
 40
0.4395535899128757
 40
0.4786156453284778
 40
0.5166906085772273
 40
0.5503864380236242
 40
0.589604421640268
 40
0.618154641638251
 40
0.6457847797213725
 40
0.695119693230898
 40
0.7446823840802002
 40
0.7762169429139683
 40
0.8205828779315806
 40
0.8620435694165093
 40
0.8879065094688606
 40
0.8964752009135436
 40
0.9214211820786599
 40
0.946367326377801
 40
0.9713136358219019
 40
0.9999999999999999
 40
0.9999999999999999
 40
0.9999999999999999
 40
0.9999999999999999
 10
72.23294553444947
 20
146.3038751072662
 30
0.0
 10
72.22725927092004
 20
146.3057650589877
 30
0.0
 10
72.2111962449901
 20
146.3111039503973
 30
0.0
 10
72.18400469937419
 20
146.4835004402868
 30
0.0
 10
72.15515222360749
 20
146.810748826475
 30
0.0
 10
72.12899465543885
 20
147.2351075969317
 30
0.0
 10
72.10403753051602
 20
147.7522837364464
 30
0.0
 10
72.07881538799644
 20
148.4053429025824
 30
0.0
 10
72.05183570268387
 20
149.1843707451138
 30
0.0
 10
72.01557620873749
 20
150.2959916539154
 30
0.0
 10
71.98126283570852
 20
151.5254852520529
 30
0.0
 10
71.9468737598534
 20
152.8697128715444
 30
0.0
 10
71.92199914643254
 20
153.9124677534606
 30
0.0
 10
71.8955705574397
 20
155.0540754255079
 30
0.0
 10
71.86944087393691
 20
156.1468692905397
 30
0.0
 10
71.8428099865781
 20
157.2343538553586
 30
0.0
 10
71.81845021016481
 20
158.2109355357611
 30
0.0
 10
71.79560925399595
 20
159.1008439202146
 30
0.0
 10
71.77022878150402
 20
160.0518147920568
 30
0.0
 10
71.74165939629601
 20
161.1267406910635
 30
0.0
 10
71.71199745814202
 20
162.1196430266497
 30
0.0
 10
71.68210025342496
 20
162.9642522352379
 30
0.0
 10
71.65382572596194
 20
163.6498570435373
 30
0.0
 10
71.62692669229666
 20
164.1765398100498
 30
0.0
 10
71.60869984884698
 20
164.4626505143762
 30
0.0
 10
71.59489925173565
 20
164.6566063196939
 30
0.0
 10
71.58198521439162
 20
164.8203789083124
 30
0.0
 10
71.56481798080958
 20
164.9669245656131
 30
0.0
 10
71.54679696621945
 20
165.0880978753308
 30
0.0
 10
71.53400806101578
 20
165.0527069845974
 30
0.0
 10
71.5271676936178
 20
165.033777553868
 30
0.0
  0
SPLINE
  5
187
330
1F
100
AcDbEntity
  8
0
  6
Continuous
 62
     7
370
    25
100
AcDbSpline
210
0.0
220
0.0
230
1.0
 70
     8
 71
     3
 72
    18
 73
    14
 74
     0
 42
0.00000001
 43
0.00000001
 40
0.0
 40
0.0
 40
0.0
 40
0.0
 40
0.0774554087960548
 40
0.1860661841307256
 40
0.2602328912561668
 40
0.3356194784643641
 40
0.411497808879659
 40
0.5187351849825098
 40
0.6282504212506469
 40
0.7366780512135038
 40
0.8447168369584802
 40
0.9543674583636138
 40
1.0
 40
1.0
 40
1.0
 40
1.0
 10
71.42888835986963
 20
147.1558011504716
 30
0.0
 10
71.41189026924025
 20
147.1905638097102
 30
0.0
 10
71.37105684120625
 20
147.2740719269005
 30
0.0
 10
71.31423490494322
 20
148.2518351140454
 30
0.0
 10
71.26119663573661
 20
149.6011335643739
 30
0.0
 10
71.21103602612754
 20
151.0799716542038
 30
0.0
 10
71.15377384380706
 20
153.0170221221724
 30
0.0
 10
71.09431518327261
 20
155.4348266109107
 30
0.0
 10
71.02106502291674
 20
158.1455935369762
 30
0.0
 10
70.95129722660246
 20
160.6258607599491
 30
0.0
 10
70.88270616811401
 20
162.6184654293976
 30
0.0
 10
70.82293548089636
 20
163.7122686533719
 30
0.0
 10
70.79031569295898
 20
164.0366748485089
 30
0.0
 10
70.78072982542469
 20
164.1320070076223
 30
0.0
  0
SPLINE
  5
188
330
1F
100
AcDbEntity
  8
0
  6
Continuous
 62
     7
370
    25
100
AcDbSpline
210
0.0
220
0.0
230
1.0
 70
     8
 71
     3
 72
    11
 73
     7
 74
     0
 42
0.00000001
 43
0.00000001
 40
0.0
 40
0.0
 40
0.0
 40
0.0
 40
0.1701587585696631
 40
0.5148066094740514
 40
0.7558205066443099
 40
1.0
 40
1.0
 40
1.0
 40
1.0
 10
71.02913443050768
 20
164.811439550522
 30
0.0
 10
71.04390759507254
 20
164.8326977627763
 30
0.0
 10
71.08860304786474
 20
164.8970133952251
 30
0.0
 10
71.14870181438366
 20
164.7385475085036
 30
0.0
 10
71.21849811874789
 20
164.449436596884
 30
0.0
 10
71.2598958913001
 20
164.1769021112445
 30
0.0
 10
71.28072982540809
 20
164.0397458063055
 30
0.0
  0
SPLINE
  5
189
330
1F
100
AcDbEntity
  8
0
  6
Continuous
 62
     7
370
    25
100
AcDbSpline
210
0.0
220
0.0
230
1.0
 70
     8
 71
     3
 72
    16
 73
    12
 74
     0
 42
0.00000001
 43
0.00000001
 40
0.0
 40
0.0
 40
0.0
 40
0.0
 40
0.0792140638713505
 40
0.1934397168971934
 40
0.3076653699220776
 40
0.4218677295428677
 40
0.5346865681724856
 40
0.6475054053740941
 40
0.760324242022115
 40
0.87828045029795
 40
0.9999999999999999
 40
0.9999999999999999
 40
0.9999999999999999
 40
0.9999999999999999
 10
70.98973288647093
 20
146.6126380292445
 30
0.0
 10
70.98426316105284
 20
146.619195028121
 30
0.0
 10
70.97090616250144
 20
146.6352071343604
 30
0.0
 10
70.9489714726421
 20
146.9487896646908
 30
0.0
 10
70.92473031504272
 20
147.5039008226505
 30
0.0
 10
70.90185016763391
 20
148.2896880618781
 30
0.0
 10
70.87895004585346
 20
149.2714325497618
 30
0.0
 10
70.8547923487029
 20
150.4238095706056
 30
0.0
 10
70.83007504540353
 20
151.7379502729061
 30
0.0
 10
70.80504871423665
 20
153.1978840090808
 30
0.0
 10
70.78892053552119
 20
154.2447554552532
 30
0.0
 10
70.78072982542469
 20
154.7764100627075
 30
0.0
  0
SPLINE
  5
18A
330
1F
100
AcDbEntity
  8
0
  6
Continuous
 62
     7
370
    25
100
AcDbSpline
210
0.0
220
0.0
230
1.0
 70
    24
 71
     3
 72
    10
 73
     6
 74
     0
 42
0.00000001
 43
0.00000001
 40
0.0
 40
0.0
 40
0.0
 40
0.0
 40
0.3294562546722003
 40
0.831864205694292
 40
1.0
 40
1.0
 40
1.0
 40
1.0
 10
70.78072982542469
 20
154.7764100627075
 30
0.0
 10
70.78072982542469
 20
155.4251379403156
 30
0.0
 10
70.78072982542467
 20
157.0631505534166
 30
0.0
 10
70.78072982542469
 20
158.9770140896891
 30
0.0
 10
70.78072982542469
 20
160.0799785596441
 30
0.0
 10
70.78072982542469
 20
160.3565418838701
 30
0.0
  0
SPLINE
  5
18B
330
1F
100
AcDbEntity
  8
0
  6
Continuous
 62
     7
370
    25
100
AcDbSpline
210
0.0
220
0.0
230
1.0
 70
     8
 71
     3
 72
    15
 73
    11
 74
     0
 42
0.00000001
 43
0.00000001
 40
0.0
 40
0.0
 40
0.0
 40
0.0
 40
0.1319746667032354
 40
0.1608073069995045
 40
0.3024203969717298
 40
0.4436898895822917
 40
0.5869603891290426
 40
0.7271016041552263
 40
0.8702195989016372
 40
1.0
 40
1.0
 40
1.0
 40
1.0
 10
71.27736670301205
 20
147.0804273703875
 30
0.0
 10
71.25540715310841
 20
147.0896132532632
 30
0.0
 10
71.2286500778974
 20
147.1008059853575
 30
0.0
 10
71.17747735813734
 20
147.5977535417861
 30
0.0
 10
71.1266257268026
 20
148.4573561568434
 30
0.0
 10
71.05784243452958
 20
150.3414025544925
 30
0.0
 10
70.9841058805746
 20
152.7415365548888
 30
0.0
 10
70.91797054263209
 20
155.4288616298953
 30
0.0
 10
70.84669428594516
 20
158.0896924235021
 30
0.0
 10
70.8019896836779
 20
159.6259530512088
 30
0.0
 10
70.78072982542469
 20
160.3565418838701
 30
0.0
  0
LINE
  5
18C
330
1F
100
AcDbEntity
  8
0
  6
Continuous
 62
     7
370
    25
100
AcDbLine
 10
69.0307298254
 20
155.3009495476
 30
0.0
 11
69.2807298254
 21
154.6653715292
 31
0.0
  0
LINE
  5
18D
330
1F
100
AcDbEntity
  8
0
  6
Continuous
 62
     7
370
    25
100
AcDbLine
 10
69.2807298254
 20
148.717946592
 30
0.0
 11
69.0307298254
 21
148.0823685736
 31
0.0
  0
LINE
  5
18E
330
1F
100
AcDbEntity
  8
0
  6
Continuous
 62
     7
370
    25
100
AcDbLine
 10
66.4807298254
 20
148.0823685736
 30
0.0
 11
69.0307298254
 21
148.0823685736
 31
0.0
  0
LINE
  5
18F
330
1F
100
AcDbEntity
  8
0
  6
Continuous
 62
     7
370
    25
100
AcDbLine
 10
69.0307298254
 20
155.3009495476
 30
0.0
 11
66.4807298254
 21
155.3009495476
 31
0.0
  0
LINE
  5
190
330
1F
100
AcDbEntity
  8
0
  6
Continuous
 62
     7
370
    25
100
AcDbLine
 10
69.2807298254
 20
148.717946592
 30
0.0
 11
69.2807298254
 21
154.6653715292
 31
0.0
  0
LINE
  5
191
330
1F
100
AcDbEntity
  8
0
  6
Continuous
 62
     7
370
    25
100
AcDbLine
 10
70.7807298254
 20
146.7950923395
 30
0.0
 11
70.7807298254
 21
154.7764100627
 31
0.0
  0
SPLINE
  5
192
330
1F
100
AcDbEntity
  8
0
  6
Continuous
 62
     7
370
    25
100
AcDbSpline
210
0.0
220
0.0
230
1.0
 70
    24
 71
     3
 72
    11
 73
     7
 74
     0
 42
0.00000001
 43
0.00000001
 40
0.0
 40
0.0
 40
0.0
 40
0.0
 40
0.0521773337626352
 40
0.2615477432295232
 40
0.6847281688108031
 40
1.0
 40
1.0
 40
1.0
 40
1.0
 10
70.78072982542469
 20
160.3565418838701
 30
0.0
 10
70.78072982542469
 20
160.4547644175553
 30
0.0
 10
70.78072982542467
 20
160.9471215421358
 30
0.0
 10
70.78072982542469
 20
162.1320111885947
 30
0.0
 10
70.78072982542469
 20
163.4551174530106
 30
0.0
 10
70.78072982542469
 20
163.9294832048226
 30
0.0
 10
70.78072982542469
 20
164.1320070076223
 30
0.0
  0
LINE
  5
193
330
1F
100
AcDbEntity
  8
0
  6
Continuous
 62
     7
370
    25
100
AcDbLine
 10
69.0307298254
 20
155.3009495476
 30
0.0
 11
69.0307298254
 21
157.8972517096
 31
0.0
  0
LINE
  5
194
330
1F
100
AcDbEntity
  8
0
  6
Continuous
 62
     7
370
    25
100
AcDbLine
 10
69.2807298254
 20
158.4708193399
 30
0.0
 11
69.0307298254
 21
157.8972517096
 31
0.0
  0
LINE
  5
195
330
1F
100
AcDbEntity
  8
0
  6
Continuous
 62
     7
370
    25
100
AcDbLine
 10
69.2807298254
 20
158.4708193399
 30
0.0
 11
69.2807298254
 21
154.6653715292
 31
0.0
  0
LINE
  5
196
330
1F
100
AcDbEntity
  8
0
  6
Continuous
 62
     7
370
    25
100
AcDbLine
 10
66.4807298254
 20
157.8972517096
 30
0.0
 11
69.0307298254
 21
157.8972517096
 31
0.0
  0
LINE
  5
197
330
1F
100
AcDbEntity
  8
0
  6
Continuous
 62
     7
370
    25
100
AcDbLine
 10
69.0307298254
 20
164.4115493467
 30
0.0
 11
69.2807298254
 21
163.8379817165
 31
0.0
  0
LINE
  5
198
330
1F
100
AcDbEntity
  8
0
  6
Continuous
 62
     7
370
    25
100
AcDbLine
 10
69.0307298254
 20
164.4115493467
 30
0.0
 11
66.4807298254
 21
164.4115493467
 31
0.0
  0
LINE
  5
199
330
1F
100
AcDbEntity
  8
0
  6
Continuous
 62
     7
370
    25
100
AcDbLine
 10
69.2807298254
 20
158.4708193399
 30
0.0
 11
69.2807298254
 21
163.8379817165
 31
0.0
  0
LINE
  5
19A
330
1F
100
AcDbEntity
  8
0
  6
Continuous
 62
     7
370
    25
100
AcDbLine
 10
69.0307298254
 20
146.5844925403
 30
0.0
 11
69.2807298254
 21
146.5224821522
 31
0.0
  0
LINE
  5
19B
330
1F
100
AcDbEntity
  8
0
  6
Continuous
 62
     7
370
    25
100
AcDbLine
 10
69.0307298254
 20
146.5844925403
 30
0.0
 11
69.0307298254
 21
148.0823685736
 31
0.0
  0
LINE
  5
19C
330
1F
100
AcDbEntity
  8
0
  6
Continuous
 62
     7
370
    25
100
AcDbLine
 10
69.2807298254
 20
148.717946592
 30
0.0
 11
69.2807298254
 21
146.5224821522
 31
0.0
  0
LINE
  5
19D
330
1F
100
AcDbEntity
  8
0
  6
Continuous
 62
     7
370
    25
100
AcDbLine
 10
69.0307298254
 20
146.5844925403
 30
0.0
 11
66.4807298254
 21
146.5844925403
 31
0.0
  0
LINE
  5
19E
330
1F
100
AcDbEntity
  8
0
  6
Continuous
 62
     7
370
    25
100
AcDbLine
 10
69.0307298254
 20
164.4115493467
 30
0.0
 11
69.0307298254
 21
165.5099754755
 31
0.0
  0
LINE
  5
19F
330
1F
100
AcDbEntity
  8
0
  6
Continuous
 62
     7
370
    25
100
AcDbLine
 10
69.2807298254
 20
165.4479650874
 30
0.0
 11
69.0307298254
 21
165.5099754755
 31
0.0
  0
LINE
  5
1A0
330
1F
100
AcDbEntity
  8
0
  6
Continuous
 62
     7
370
    25
100
AcDbLine
 10
69.2807298254
 20
165.4479650874
 30
0.0
 11
69.2807298254
 21
163.8379817165
 31
0.0
  0
LINE
  5
1A1
330
1F
100
AcDbEntity
  8
0
  6
Continuous
 62
     7
370
    25
100
AcDbLine
 10
66.4807298254
 20
165.5099754755
 30
0.0
 11
69.0307298254
 21
165.5099754755
 31
0.0
  0
LINE
  5
1A2
330
1F
100
AcDbEntity
  8
0
  6
Continuous
 62
     7
370
    25
100
AcDbLine
 10
69.2807298254
 20
145.9422195915
 30
0.0
 11
69.0307298254
 21
145.8802092034
 31
0.0
  0
LINE
  5
1A3
330
1F
100
AcDbEntity
  8
0
  6
Continuous
 62
     7
370
    25
100
AcDbLine
 10
66.4807298254
 20
145.8802092034
 30
0.0
 11
69.0307298254
 21
145.8802092034
 31
0.0
  0
LINE
  5
1A4
330
1F
100
AcDbEntity
  8
0
  6
Continuous
 62
     7
370
    25
100
AcDbLine
 10
69.2807298254
 20
145.9422195915
 30
0.0
 11
69.2807298254
 21
146.5224821522
 31
0.0
  0
LINE
  5
1A5
330
1F
100
AcDbEntity
  8
0
  6
Continuous
 62
     7
370
    25
100
AcDbLine
 10
198.8307298254
 20
157.8972517096
 30
0.0
 11
198.8307298254
 21
155.3009495476
 31
0.0
  0
SPLINE
  5
1A6
330
1F
100
AcDbEntity
  8
0
  6
Continuous
 62
     7
370
    25
100
AcDbSpline
210
0.0
220
0.0
230
1.0
 70
     8
 71
     3
 72
    13
 73
     9
 74
     0
 42
0.00000001
 43
0.00000001
 40
0.0
 40
0.0
 40
0.0
 40
0.0
 40
0.0295448902054259
 40
0.2606471239688192
 40
0.4913152552054726
 40
0.7308682638478787
 40
0.9709134921287392
 40
1.0
 40
1.0
 40
1.0
 40
1.0
 10
198.8307298254247
 20
157.8972517096415
 30
0.0
 10
198.8586546432406
 20
157.9587970167487
 30
0.0
 10
199.1050093732956
 20
158.5017540959498
 30
0.0
 10
199.467098057193
 20
159.5572002617071
 30
0.0
 10
199.678845627387
 20
161.1155354817908
 30
0.0
 10
199.4840049925349
 20
162.6963460782198
 30
0.0
 10
199.1126598363136
 20
163.790349357173
 30
0.0
 10
198.8582276718684
 20
164.3509610401655
 30
0.0
 10
198.8307298254247
 20
164.4115493467072
 30
0.0
  0
LINE
  5
1A7
330
1F
100
AcDbEntity
  8
0
  6
Continuous
 62
     7
370
    25
100
AcDbLine
 10
198.8307298254
 20
165.5099754755
 30
0.0
 11
198.8307298254
 21
164.4115493467
 31
0.0
  0
SPLINE
  5
1A8
330
1F
100
AcDbEntity
  8
0
  6
Continuous
 62
     7
370
    25
100
AcDbSpline
210
0.0
220
0.0
230
1.0
 70
     8
 71
     3
 72
     9
 73
     5
 74
     0
 42
0.00000001
 43
0.00000001
 40
0.0
 40
0.0
 40
0.0
 40
0.0
 40
0.6141669735876238
 40
1.0
 40
1.0
 40
1.0
 40
1.0
 10
198.8307298254247
 20
165.5099754754644
 30
0.0
 10
199.0532812258448
 20
165.4545812431834
 30
0.0
 10
199.415644247614
 20
165.364387151571
 30
0.0
 10
199.494884701098
 20
165.2691816649445
 30
0.0
 10
199.52545828508
 20
165.2324482439083
 30
0.0
  0
SPLINE
  5
1A9
330
1F
100
AcDbEntity
  8
0
  6
Continuous
 62
     7
370
    25
100
AcDbSpline
210
0.0
220
0.0
230
1.0
 70
     8
 71
     3
 72
    11
 73
     7
 74
     0
 42
0.00000001
 43
0.00000001
 40
0.0
 40
0.0
 40
0.0
 40
0.0
 40
0.2431641197380933
 40
0.4936284730588935
 40
0.7421706076863281
 40
0.9999999999999999
 40
0.9999999999999999
 40
0.9999999999999999
 40
0.9999999999999999
 10
198.8307298254247
 20
145.880209203441
 30
0.0
 10
199.0408701486335
 20
145.9357313207172
 30
0.0
 10
199.4674595935951
 20
146.0484424312278
 30
0.0
 10
199.677844023738
 20
146.2272386873617
 30
0.0
 10
199.4871573300711
 20
146.4098073589744
 30
0.0
 10
199.0521981596764
 20
146.5255565026541
 30
0.0
 10
198.8307298254247
 20
146.5844925403023
 30
0.0
  0
LINE
  5
1AA
330
1F
100
AcDbEntity
  8
0
  6
Continuous
 62
     7
370
    25
100
AcDbLine
 10
198.8307298254
 20
148.0823685736
 30
0.0
 11
198.8307298254
 21
146.5844925403
 31
0.0
  0
SPLINE
  5
1AB
330
1F
100
AcDbEntity
  8
0
  6
Continuous
 62
     7
370
    25
100
AcDbSpline
210
0.0
220
0.0
230
1.0
 70
     8
 71
     3
 72
    11
 73
     7
 74
     0
 42
0.00000001
 43
0.00000001
 40
0.0
 40
0.0
 40
0.0
 40
0.0
 40
0.2431641197380922
 40
0.4936284730588946
 40
0.7421706076863281
 40
1.0
 40
1.0
 40
1.0
 40
1.0
 10
198.8307298254247
 20
148.0823685736299
 30
0.0
 10
199.0408701486335
 20
148.6514447939871
 30
0.0
 10
199.4674595935951
 20
149.8066819482665
 30
0.0
 10
199.6778440237381
 20
151.639261515589
 30
0.0
 10
199.4871573300711
 20
153.5105066102303
 30
0.0
 10
199.0521981596764
 20
154.6968822101956
 30
0.0
 10
198.8307298254247
 20
155.3009495475568
 30
0.0
  0
LINE
  5
1AC
330
1F
100
AcDbEntity
  8
0
  6
Continuous
 62
     7
370
    25
100
AcDbLine
 10
200.8307298254
 20
160.4360705033
 30
0.0
 11
200.8307298254
 21
147.4450923395
 31
0.0
  0
LINE
  5
1AD
330
1F
100
AcDbEntity
  8
0
  6
Continuous
 62
     7
370
    25
100
AcDbLine
 10
200.8307298254
 20
163.9450923395
 30
0.0
 11
200.8307298254
 21
160.4360705033
 31
0.0
  0
LWPOLYLINE
  5
1AE
330
1F
100
AcDbEntity
  8
0
  6
Continuous
 62
     7
370
    25
100
AcDbPolyline
 90
       69
 70
   128
 43
0.0
 10
193.7169552619
 20
165.0684402338
 10
192.3095432837
 20
165.0794008345
 10
192.3221137025
 20
165.0338081986
 10
192.3311421585
 20
164.9814772809
 10
192.3791204751
 20
164.4480637525
 10
192.4083706889
 20
163.9359082662
 10
192.4419884119
 20
163.1884002687
 10
192.4962879837
 20
161.6160321249
 10
192.5145683752
 20
160.9782883392
 10
192.5344288768
 20
160.252916641
 10
192.5928703883
 20
158.0052209464
 10
192.6265329896
 20
156.6501792152
 10
192.651733506
 20
155.6082945061
 10
192.6558860993
 20
155.4331754101
 10
192.6609703023
 20
155.2139845834
 10
192.6705242458
 20
154.802738511
 10
192.6845479297
 20
154.202343282
 10
192.7009059296
 20
153.5099924512
 10
192.7167348201
 20
152.8657968184
 10
192.7416041036
 20
151.9005391917
 10
192.7755137802
 20
150.6700584289
 10
192.8096218611
 20
149.5466228066
 10
192.8619383524
 20
148.0611931826
 10
192.8789050958
 20
147.6557380465
 10
192.8925968069
 20
147.3618915298
 10
192.906425648
 20
147.1097718954
 10
192.9434365665
 20
146.6056420666
 10
192.9777873413
 20
146.3502078224
 10
192.9869836954
 20
146.3169695607
 10
193.006077121
 20
146.2963317721
 10
193.0232183808
 20
146.3361642056
 10
193.0504933446
 20
146.5202522667
 10
193.0747870035
 20
146.8021660016
 10
193.0959986907
 20
147.126250216
 10
193.1269705518
 20
147.7240661012
 10
193.1587971612
 20
148.4885810068
 10
193.180588733
 20
149.1008103379
 10
193.2046667077
 20
149.8712588935
 10
193.2316663287
 20
150.8340020347
 10
193.2485686124
 20
151.4626166642
 10
193.2675434036
 20
152.1831184544
 10
193.2778588352
 20
152.5797022081
 10
193.2968074706
 20
153.320800449
 10
193.3234270924
 20
154.387102452
 10
193.3433068964
 20
155.2008363408
 10
193.3674956223
 20
156.2114394429
 10
193.3929899877
 20
157.2971622092
 10
193.4152696082
 20
158.2483514455
 10
193.4393939872
 20
159.2048540622
 10
193.4784424131
 20
160.6344236601
 10
193.513212518
 20
161.7897301048
 10
193.5386943022
 20
162.5537279677
 10
193.5548877657
 20
163.0016031572
 10
193.5700182616
 20
163.3942092704
 10
193.5869148178
 20
163.7892056079
 10
193.6025322011
 20
164.1111954247
 10
193.6238819785
 20
164.4685951085
 10
193.6611749829
 20
164.8986128463
 10
193.7206477224
 20
165.0796822163
 10
193.7585873385
 20
164.8448688938
 10
193.8110645456
 20
164.0974622612
 10
193.8456027169
 20
163.3705551918
 10
193.8770308732
 20
162.5526480697
 10
193.9029427933
 20
161.7633484554
 10
193.9230448684
 20
161.0735208064
 10
193.9623986117
 20
159.6278445699
 10
193.9929420348
 20
158.4469215436
 10
194.0307298254
 20
156.932277914
 10
194.0307298254
 20
156.932277914
  0
LINE
  5
1AF
330
1F
100
AcDbEntity
  8
0
  6
Continuous
 62
     7
370
    25
100
AcDbLine
 10
194.0307298254
 20
146.3768644273
 30
0.0
 11
194.0307298254
 21
156.9322779137
 31
0.0
  0
SPLINE
  5
1B0
330
1F
100
AcDbEntity
  8
0
  6
Continuous
 62
     7
370
    25
100
AcDbSpline
210
0.0
220
0.0
230
1.0
 70
     8
 71
     3
 72
    34
 73
    30
 74
     0
 42
0.00000001
 43
0.00000001
 40
0.0
 40
0.0
 40
0.0
 40
0.0
 40
0.0240627438545457
 40
0.0648469446524981
 40
0.105071637711005
 40
0.1442798589272175
 40
0.1789786064051025
 40
0.2193638686901742
 40
0.248763853507998
 40
0.2772163712194397
 40
0.3280196823067519
 40
0.3790575502672419
 40
0.411530699371349
 40
0.4572171359745891
 40
0.4999118577763659
 40
0.526544578817995
 40
0.535368307615885
 40
0.5610567775321228
 40
0.5867454154378839
 40
0.6124342234039568
 40
0.6893442401493822
 40
0.7249704735769124
 40
0.7567024583022005
 40
0.7845390749573979
 40
0.8445935157236459
 40
0.86811907108126
 40
0.9018678836039931
 40
0.9458317549565175
 40
1.0
 40
1.0
 40
1.0
 40
1.0
 10
193.3458755046481
 20
165.0794310288376
 30
0.0
 10
193.3513871828054
 20
165.0869273682287
 30
0.0
 10
193.366240662964
 20
165.1071293330806
 30
0.0
 10
193.3894506118351
 20
165.0019755322365
 30
0.0
 10
193.4158916643458
 20
164.756120838447
 30
0.0
 10
193.442018185023
 20
164.3917373891293
 30
0.0
 10
193.4686498440516
 20
163.9144402802405
 30
0.0
 10
193.4930094046618
 20
163.3774427909585
 30
0.0
 10
193.5158504047158
 20
162.7919479302794
 30
0.0
 10
193.5412308654898
 20
162.0754546980832
 30
0.0
 10
193.5698002550803
 20
161.1107447195832
 30
0.0
 10
193.5994621950011
 20
160.0013292886937
 30
0.0
 10
193.6293593909054
 20
158.8661232359256
 30
0.0
 10
193.6576339604461
 20
157.7551726301857
 30
0.0
 10
193.6845328559094
 20
156.6661708363164
 30
0.0
 10
193.7027599679045
 20
155.9196796046247
 30
0.0
 10
193.7165600809989
 20
155.3356273381179
 30
0.0
 10
193.7294785682988
 20
154.7609970692318
 30
0.0
 10
193.7466267072625
 20
154.0311355730439
 30
0.0
 10
193.7753150307017
 20
152.8338103651739
 30
0.0
 10
193.8073015820947
 20
151.5905182550407
 30
0.0
 10
193.841015120796
 20
150.4110177738638
 30
0.0
 10
193.8630653512393
 20
149.6848284621393
 30
0.0
 10
193.8906380892522
 20
148.839499646473
 30
0.0
 10
193.9156713457672
 20
148.1511922363085
 30
0.0
 10
193.9415446511456
 20
147.545575255598
 30
0.0
 10
193.9647599497214
 20
147.0976031607892
 30
0.0
 10
193.9951955849629
 20
146.6365356645856
 30
0.0
 10
194.0180914611649
 20
146.4692209724728
 30
0.0
 10
194.0307298254247
 20
146.3768644272907
 30
0.0
  0
SPLINE
  5
1B1
330
1F
100
AcDbEntity
  8
0
  6
Continuous
 62
     7
370
    25
100
AcDbSpline
210
0.0
220
0.0
230
1.0
 70
     8
 71
     3
 72
     9
 73
     5
 74
     0
 42
0.00000001
 43
0.00000001
 40
0.0
 40
0.0
 40
0.0
 40
0.0
 40
0.97638139255599
 40
1.0
 40
1.0
 40
1.0
 40
1.0
 10
193.3807298254247
 20
147.4345048408146
 30
0.0
 10
193.4016699959228
 20
147.1923642682295
 30
0.0
 10
193.4231167078919
 20
146.944366329687
 30
0.0
 10
193.443162061781
 20
147.0644684460761
 30
0.0
 10
193.4436355051255
 20
147.0673050908163
 30
0.0
  0
SPLINE
  5
1B2
330
1F
100
AcDbEntity
  8
0
  6
Continuous
 62
     7
370
    25
100
AcDbSpline
210
0.0
220
0.0
230
1.0
 70
     8
 71
     3
 72
    13
 73
     9
 74
     0
 42
0.00000001
 43
0.00000001
 40
0.0
 40
0.0
 40
0.0
 40
0.0
 40
0.1633117204154805
 40
0.3537060974034397
 40
0.542209649589676
 40
0.7300371885093455
 40
0.9206669352019216
 40
1.0
 40
1.0
 40
1.0
 40
1.0
 10
194.1585582486844
 20
164.2786481797487
 30
0.0
 10
194.1780860804901
 20
164.2011790623357
 30
0.0
 10
194.2203801250396
 20
164.0333938040597
 30
0.0
 10
194.2903270386042
 20
162.779238320004
 30
0.0
 10
194.3601804076145
 20
160.8561055704478
 30
0.0
 10
194.4287484784914
 20
158.4132622573365
 30
0.0
 10
194.4885246220475
 20
156.221558846349
 30
0.0
 10
194.5211440605714
 20
154.9417249156385
 30
0.0
 10
194.5307298254247
 20
154.5656244164801
 30
0.0
  0
SPLINE
  5
1B3
330
1F
100
AcDbEntity
  8
0
  6
Continuous
 62
     7
370
    25
100
AcDbSpline
210
0.0
220
0.0
230
1.0
 70
    24
 71
     3
 72
    10
 73
     6
 74
     0
 42
0.00000001
 43
0.00000001
 40
0.0
 40
0.0
 40
0.0
 40
0.0
 40
0.3187287177375316
 40
0.8180873955881224
 40
1.0
 40
1.0
 40
1.0
 40
1.0
 10
194.5307298254247
 20
154.5656244164801
 30
0.0
 10
194.5307298254247
 20
153.9433206765482
 30
0.0
 10
194.5307298254247
 20
152.346041179804
 30
0.0
 10
194.5307298254247
 20
150.5393905129226
 30
0.0
 10
194.5307298254247
 20
149.5344102041336
 30
0.0
 10
194.5307298254247
 20
149.2660610308831
 30
0.0
  0
SPLINE
  5
1B4
330
1F
100
AcDbEntity
  8
0
  6
Continuous
 62
     7
370
    25
100
AcDbSpline
210
0.0
220
0.0
230
1.0
 70
     8
 71
     3
 72
    13
 73
     9
 74
     0
 42
0.00000001
 43
0.00000001
 40
0.0
 40
0.0
 40
0.0
 40
0.0
 40
0.2187316754180408
 40
0.3931473777464116
 40
0.571425411379405
 40
0.7494200729434982
 40
0.8738925945231115
 40
1.0
 40
1.0
 40
1.0
 40
1.0
 10
194.5307298254247
 20
149.2660610308831
 30
0.0
 10
194.4930020185182
 20
149.7013045833064
 30
0.0
 10
194.4251902197694
 20
150.4836094826273
 30
0.0
 10
194.3263767911565
 20
151.8778374170812
 30
0.0
 10
194.2373652549054
 20
153.2789322179857
 30
0.0
 10
194.1626523279682
 20
154.6265405835727
 30
0.0
 10
194.0929842490627
 20
155.8520939932889
 30
0.0
 10
194.0515713647348
 20
156.5706538826431
 30
0.0
 10
194.0307298254413
 20
156.9322779137084
 30
0.0
  0
LINE
  5
1B5
330
1F
100
AcDbEntity
  8
0
  6
Continuous
 62
     7
370
    25
100
AcDbLine
 10
194.0307298254
 20
146.3768644273
 30
0.0
 11
194.0496607442
 21
146.3566804424
 31
0.0
  0
SPLINE
  5
1B6
330
1F
100
AcDbEntity
  8
0
  6
Continuous
 62
     7
370
    25
100
AcDbSpline
210
0.0
220
0.0
230
1.0
 70
     8
 71
     3
 72
     9
 73
     5
 74
     0
 42
0.00000001
 43
0.00000001
 40
0.0
 40
0.0
 40
0.0
 40
0.0
 40
0.2575807037701713
 40
1.0
 40
1.0
 40
1.0
 40
1.0
 10
194.4969905644405
 20
164.597610014603
 30
0.0
 10
194.4999842185477
 20
164.6034356857907
 30
0.0
 10
194.511606417196
 20
164.6260525631516
 30
0.0
 10
194.5225816217694
 20
164.458215382056
 30
0.0
 10
194.5307298254247
 20
164.3336098201859
 30
0.0
  0
SPLINE
  5
1B7
330
1F
100
AcDbEntity
  8
0
  6
Continuous
 62
     7
370
    25
100
AcDbSpline
210
0.0
220
0.0
230
1.0
 70
    24
 71
     3
 72
    10
 73
     6
 74
     0
 42
0.00000001
 43
0.00000001
 40
0.0
 40
0.0
 40
0.0
 40
0.0
 40
0.3294562546722
 40
0.8318642056942901
 40
1.0
 40
1.0
 40
1.0
 40
1.0
 10
194.5307298254247
 20
164.3336098201859
 30
0.0
 10
194.5307298254247
 20
164.1098493704999
 30
0.0
 10
194.5307298254247
 20
163.5448629539298
 30
0.0
 10
194.5307298254247
 20
162.2647114285717
 30
0.0
 10
194.5307298254247
 20
161.2141390626593
 30
0.0
 10
194.5307298254247
 20
160.9507128202268
 30
0.0
  0
SPLINE
  5
1B8
330
1F
100
AcDbEntity
  8
0
  6
Continuous
 62
     7
370
    25
100
AcDbSpline
210
0.0
220
0.0
230
1.0
 70
     8
 71
     3
 72
    11
 73
     7
 74
     0
 42
0.00000001
 43
0.00000001
 40
0.0
 40
0.0
 40
0.0
 40
0.0
 40
0.1123950113901299
 40
0.4199943621869238
 40
0.7261447176194223
 40
1.0
 40
1.0
 40
1.0
 40
1.0
 10
193.3807298254247
 20
151.5200034114911
 30
0.0
 10
193.389450630767
 20
151.2207280803652
 30
0.0
 10
193.4220382788503
 20
150.1024048535613
 30
0.0
 10
193.4771073982408
 20
148.6504758072804
 30
0.0
 10
193.5430872959216
 20
147.3608866996709
 30
0.0
 10
193.5885123282434
 20
147.1916792182025
 30
0.0
 10
193.609960197441
 20
147.1117862661389
 30
0.0
  0
SPLINE
  5
1B9
330
1F
100
AcDbEntity
  8
0
  6
Continuous
 62
     7
370
    25
100
AcDbSpline
210
0.0
220
0.0
230
1.0
 70
     8
 71
     3
 72
    11
 73
     7
 74
     0
 42
0.00000001
 43
0.00000001
 40
0.0
 40
0.0
 40
0.0
 40
0.0
 40
0.0058314992650533
 40
0.3431453499632174
 40
0.6876241808559885
 40
1.0
 40
1.0
 40
1.0
 40
1.0
 10
194.3253275678399
 20
164.3241867670826
 30
0.0
 10
194.3257359006947
 20
164.3265564487252
 30
0.0
 10
194.3497636016303
 20
164.4659966166137
 30
0.0
 10
194.3932221920576
 20
163.9662994627186
 30
0.0
 10
194.4648254149822
 20
162.8631186942439
 30
0.0
 10
194.5094893208679
 20
161.5670671037821
 30
0.0
 10
194.5307298254247
 20
160.9507128202268
 30
0.0
  0
LINE
  5
1BA
330
1F
100
AcDbEntity
  8
0
  6
Continuous
 62
     7
370
    25
100
AcDbLine
 10
196.2807298254
 20
148.0823685736
 30
0.0
 11
196.0307298254
 21
148.717946592
 31
0.0
  0
LINE
  5
1BB
330
1F
100
AcDbEntity
  8
0
  6
Continuous
 62
     7
370
    25
100
AcDbLine
 10
196.0307298254
 20
154.6653715292
 30
0.0
 11
196.2807298254
 21
155.3009495476
 31
0.0
  0
LINE
  5
1BC
330
1F
100
AcDbEntity
  8
0
  6
Continuous
 62
     7
370
    25
100
AcDbLine
 10
198.8307298254
 20
155.3009495476
 30
0.0
 11
196.2807298254
 21
155.3009495476
 31
0.0
  0
LINE
  5
1BD
330
1F
100
AcDbEntity
  8
0
  6
Continuous
 62
     7
370
    25
100
AcDbLine
 10
196.2807298254
 20
148.0823685736
 30
0.0
 11
198.8307298254
 21
148.0823685736
 31
0.0
  0
LINE
  5
1BE
330
1F
100
AcDbEntity
  8
0
  6
Continuous
 62
     7
370
    25
100
AcDbLine
 10
196.0307298254
 20
154.6653715292
 30
0.0
 11
196.0307298254
 21
148.717946592
 31
0.0
  0
LINE
  5
1BF
330
1F
100
AcDbEntity
  8
0
  6
Continuous
 62
     7
370
    25
100
AcDbLine
 10
194.5307298254
 20
149.2660610309
 30
0.0
 11
194.5307298254
 21
146.7950923395
 31
0.0
  0
SPLINE
  5
1C0
330
1F
100
AcDbEntity
  8
0
  6
Continuous
 62
     7
370
    25
100
AcDbSpline
210
0.0
220
0.0
230
1.0
 70
    24
 71
     3
 72
    11
 73
     7
 74
     0
 42
0.00000001
 43
0.00000001
 40
0.0
 40
0.0
 40
0.0
 40
0.0
 40
0.0521773337626324
 40
0.261547743229521
 40
0.6847281688108003
 40
0.9999999999999999
 40
0.9999999999999999
 40
0.9999999999999999
 40
0.9999999999999999
 10
194.5307298254247
 20
160.9507128202268
 30
0.0
 10
194.5307298254247
 20
160.8564521096807
 30
0.0
 10
194.5307298254246
 20
160.3839542961533
 30
0.0
 10
194.5307298254247
 20
159.0458228407551
 30
0.0
 10
194.5307298254247
 20
156.9479744932345
 30
0.0
 10
194.5307298254247
 20
155.2784180973064
 30
0.0
 10
194.5307298254247
 20
154.5656244164801
 30
0.0
  0
LINE
  5
1C1
330
1F
100
AcDbEntity
  8
0
  6
Continuous
 62
     7
370
    25
100
AcDbLine
 10
196.2807298254
 20
157.8972517096
 30
0.0
 11
196.0307298254
 21
158.4708193399
 31
0.0
  0
LINE
  5
1C2
330
1F
100
AcDbEntity
  8
0
  6
Continuous
 62
     7
370
    25
100
AcDbLine
 10
196.2807298254
 20
157.8972517096
 30
0.0
 11
196.2807298254
 21
155.3009495476
 31
0.0
  0
LINE
  5
1C3
330
1F
100
AcDbEntity
  8
0
  6
Continuous
 62
     7
370
    25
100
AcDbLine
 10
196.0307298254
 20
154.6653715292
 30
0.0
 11
196.0307298254
 21
158.4708193399
 31
0.0
  0
LINE
  5
1C4
330
1F
100
AcDbEntity
  8
0
  6
Continuous
 62
     7
370
    25
100
AcDbLine
 10
196.2807298254
 20
157.8972517096
 30
0.0
 11
198.8307298254
 21
157.8972517096
 31
0.0
  0
LINE
  5
1C5
330
1F
100
AcDbEntity
  8
0
  6
Continuous
 62
     7
370
    25
100
AcDbLine
 10
196.0307298254
 20
163.8379817165
 30
0.0
 11
196.2807298254
 21
164.4115493467
 31
0.0
  0
LINE
  5
1C6
330
1F
100
AcDbEntity
  8
0
  6
Continuous
 62
     7
370
    25
100
AcDbLine
 10
198.8307298254
 20
164.4115493467
 30
0.0
 11
196.2807298254
 21
164.4115493467
 31
0.0
  0
LINE
  5
1C7
330
1F
100
AcDbEntity
  8
0
  6
Continuous
 62
     7
370
    25
100
AcDbLine
 10
196.0307298254
 20
163.8379817165
 30
0.0
 11
196.0307298254
 21
158.4708193399
 31
0.0
  0
LINE
  5
1C8
330
1F
100
AcDbEntity
  8
0
  6
Continuous
 62
     7
370
    25
100
AcDbLine
 10
196.0307298254
 20
146.5224821522
 30
0.0
 11
196.2807298254
 21
146.5844925403
 31
0.0
  0
LINE
  5
1C9
330
1F
100
AcDbEntity
  8
0
  6
Continuous
 62
     7
370
    25
100
AcDbLine
 10
196.2807298254
 20
148.0823685736
 30
0.0
 11
196.2807298254
 21
146.5844925403
 31
0.0
  0
LINE
  5
1CA
330
1F
100
AcDbEntity
  8
0
  6
Continuous
 62
     7
370
    25
100
AcDbLine
 10
196.0307298254
 20
146.5224821522
 30
0.0
 11
196.0307298254
 21
148.717946592
 31
0.0
  0
LINE
  5
1CB
330
1F
100
AcDbEntity
  8
0
  6
Continuous
 62
     7
370
    25
100
AcDbLine
 10
198.8307298254
 20
146.5844925403
 30
0.0
 11
196.2807298254
 21
146.5844925403
 31
0.0
  0
LINE
  5
1CC
330
1F
100
AcDbEntity
  8
0
  6
Continuous
 62
     7
370
    25
100
AcDbLine
 10
196.2807298254
 20
165.5099754755
 30
0.0
 11
196.0307298254
 21
165.4479650874
 31
0.0
  0
LINE
  5
1CD
330
1F
100
AcDbEntity
  8
0
  6
Continuous
 62
     7
370
    25
100
AcDbLine
 10
196.2807298254
 20
165.5099754755
 30
0.0
 11
196.2807298254
 21
164.4115493467
 31
0.0
  0
LINE
  5
1CE
330
1F
100
AcDbEntity
  8
0
  6
Continuous
 62
     7
370
    25
100
AcDbLine
 10
196.0307298254
 20
163.8379817165
 30
0.0
 11
196.0307298254
 21
165.4479650874
 31
0.0
  0
LINE
  5
1CF
330
1F
100
AcDbEntity
  8
0
  6
Continuous
 62
     7
370
    25
100
AcDbLine
 10
196.2807298254
 20
165.5099754755
 30
0.0
 11
198.8307298254
 21
165.5099754755
 31
0.0
  0
LINE
  5
1D0
330
1F
100
AcDbEntity
  8
0
  6
Continuous
 62
     7
370
    25
100
AcDbLine
 10
196.2807298254
 20
145.8802092034
 30
0.0
 11
196.0307298254
 21
145.9422195915
 31
0.0
  0
LINE
  5
1D1
330
1F
100
AcDbEntity
  8
0
  6
Continuous
 62
     7
370
    25
100
AcDbLine
 10
196.2807298254
 20
145.8802092034
 30
0.0
 11
198.8307298254
 21
145.8802092034
 31
0.0
  0
LINE
  5
1D2
330
1F
100
AcDbEntity
  8
0
  6
Continuous
 62
     7
370
    25
100
AcDbLine
 10
196.0307298254
 20
146.5224821522
 30
0.0
 11
196.0307298254
 21
145.9422195915
 31
0.0
  0
SPLINE
  5
1D3
330
1F
100
AcDbEntity
  8
0
  6
Continuous
 62
     7
370
    25
100
AcDbSpline
210
0.0
220
0.0
230
1.0
 70
     8
 71
     3
 72
     9
 73
     5
 74
     0
 42
0.00000001
 43
0.00000001
 40
0.0
 40
0.0
 40
0.0
 40
0.0
 40
0.58419174974093
 40
1.0
 40
1.0
 40
1.0
 40
1.0
 10
87.63072982542468
 20
171.4268282204517
 30
0.0
 10
87.65689778924532
 20
171.1729862517756
 30
0.0
 10
87.70169123905397
 20
170.7384680156165
 30
0.0
 10
87.94430565656793
 20
170.1152813076714
 30
0.0
 10
88.04518673300204
 20
169.856155133056
 30
0.0
  0
LINE
  5
1D4
330
1F
100
AcDbEntity
  8
0
  6
Continuous
 62
     7
370
    25
100
AcDbLine
 10
87.6307298254
 20
171.4268282205
 30
0.0
 11
87.6307298254
 21
172.0394183037
 31
0.0
  0
SPLINE
  5
1D5
330
1F
100
AcDbEntity
  8
0
  6
Continuous
 62
     7
370
    25
100
AcDbSpline
210
0.0
220
0.0
230
1.0
 70
     8
 71
     3
 72
     9
 73
     5
 74
     0
 42
0.00000001
 43
0.00000001
 40
0.0
 40
0.0
 40
0.0
 40
0.0
 40
0.5850553834536204
 40
1.0
 40
1.0
 40
1.0
 40
1.0
 10
88.04518673300204
 20
172.4027673169868
 30
0.0
 10
87.90863259897772
 20
172.4123046478664
 30
0.0
 10
87.6752288257858
 20
172.4286062342621
 30
0.0
 10
87.6437795380605
 20
172.1535509946651
 30
0.0
 10
87.63072982542468
 20
172.0394183037414
 30
0.0
  0
SPLINE
  5
1D6
330
1F
100
AcDbEntity
  8
0
  6
Continuous
 62
     7
370
    25
100
AcDbSpline
210
0.0
220
0.0
230
1.0
 70
     8
 71
     3
 72
     9
 73
     5
 74
     0
 42
0.00000001
 43
0.00000001
 40
0.0
 40
0.0
 40
0.0
 40
0.0
 40
0.2910559175694165
 40
1.0
 40
1.0
 40
1.0
 40
1.0
 10
88.94461318077242
 20
172.0091220973033
 30
0.0
 10
88.92332423877373
 20
172.0482690615814
 30
0.0
 10
88.8501804175573
 20
172.1827688669968
 30
0.0
 10
88.37913300715266
 20
172.3115024237303
 30
0.0
 10
88.04518673300204
 20
172.4027673169868
 30
0.0
  0
LINE
  5
1D7
330
1F
100
AcDbEntity
  8
0
  6
Continuous
 62
     7
370
    25
100
AcDbLine
 10
88.045186733
 20
138.9874173619
 30
0.0
 11
87.9373764608
 21
139.0099321603
 31
0.0
  0
SPLINE
  5
1D8
330
1F
100
AcDbEntity
  8
0
  6
Continuous
 62
     7
370
    25
100
AcDbSpline
210
0.0
220
0.0
230
1.0
 70
     8
 71
     3
 72
    11
 73
     7
 74
     0
 42
0.00000001
 43
0.00000001
 40
0.0
 40
0.0
 40
0.0
 40
0.0
 40
0.2328716322111446
 40
0.4710265024313178
 40
0.7311421212560256
 40
0.9999999999999999
 40
0.9999999999999999
 40
0.9999999999999999
 40
0.9999999999999999
 10
88.04518673300204
 20
140.0302307173675
 30
0.0
 10
88.31558346767481
 20
139.95114326285
 30
0.0
 10
88.86251151980564
 20
139.7911740698064
 30
0.0
 10
89.16373583778925
 20
139.5321367380188
 30
0.0
 10
88.95608407237954
 20
139.2589935503754
 30
0.0
 10
88.35214624059928
 20
139.0789346926651
 30
0.0
 10
88.04518673300204
 20
138.9874173619186
 30
0.0
  0
SPLINE
  5
1D9
330
1F
100
AcDbEntity
  8
0
  6
Continuous
 62
     7
370
    25
100
AcDbSpline
210
0.0
220
0.0
230
1.0
 70
     8
 71
     3
 72
     9
 73
     5
 74
     0
 42
0.00000001
 43
0.00000001
 40
0.0
 40
0.0
 40
0.0
 40
0.0
 40
0.5841917497409196
 40
1.0
 40
1.0
 40
1.0
 40
1.0
 10
87.63072982542468
 20
140.8041361697659
 30
0.0
 10
87.65689778924532
 20
140.5744878935521
 30
0.0
 10
87.70169123905397
 20
140.1813836151784
 30
0.0
 10
87.94430565656793
 20
140.0746227612398
 30
0.0
 10
88.04518673300204
 20
140.0302307173675
 30
0.0
  0
LINE
  5
1DA
330
1F
100
AcDbEntity
  8
0
  6
Continuous
 62
     7
370
    25
100
AcDbLine
 10
87.6307298254
 20
140.8041361698
 30
0.0
 11
87.6307298254
 21
141.6394986762
 31
0.0
  0
SPLINE
  5
1DB
330
1F
100
AcDbEntity
  8
0
  6
Continuous
 62
     7
370
    25
100
AcDbSpline
210
0.0
220
0.0
230
1.0
 70
     8
 71
     3
 72
     9
 73
     5
 74
     0
 42
0.00000001
 43
0.00000001
 40
0.0
 40
0.0
 40
0.0
 40
0.0
 40
0.5850553834536147
 40
1.0
 40
1.0
 40
1.0
 40
1.0
 10
88.04518673300204
 20
143.5029352139422
 30
0.0
 10
87.90863259897772
 20
143.0949200996275
 30
0.0
 10
87.6752288257858
 20
142.3975243900007
 30
0.0
 10
87.6437795380605
 20
141.8617962032078
 30
0.0
 10
87.63072982542468
 20
141.6394986761659
 30
0.0
  0
SPLINE
  5
1DC
330
1F
100
AcDbEntity
  8
0
  6
Continuous
 62
     7
370
    25
100
AcDbSpline
210
0.0
220
0.0
230
1.0
 70
     8
 71
     3
 72
    11
 73
     7
 74
     0
 42
0.00000001
 43
0.00000001
 40
0.0
 40
0.0
 40
0.0
 40
0.0
 40
0.2556279644380998
 40
0.5185037642963946
 40
0.7560467972580156
 40
0.9999999999999999
 40
0.9999999999999999
 40
0.9999999999999999
 40
0.9999999999999999
 10
88.04518673300204
 20
154.1912935109708
 30
0.0
 10
88.33881269310402
 20
153.300217218158
 30
0.0
 10
88.93438980823959
 20
151.4927998915197
 30
0.0
 10
89.16627876986621
 20
148.7355375592459
 30
0.0
 10
88.88330831140546
 20
146.029957989973
 30
0.0
 10
88.32702917784115
 20
144.3527191781224
 30
0.0
 10
88.04518673300204
 20
143.5029352139422
 30
0.0
  0
SPLINE
  5
1DD
330
1F
100
AcDbEntity
  8
0
  6
Continuous
 62
     7
370
    25
100
AcDbSpline
210
0.0
220
0.0
230
1.0
 70
     8
 71
     3
 72
     9
 73
     5
 74
     0
 42
0.00000001
 43
0.00000001
 40
0.0
 40
0.0
 40
0.0
 40
0.0
 40
0.5841917497409213
 40
1.0
 40
1.0
 40
1.0
 40
1.0
 10
87.63072982542468
 20
156.5358720507649
 30
0.0
 10
87.65689778924532
 20
156.0523818058751
 30
0.0
 10
87.70169123905397
 20
155.2247592913423
 30
0.0
 10
87.94430565656793
 20
154.4948117294585
 30
0.0
 10
88.04518673300204
 20
154.1912935109708
 30
0.0
  0
LINE
  5
1DE
330
1F
100
AcDbEntity
  8
0
  6
Continuous
 62
     7
370
    25
100
AcDbLine
 10
87.6307298254
 20
156.5358720508
 30
0.0
 11
87.6307298254
 21
157.9838246405
 31
0.0
  0
SPLINE
  5
1DF
330
1F
100
AcDbEntity
  8
0
  6
Continuous
 62
     7
370
    25
100
AcDbSpline
210
0.0
220
0.0
230
1.0
 70
     8
 71
     3
 72
     9
 73
     5
 74
     0
 42
0.00000001
 43
0.00000001
 40
0.0
 40
0.0
 40
0.0
 40
0.0
 40
0.5850553834536213
 40
1.0
 40
1.0
 40
1.0
 40
1.0
 10
88.04518673300204
 20
160.2106101914762
 30
0.0
 10
87.90863259897772
 20
159.8121324080412
 30
0.0
 10
87.6752288257858
 20
159.1310382848101
 30
0.0
 10
87.64377953806049
 20
158.3202548584202
 30
0.0
 10
87.63072982542468
 20
157.9838246404547
 30
0.0
  0
SPLINE
  5
1E0
330
1F
100
AcDbEntity
  8
0
  6
Continuous
 62
     7
370
    25
100
AcDbSpline
210
0.0
220
0.0
230
1.0
 70
     8
 71
     3
 72
    11
 73
     7
 74
     0
 42
0.00000001
 43
0.00000001
 40
0.0
 40
0.0
 40
0.0
 40
0.0
 40
0.2328716322111442
 40
0.4710265024313156
 40
0.7311421212560256
 40
1.0
 40
1.0
 40
1.0
 40
1.0
 10
88.04518673300204
 20
169.856155133056
 30
0.0
 10
88.31558346767481
 20
169.1246324757393
 30
0.0
 10
88.86251151980562
 20
167.6449908575075
 30
0.0
 10
89.16373583778923
 20
165.2490144229444
 30
0.0
 10
88.95608407237954
 20
162.722565295557
 30
0.0
 10
88.35214624059928
 20
161.0571034992533
 30
0.0
 10
88.04518673300204
 20
160.2106101914762
 30
0.0
  0
LINE
  5
1E1
330
1F
100
AcDbEntity
  8
0
  6
Continuous
 62
     7
370
    25
100
AcDbLine
 10
89.1307298254
 20
171.8950923395
 30
0.0
 11
89.1307298254
 21
139.4950923395
 31
0.0
  0
SPLINE
  5
1E2
330
1F
100
AcDbEntity
  8
0
  6
Continuous
 62
     7
370
    25
100
AcDbSpline
210
0.0
220
0.0
230
1.0
 70
     8
 71
     3
 72
     9
 73
     5
 74
     0
 42
0.00000001
 43
0.00000001
 40
0.0
 40
0.0
 40
0.0
 40
0.0
 40
0.5850553834534132
 40
1.0
 40
1.0
 40
1.0
 40
1.0
 10
80.76627291784679
 20
154.1912935109693
 30
0.0
 10
80.90282705187124
 20
154.6260249405808
 30
0.0
 10
81.13623082506348
 20
155.369085242061
 30
0.0
 10
81.16768011278883
 20
156.1937018348656
 30
0.0
 10
81.18072982542468
 20
156.5358720507649
 30
0.0
  0
SPLINE
  5
1E3
330
1F
100
AcDbEntity
  8
0
  6
Continuous
 62
     7
370
    25
100
AcDbSpline
210
0.0
220
0.0
230
1.0
 70
     8
 71
     3
 72
    11
 73
     7
 74
     0
 42
0.00000001
 43
0.00000001
 40
0.0
 40
0.0
 40
0.0
 40
0.0
 40
0.2379053903768481
 40
0.4814905141303178
 40
0.7366519444348049
 40
1.0
 40
1.0
 40
1.0
 40
1.0
 10
80.76627291784742
 20
143.5029352139419
 30
0.0
 10
80.49068748287438
 20
144.3313270111818
 30
0.0
 10
79.9329373093209
 20
146.0078875620906
 30
0.0
 10
79.6463740846646
 20
148.6855543961976
 30
0.0
 10
79.87125449086255
 20
151.4644409645468
 30
0.0
 10
80.46480960778041
 20
153.272825276212
 30
0.0
 10
80.76627291784679
 20
154.1912935109694
 30
0.0
  0
SPLINE
  5
1E4
330
1F
100
AcDbEntity
  8
0
  6
Continuous
 62
     7
370
    25
100
AcDbSpline
210
0.0
220
0.0
230
1.0
 70
     8
 71
     3
 72
     9
 73
     5
 74
     0
 42
0.00000001
 43
0.00000001
 40
0.0
 40
0.0
 40
0.0
 40
0.0
 40
0.5841917497409912
 40
1.0
 40
1.0
 40
1.0
 40
1.0
 10
81.18072982542468
 20
141.6394986761659
 30
0.0
 10
81.15456186160404
 20
141.961939462778
 30
0.0
 10
81.10976841179539
 20
142.5138828730625
 30
0.0
 10
80.8671539942815
 20
143.2124607636055
 30
0.0
 10
80.76627291784742
 20
143.5029352139418
 30
0.0
  0
LINE
  5
1E5
330
1F
100
AcDbEntity
  8
0
  6
Continuous
 62
     7
370
    25
100
AcDbLine
 10
81.1807298254
 20
141.6394986762
 30
0.0
 11
81.1807298254
 21
140.8041361698
 31
0.0
  0
SPLINE
  5
1E6
330
1F
100
AcDbEntity
  8
0
  6
Continuous
 62
     7
370
    25
100
AcDbSpline
210
0.0
220
0.0
230
1.0
 70
     8
 71
     3
 72
     9
 73
     5
 74
     0
 42
0.00000001
 43
0.00000001
 40
0.0
 40
0.0
 40
0.0
 40
0.0
 40
0.5850553834536258
 40
1.0
 40
1.0
 40
1.0
 40
1.0
 10
80.76627291784733
 20
140.0302307173675
 30
0.0
 10
80.90282705187165
 20
140.1029162430615
 30
0.0
 10
81.13623082506358
 20
140.2271532430954
 30
0.0
 10
81.16768011278886
 20
140.6349309892512
 30
0.0
 10
81.18072982542468
 20
140.8041361697659
 30
0.0
  0
SPLINE
  5
1E7
330
1F
100
AcDbEntity
  8
0
  6
Continuous
 62
     7
370
    25
100
AcDbSpline
210
0.0
220
0.0
230
1.0
 70
     8
 71
     3
 72
    11
 73
     7
 74
     0
 42
0.00000001
 43
0.00000001
 40
0.0
 40
0.0
 40
0.0
 40
0.0
 40
0.2328716322111468
 40
0.4710265024313223
 40
0.7311421212560304
 40
1.0
 40
1.0
 40
1.0
 40
1.0
 10
80.76627291784733
 20
138.9874173619186
 30
0.0
 10
80.49587618317456
 20
139.0665048164361
 30
0.0
 10
79.94894813104374
 20
139.2264740094796
 30
0.0
 10
79.64772381306014
 20
139.4855113412672
 30
0.0
 10
79.85537557846983
 20
139.7586545289106
 30
0.0
 10
80.45931341025009
 20
139.938713386621
 30
0.0
 10
80.76627291784733
 20
140.0302307173675
 30
0.0
  0
LINE
  5
1E8
330
1F
100
AcDbEntity
  8
0
  6
Continuous
 62
     7
370
    25
100
AcDbLine
 10
80.887076909
 20
138.9917602888
 30
0.0
 11
80.7662729178
 21
138.9874173619
 31
0.0
  0
SPLINE
  5
1E9
330
1F
100
AcDbEntity
  8
0
  6
Continuous
 62
     7
370
    25
100
AcDbSpline
210
0.0
220
0.0
230
1.0
 70
     8
 71
     3
 72
     9
 73
     5
 74
     0
 42
0.00000001
 43
0.00000001
 40
0.0
 40
0.0
 40
0.0
 40
0.0
 40
0.6137694938147354
 40
1.0
 40
1.0
 40
1.0
 40
1.0
 10
80.76627291784733
 20
172.4027673169868
 30
0.0
 10
80.48116127943885
 20
172.3238359612621
 30
0.0
 10
80.016635685903
 20
172.1952349856188
 30
0.0
 10
79.89824662961968
 20
172.0609065488735
 30
0.0
 10
79.85252116448457
 20
172.0090248087542
 30
0.0
  0
SPLINE
  5
1EA
330
1F
100
AcDbEntity
  8
0
  6
Continuous
 62
     7
370
    25
100
AcDbSpline
210
0.0
220
0.0
230
1.0
 70
     8
 71
     3
 72
     9
 73
     5
 74
     0
 42
0.00000001
 43
0.00000001
 40
0.0
 40
0.0
 40
0.0
 40
0.0
 40
0.5841917497409274
 40
1.0
 40
1.0
 40
1.0
 40
1.0
 10
81.18072982542468
 20
172.0394183037414
 30
0.0
 10
81.15456186160404
 20
172.1904356415206
 30
0.0
 10
81.1097684117954
 20
172.4489420956876
 30
0.0
 10
80.86715399428144
 20
172.4163283722597
 30
0.0
 10
80.76627291784733
 20
172.4027673169868
 30
0.0
  0
LINE
  5
1EB
330
1F
100
AcDbEntity
  8
0
  6
Continuous
 62
     7
370
    25
100
AcDbLine
 10
81.1807298254
 20
172.0394183037
 30
0.0
 11
81.1807298254
 21
171.4268282205
 31
0.0
  0
SPLINE
  5
1EC
330
1F
100
AcDbEntity
  8
0
  6
Continuous
 62
     7
370
    25
100
AcDbSpline
210
0.0
220
0.0
230
1.0
 70
     8
 71
     3
 72
     9
 73
     5
 74
     0
 42
0.00000001
 43
0.00000001
 40
0.0
 40
0.0
 40
0.0
 40
0.0
 40
0.585055383453621
 40
1.0
 40
1.0
 40
1.0
 40
1.0
 10
80.76627291784733
 20
169.856155133056
 30
0.0
 10
80.90282705187165
 20
170.2182010369734
 30
0.0
 10
81.13623082506358
 20
170.8370243384192
 30
0.0
 10
81.16768011278886
 20
171.2538631850675
 30
0.0
 10
81.18072982542468
 20
171.4268282204517
 30
0.0
  0
SPLINE
  5
1ED
330
1F
100
AcDbEntity
  8
0
  6
Continuous
 62
     7
370
    25
100
AcDbSpline
210
0.0
220
0.0
230
1.0
 70
     8
 71
     3
 72
    11
 73
     7
 74
     0
 42
0.00000001
 43
0.00000001
 40
0.0
 40
0.0
 40
0.0
 40
0.0
 40
0.2328716322111492
 40
0.471026502431325
 40
0.7311421212560301
 40
0.9999999999999999
 40
0.9999999999999999
 40
0.9999999999999999
 40
0.9999999999999999
 10
80.76627291784733
 20
160.2106101914762
 30
0.0
 10
80.49587618317456
 20
160.942132848793
 30
0.0
 10
79.94894813104372
 20
162.4217744670248
 30
0.0
 10
79.64772381306015
 20
164.817750901588
 30
0.0
 10
79.85537557846983
 20
167.3442000289753
 30
0.0
 10
80.45931341025009
 20
169.009661825279
 30
0.0
 10
80.76627291784733
 20
169.856155133056
 30
0.0
  0
SPLINE
  5
1EE
330
1F
100
AcDbEntity
  8
0
  6
Continuous
 62
     7
370
    25
100
AcDbSpline
210
0.0
220
0.0
230
1.0
 70
     8
 71
     3
 72
     9
 73
     5
 74
     0
 42
0.00000001
 43
0.00000001
 40
0.0
 40
0.0
 40
0.0
 40
0.0
 40
0.5841917497409277
 40
1.0
 40
1.0
 40
1.0
 40
1.0
 10
81.18072982542468
 20
157.9838246404547
 30
0.0
 10
81.15456186160404
 20
158.4572827648459
 30
0.0
 10
81.10976841179539
 20
159.2677326292974
 30
0.0
 10
80.86715399428144
 20
159.9336967964128
 30
0.0
 10
80.76627291784733
 20
160.2106101914762
 30
0.0
  0
LINE
  5
1EF
330
1F
100
AcDbEntity
  8
0
  6
Continuous
 62
     7
370
    25
100
AcDbLine
 10
81.1807298254
 20
157.9838246405
 30
0.0
 11
81.1807298254
 21
156.5358720508
 31
0.0
  0
LINE
  5
1F0
330
1F
100
AcDbEntity
  8
0
  6
Continuous
 62
     7
370
    25
100
AcDbLine
 10
79.6807298254
 20
148.8681850639
 30
0.0
 11
79.6807298254
 21
171.8950923395
 31
0.0
  0
LINE
  5
1F1
330
1F
100
AcDbEntity
  8
0
  6
Continuous
 62
     7
370
    25
100
AcDbLine
 10
79.6807298254
 20
139.4950923395
 30
0.0
 11
79.6807298254
 21
148.8681850639
 31
0.0
  0
LINE
  5
1F2
330
1F
100
AcDbEntity
  8
0
  6
Continuous
 62
     7
370
    25
100
AcDbLine
 10
71.9307298254
 20
166.2700923395
 30
0.0
 11
71.9307298254
 21
145.1200923395
 31
0.0
  0
LINE
  5
1F3
330
1F
100
AcDbEntity
  8
0
  6
Continuous
 62
     7
370
    25
100
AcDbLine
 10
88.045186733
 20
169.8561551331
 30
0.0
 11
80.7662729178
 21
169.8561551331
 31
0.0
  0
LINE
  5
1F4
330
1F
100
AcDbEntity
  8
0
  6
Continuous
 62
     7
370
    25
100
AcDbLine
 10
80.7662729178
 20
160.2106101915
 30
0.0
 11
88.045186733
 21
160.2106101915
 31
0.0
  0
LINE
  5
1F5
330
1F
100
AcDbEntity
  8
0
  6
Continuous
 62
     7
370
    25
100
AcDbLine
 10
87.6307298254
 20
157.9838246405
 30
0.0
 11
81.1807298254
 21
157.9838246405
 31
0.0
  0
LINE
  5
1F6
330
1F
100
AcDbEntity
  8
0
  6
Continuous
 62
     7
370
    25
100
AcDbLine
 10
81.1807298254
 20
156.5358720508
 30
0.0
 11
87.6307298254
 21
156.5358720508
 31
0.0
  0
LINE
  5
1F7
330
1F
100
AcDbEntity
  8
0
  6
Continuous
 62
     7
370
    25
100
AcDbLine
 10
88.045186733
 20
154.191293511
 30
0.0
 11
80.7662729178
 21
154.191293511
 31
0.0
  0
LINE
  5
1F8
330
1F
100
AcDbEntity
  8
0
  6
Continuous
 62
     7
370
    25
100
AcDbLine
 10
80.7662729178
 20
143.5029352139
 30
0.0
 11
88.045186733
 21
143.5029352139
 31
0.0
  0
LINE
  5
1F9
330
1F
100
AcDbEntity
  8
0
  6
Continuous
 62
     7
370
    25
100
AcDbLine
 10
87.6307298254
 20
141.6394986762
 30
0.0
 11
81.1807298254
 21
141.6394986762
 31
0.0
  0
LINE
  5
1FA
330
1F
100
AcDbEntity
  8
0
  6
Continuous
 62
     7
370
    25
100
AcDbLine
 10
81.1807298254
 20
140.8041361698
 30
0.0
 11
87.6307298254
 21
140.8041361698
 31
0.0
  0
LINE
  5
1FB
330
1F
100
AcDbEntity
  8
0
  6
Continuous
 62
     7
370
    25
100
AcDbLine
 10
81.1807298254
 20
171.4268282205
 30
0.0
 11
87.6307298254
 21
171.4268282205
 31
0.0
  0
LINE
  5
1FC
330
1F
100
AcDbEntity
  8
0
  6
Continuous
 62
     7
370
    25
100
AcDbLine
 10
88.045186733
 20
140.0302307174
 30
0.0
 11
80.7662729178
 21
140.0302307174
 31
0.0
  0
LINE
  5
1FD
330
1F
100
AcDbEntity
  8
0
  6
Continuous
 62
     7
370
    25
100
AcDbLine
 10
87.6307298254
 20
172.0394183037
 30
0.0
 11
81.1807298254
 21
172.0394183037
 31
0.0
  0
LINE
  5
1FE
330
1F
100
AcDbEntity
  8
0
  6
Continuous
 62
     7
370
    25
100
AcDbLine
 10
80.7662729178
 20
138.9874173619
 30
0.0
 11
88.045186733
 21
138.9874173619
 31
0.0
  0
SPLINE
  5
1FF
330
1F
100
AcDbEntity
  8
0
  6
Continuous
 62
     7
370
    25
100
AcDbSpline
210
0.0
220
0.0
230
1.0
 70
     8
 71
     3
 72
     9
 73
     5
 74
     0
 42
0.00000001
 43
0.00000001
 40
0.0
 40
0.0
 40
0.0
 40
0.0
 40
0.5841917497409228
 40
1.0
 40
1.0
 40
1.0
 40
1.0
 10
177.6807298254247
 20
157.9838246404547
 30
0.0
 10
177.654561861604
 20
158.4572827648459
 30
0.0
 10
177.6097684117954
 20
159.2677326292974
 30
0.0
 10
177.3671539942814
 20
159.9336967964128
 30
0.0
 10
177.2662729178473
 20
160.2106101914762
 30
0.0
  0
LINE
  5
200
330
1F
100
AcDbEntity
  8
0
  6
Continuous
 62
     7
370
    25
100
AcDbLine
 10
177.6807298254
 20
157.9838246405
 30
0.0
 11
177.6807298254
 21
156.5358720508
 31
0.0
  0
SPLINE
  5
201
330
1F
100
AcDbEntity
  8
0
  6
Continuous
 62
     7
370
    25
100
AcDbSpline
210
0.0
220
0.0
230
1.0
 70
     8
 71
     3
 72
     9
 73
     5
 74
     0
 42
0.00000001
 43
0.00000001
 40
0.0
 40
0.0
 40
0.0
 40
0.0
 40
0.5850553834536185
 40
1.0
 40
1.0
 40
1.0
 40
1.0
 10
177.2662729178473
 20
154.1912935109708
 30
0.0
 10
177.4028270518717
 20
154.6260249405822
 30
0.0
 10
177.6362308250636
 20
155.369085242062
 30
0.0
 10
177.6676801127889
 20
156.1937018348661
 30
0.0
 10
177.6807298254247
 20
156.5358720507649
 30
0.0
  0
SPLINE
  5
202
330
1F
100
AcDbEntity
  8
0
  6
Continuous
 62
     7
370
    25
100
AcDbSpline
210
0.0
220
0.0
230
1.0
 70
     8
 71
     3
 72
    11
 73
     7
 74
     0
 42
0.00000001
 43
0.00000001
 40
0.0
 40
0.0
 40
0.0
 40
0.0
 40
0.2328716322111435
 40
0.4710265024313177
 40
0.7311421212560258
 40
1.0
 40
1.0
 40
1.0
 40
1.0
 10
177.2662729178473
 20
143.5029352139421
 30
0.0
 10
176.9958761831745
 20
144.3135453257764
 30
0.0
 10
176.4489481310437
 20
145.9531561370518
 30
0.0
 10
176.1477238130601
 20
148.6081699034024
 30
0.0
 10
176.3553755784698
 20
151.4077622184332
 30
0.0
 10
176.9593134102501
 20
153.2532828724473
 30
0.0
 10
177.2662729178473
 20
154.1912935109708
 30
0.0
  0
SPLINE
  5
203
330
1F
100
AcDbEntity
  8
0
  6
Continuous
 62
     7
370
    25
100
AcDbSpline
210
0.0
220
0.0
230
1.0
 70
     8
 71
     3
 72
     9
 73
     5
 74
     0
 42
0.00000001
 43
0.00000001
 40
0.0
 40
0.0
 40
0.0
 40
0.0
 40
0.5841917497409231
 40
0.9999999999999999
 40
0.9999999999999999
 40
0.9999999999999999
 40
0.9999999999999999
 10
177.6807298254247
 20
141.6394986761659
 30
0.0
 10
177.654561861604
 20
141.961939462778
 30
0.0
 10
177.6097684117954
 20
142.5138828730626
 30
0.0
 10
177.3671539942814
 20
143.2124607636057
 30
0.0
 10
177.2662729178473
 20
143.5029352139422
 30
0.0
  0
LINE
  5
204
330
1F
100
AcDbEntity
  8
0
  6
Continuous
 62
     7
370
    25
100
AcDbLine
 10
177.6807298254
 20
141.6394986762
 30
0.0
 11
177.6807298254
 21
140.8041361698
 31
0.0
  0
SPLINE
  5
205
330
1F
100
AcDbEntity
  8
0
  6
Continuous
 62
     7
370
    25
100
AcDbSpline
210
0.0
220
0.0
230
1.0
 70
     8
 71
     3
 72
     9
 73
     5
 74
     0
 42
0.00000001
 43
0.00000001
 40
0.0
 40
0.0
 40
0.0
 40
0.0
 40
0.5850553834536119
 40
0.9999999999999999
 40
0.9999999999999999
 40
0.9999999999999999
 40
0.9999999999999999
 10
177.2662729178473
 20
140.0302307173675
 30
0.0
 10
177.4028270518717
 20
140.1029162430615
 30
0.0
 10
177.6362308250636
 20
140.2271532430955
 30
0.0
 10
177.6676801127889
 20
140.6349309892511
 30
0.0
 10
177.6807298254247
 20
140.8041361697659
 30
0.0
  0
SPLINE
  5
206
330
1F
100
AcDbEntity
  8
0
  6
Continuous
 62
     7
370
    25
100
AcDbSpline
210
0.0
220
0.0
230
1.0
 70
     8
 71
     3
 72
    11
 73
     7
 74
     0
 42
0.00000001
 43
0.00000001
 40
0.0
 40
0.0
 40
0.0
 40
0.0
 40
0.2379053903768123
 40
0.4814905141302427
 40
0.7366519444347667
 40
1.0
 40
1.0
 40
1.0
 40
1.0
 10
177.2662729178474
 20
138.9874173619185
 30
0.0
 10
176.9906874828744
 20
139.0682396926919
 30
0.0
 10
176.4329373093209
 20
139.2318138997984
 30
0.0
 10
176.1463740846646
 20
139.4930613859371
 30
0.0
 10
176.3712544908626
 20
139.7641844102802
 30
0.0
 10
176.9648096077808
 20
139.9406200479696
 30
0.0
 10
177.2662729178473
 20
140.0302307173675
 30
0.0
  0
LINE
  5
207
330
1F
100
AcDbEntity
  8
0
  6
Continuous
 62
     7
370
    25
100
AcDbLine
 10
177.387076909
 20
138.9917602888
 30
0.0
 11
177.2662729178
 21
138.9874173619
 31
0.0
  0
SPLINE
  5
208
330
1F
100
AcDbEntity
  8
0
  6
Continuous
 62
     7
370
    25
100
AcDbSpline
210
0.0
220
0.0
230
1.0
 70
     8
 71
     3
 72
     9
 73
     5
 74
     0
 42
0.00000001
 43
0.00000001
 40
0.0
 40
0.0
 40
0.0
 40
0.0
 40
0.6721061852891761
 40
0.9999999999999999
 40
0.9999999999999999
 40
0.9999999999999999
 40
0.9999999999999999
 10
177.2662729178473
 20
172.4027673169868
 30
0.0
 10
176.9494666708592
 20
172.3160510829573
 30
0.0
 10
176.4781032852479
 20
172.1870294552332
 30
0.0
 10
176.3955756017443
 20
172.0521484534358
 30
0.0
 10
176.3685152847811
 20
172.0079218072244
 30
0.0
  0
SPLINE
  5
209
330
1F
100
AcDbEntity
  8
0
  6
Continuous
 62
     7
370
    25
100
AcDbSpline
210
0.0
220
0.0
230
1.0
 70
     8
 71
     3
 72
     9
 73
     5
 74
     0
 42
0.00000001
 43
0.00000001
 40
0.0
 40
0.0
 40
0.0
 40
0.0
 40
0.584191749740928
 40
1.0
 40
1.0
 40
1.0
 40
1.0
 10
177.6807298254247
 20
172.0394183037414
 30
0.0
 10
177.654561861604
 20
172.1904356415206
 30
0.0
 10
177.6097684117954
 20
172.4489420956876
 30
0.0
 10
177.3671539942814
 20
172.4163283722598
 30
0.0
 10
177.2662729178473
 20
172.4027673169868
 30
0.0
  0
LINE
  5
20A
330
1F
100
AcDbEntity
  8
0
  6
Continuous
 62
     7
370
    25
100
AcDbLine
 10
177.6807298254
 20
172.0394183037
 30
0.0
 11
177.6807298254
 21
171.4268282205
 31
0.0
  0
SPLINE
  5
20B
330
1F
100
AcDbEntity
  8
0
  6
Continuous
 62
     7
370
    25
100
AcDbSpline
210
0.0
220
0.0
230
1.0
 70
     8
 71
     3
 72
     9
 73
     5
 74
     0
 42
0.00000001
 43
0.00000001
 40
0.0
 40
0.0
 40
0.0
 40
0.0
 40
0.5850553834536214
 40
1.0
 40
1.0
 40
1.0
 40
1.0
 10
177.2662729178473
 20
169.856155133056
 30
0.0
 10
177.4028270518717
 20
170.2182010369734
 30
0.0
 10
177.6362308250636
 20
170.8370243384192
 30
0.0
 10
177.6676801127889
 20
171.2538631850676
 30
0.0
 10
177.6807298254247
 20
171.4268282204517
 30
0.0
  0
SPLINE
  5
20C
330
1F
100
AcDbEntity
  8
0
  6
Continuous
 62
     7
370
    25
100
AcDbSpline
210
0.0
220
0.0
230
1.0
 70
     8
 71
     3
 72
    11
 73
     7
 74
     0
 42
0.00000001
 43
0.00000001
 40
0.0
 40
0.0
 40
0.0
 40
0.0
 40
0.232871632211144
 40
0.4710265024313168
 40
0.7311421212560267
 40
0.9999999999999999
 40
0.9999999999999999
 40
0.9999999999999999
 40
0.9999999999999999
 10
177.2662729178473
 20
160.2106101914762
 30
0.0
 10
176.9958761831745
 20
160.942132848793
 30
0.0
 10
176.4489481310437
 20
162.4217744670248
 30
0.0
 10
176.1477238130601
 20
164.8177509015879
 30
0.0
 10
176.3553755784698
 20
167.3442000289753
 30
0.0
 10
176.9593134102501
 20
169.0096618252789
 30
0.0
 10
177.2662729178473
 20
169.856155133056
 30
0.0
  0
LINE
  5
20D
330
1F
100
AcDbEntity
  8
0
  6
Continuous
 62
     7
370
    25
100
AcDbLine
 10
176.1807298254
 20
139.4950923395
 30
0.0
 11
176.1807298254
 21
171.8950923395
 31
0.0
  0
SPLINE
  5
20E
330
1F
100
AcDbEntity
  8
0
  6
Continuous
 62
     7
370
    25
100
AcDbSpline
210
0.0
220
0.0
230
1.0
 70
     8
 71
     3
 72
     9
 73
     5
 74
     0
 42
0.00000001
 43
0.00000001
 40
0.0
 40
0.0
 40
0.0
 40
0.0
 40
0.5850553834534032
 40
1.0
 40
1.0
 40
1.0
 40
1.0
 10
184.5451867330026
 20
172.4027673169867
 30
0.0
 10
184.4086325989781
 20
172.4123046478664
 30
0.0
 10
184.1752288257859
 20
172.4286062342624
 30
0.0
 10
184.1437795380606
 20
172.1535509946652
 30
0.0
 10
184.1307298254247
 20
172.0394183037414
 30
0.0
  0
SPLINE
  5
20F
330
1F
100
AcDbEntity
  8
0
  6
Continuous
 62
     7
370
    25
100
AcDbSpline
210
0.0
220
0.0
230
1.0
 70
     8
 71
     3
 72
     9
 73
     5
 74
     0
 42
0.00000001
 43
0.00000001
 40
0.0
 40
0.0
 40
0.0
 40
0.0
 40
0.307597899551815
 40
1.0
 40
1.0
 40
1.0
 40
1.0
 10
185.4474708378731
 20
172.0079595240444
 30
0.0
 10
185.4225827170764
 20
172.0494433595346
 30
0.0
 10
185.3416714987845
 20
172.1843072046732
 30
0.0
 10
184.8710476644304
 20
172.3133900699423
 30
0.0
 10
184.5451867330026
 20
172.4027673169867
 30
0.0
  0
LINE
  5
210
330
1F
100
AcDbEntity
  8
0
  6
Continuous
 62
     7
370
    25
100
AcDbLine
 10
184.545186733
 20
138.9874173619
 30
0.0
 11
184.4373764608
 21
139.0099321603
 31
0.0
  0
SPLINE
  5
211
330
1F
100
AcDbEntity
  8
0
  6
Continuous
 62
     7
370
    25
100
AcDbSpline
210
0.0
220
0.0
230
1.0
 70
     8
 71
     3
 72
    11
 73
     7
 74
     0
 42
0.00000001
 43
0.00000001
 40
0.0
 40
0.0
 40
0.0
 40
0.0
 40
0.2556279644380969
 40
0.5185037642963868
 40
0.7560467972580112
 40
1.0
 40
1.0
 40
1.0
 40
1.0
 10
184.545186733002
 20
140.0302307173675
 30
0.0
 10
184.838812693104
 20
139.9432925522119
 30
0.0
 10
185.4343898082396
 20
139.7669512587494
 30
0.0
 10
185.6662787698662
 20
139.4979380104407
 30
0.0
 10
185.3833083114054
 20
139.2339672086898
 30
0.0
 10
184.8270291778412
 20
139.0703268268211
 30
0.0
 10
184.5451867330021
 20
138.9874173619186
 30
0.0
  0
SPLINE
  5
212
330
1F
100
AcDbEntity
  8
0
  6
Continuous
 62
     7
370
    25
100
AcDbSpline
210
0.0
220
0.0
230
1.0
 70
     8
 71
     3
 72
     9
 73
     5
 74
     0
 42
0.00000001
 43
0.00000001
 40
0.0
 40
0.0
 40
0.0
 40
0.0
 40
0.5841917497409203
 40
1.0
 40
1.0
 40
1.0
 40
1.0
 10
184.1307298254247
 20
140.8041361697659
 30
0.0
 10
184.1568977892453
 20
140.5744878935521
 30
0.0
 10
184.201691239054
 20
140.1813836151784
 30
0.0
 10
184.4443056565679
 20
140.0746227612398
 30
0.0
 10
184.545186733002
 20
140.0302307173675
 30
0.0
  0
LINE
  5
213
330
1F
100
AcDbEntity
  8
0
  6
Continuous
 62
     7
370
    25
100
AcDbLine
 10
184.1307298254
 20
140.8041361698
 30
0.0
 11
184.1307298254
 21
141.6394986762
 31
0.0
  0
SPLINE
  5
214
330
1F
100
AcDbEntity
  8
0
  6
Continuous
 62
     7
370
    25
100
AcDbSpline
210
0.0
220
0.0
230
1.0
 70
     8
 71
     3
 72
     9
 73
     5
 74
     0
 42
0.00000001
 43
0.00000001
 40
0.0
 40
0.0
 40
0.0
 40
0.0
 40
0.5850553834536283
 40
1.0
 40
1.0
 40
1.0
 40
1.0
 10
184.5451867330021
 20
143.5029352139422
 30
0.0
 10
184.4086325989777
 20
143.0949200996275
 30
0.0
 10
184.1752288257858
 20
142.3975243900007
 30
0.0
 10
184.1437795380605
 20
141.8617962032078
 30
0.0
 10
184.1307298254247
 20
141.6394986761659
 30
0.0
  0
SPLINE
  5
215
330
1F
100
AcDbEntity
  8
0
  6
Continuous
 62
     7
370
    25
100
AcDbSpline
210
0.0
220
0.0
230
1.0
 70
     8
 71
     3
 72
    11
 73
     7
 74
     0
 42
0.00000001
 43
0.00000001
 40
0.0
 40
0.0
 40
0.0
 40
0.0
 40
0.2328716322111486
 40
0.4710265024313228
 40
0.7311421212560311
 40
1.0
 40
1.0
 40
1.0
 40
1.0
 10
184.5451867330021
 20
154.1912935109708
 30
0.0
 10
184.8155834676748
 20
153.3806833991366
 30
0.0
 10
185.3625115198057
 20
151.7410725878611
 30
0.0
 10
185.6637358377892
 20
149.0860588215106
 30
0.0
 10
185.4560840723796
 20
146.2864665064796
 30
0.0
 10
184.8521462405993
 20
144.4409458524656
 30
0.0
 10
184.5451867330021
 20
143.5029352139422
 30
0.0
  0
SPLINE
  5
216
330
1F
100
AcDbEntity
  8
0
  6
Continuous
 62
     7
370
    25
100
AcDbSpline
210
0.0
220
0.0
230
1.0
 70
     8
 71
     3
 72
     9
 73
     5
 74
     0
 42
0.00000001
 43
0.00000001
 40
0.0
 40
0.0
 40
0.0
 40
0.0
 40
0.5841917497409231
 40
1.0
 40
1.0
 40
1.0
 40
1.0
 10
184.1307298254247
 20
156.5358720507649
 30
0.0
 10
184.1568977892453
 20
156.052381805875
 30
0.0
 10
184.201691239054
 20
155.2247592913423
 30
0.0
 10
184.4443056565679
 20
154.4948117294586
 30
0.0
 10
184.5451867330021
 20
154.1912935109708
 30
0.0
  0
LINE
  5
217
330
1F
100
AcDbEntity
  8
0
  6
Continuous
 62
     7
370
    25
100
AcDbLine
 10
184.1307298254
 20
156.5358720508
 30
0.0
 11
184.1307298254
 21
157.9838246405
 31
0.0
  0
SPLINE
  5
218
330
1F
100
AcDbEntity
  8
0
  6
Continuous
 62
     7
370
    25
100
AcDbSpline
210
0.0
220
0.0
230
1.0
 70
     8
 71
     3
 72
     9
 73
     5
 74
     0
 42
0.00000001
 43
0.00000001
 40
0.0
 40
0.0
 40
0.0
 40
0.0
 40
0.5850553834536216
 40
1.0
 40
1.0
 40
1.0
 40
1.0
 10
184.5451867330021
 20
160.2106101914762
 30
0.0
 10
184.4086325989777
 20
159.8121324080412
 30
0.0
 10
184.1752288257858
 20
159.1310382848101
 30
0.0
 10
184.1437795380605
 20
158.3202548584202
 30
0.0
 10
184.1307298254247
 20
157.9838246404547
 30
0.0
  0
SPLINE
  5
219
330
1F
100
AcDbEntity
  8
0
  6
Continuous
 62
     7
370
    25
100
AcDbSpline
210
0.0
220
0.0
230
1.0
 70
     8
 71
     3
 72
    11
 73
     7
 74
     0
 42
0.00000001
 43
0.00000001
 40
0.0
 40
0.0
 40
0.0
 40
0.0
 40
0.2328716322111493
 40
0.471026502431325
 40
0.731142121256032
 40
0.9999999999999999
 40
0.9999999999999999
 40
0.9999999999999999
 40
0.9999999999999999
 10
184.5451867330021
 20
169.856155133056
 30
0.0
 10
184.8155834676748
 20
169.1246324757393
 30
0.0
 10
185.3625115198057
 20
167.6449908575075
 30
0.0
 10
185.6637358377892
 20
165.2490144229443
 30
0.0
 10
185.4560840723795
 20
162.722565295557
 30
0.0
 10
184.8521462405993
 20
161.0571034992533
 30
0.0
 10
184.5451867330021
 20
160.2106101914762
 30
0.0
  0
SPLINE
  5
21A
330
1F
100
AcDbEntity
  8
0
  6
Continuous
 62
     7
370
    25
100
AcDbSpline
210
0.0
220
0.0
230
1.0
 70
     8
 71
     3
 72
     9
 73
     5
 74
     0
 42
0.00000001
 43
0.00000001
 40
0.0
 40
0.0
 40
0.0
 40
0.0
 40
0.5841917497409299
 40
1.0
 40
1.0
 40
1.0
 40
1.0
 10
184.1307298254247
 20
171.4268282204517
 30
0.0
 10
184.1568977892453
 20
171.1729862517756
 30
0.0
 10
184.201691239054
 20
170.7384680156166
 30
0.0
 10
184.4443056565679
 20
170.1152813076714
 30
0.0
 10
184.5451867330021
 20
169.856155133056
 30
0.0
  0
LINE
  5
21B
330
1F
100
AcDbEntity
  8
0
  6
Continuous
 62
     7
370
    25
100
AcDbLine
 10
184.1307298254
 20
171.4268282205
 30
0.0
 11
184.1307298254
 21
172.0394183037
 31
0.0
  0
LINE
  5
21C
330
1F
100
AcDbEntity
  8
0
  6
Continuous
 62
     7
370
    25
100
AcDbLine
 10
185.6307298254
 20
171.8950923395
 30
0.0
 11
185.6307298254
 21
139.4950923395
 31
0.0
  0
LINE
  5
21D
330
1F
100
AcDbEntity
  8
0
  6
Continuous
 62
     7
370
    25
100
AcDbLine
 10
177.2662729178
 20
143.5029352139
 30
0.0
 11
184.545186733
 21
143.5029352139
 31
0.0
  0
LINE
  5
21E
330
1F
100
AcDbEntity
  8
0
  6
Continuous
 62
     7
370
    25
100
AcDbLine
 10
184.545186733
 20
154.191293511
 30
0.0
 11
177.2662729178
 21
154.191293511
 31
0.0
  0
LINE
  5
21F
330
1F
100
AcDbEntity
  8
0
  6
Continuous
 62
     7
370
    25
100
AcDbLine
 10
177.6807298254
 20
156.5358720508
 30
0.0
 11
184.1307298254
 21
156.5358720508
 31
0.0
  0
LINE
  5
220
330
1F
100
AcDbEntity
  8
0
  6
Continuous
 62
     7
370
    25
100
AcDbLine
 10
177.2662729178
 20
160.2106101915
 30
0.0
 11
184.545186733
 21
160.2106101915
 31
0.0
  0
LINE
  5
221
330
1F
100
AcDbEntity
  8
0
  6
Continuous
 62
     7
370
    25
100
AcDbLine
 10
184.545186733
 20
169.8561551331
 30
0.0
 11
177.2662729178
 21
169.8561551331
 31
0.0
  0
LINE
  5
222
330
1F
100
AcDbEntity
  8
0
  6
Continuous
 62
     7
370
    25
100
AcDbLine
 10
184.1307298254
 20
157.9838246405
 30
0.0
 11
177.6807298254
 21
157.9838246405
 31
0.0
  0
LINE
  5
223
330
1F
100
AcDbEntity
  8
0
  6
Continuous
 62
     7
370
    25
100
AcDbLine
 10
193.3807298254
 20
145.1200923395
 30
0.0
 11
193.3807298254
 21
166.2700923395
 31
0.0
  0
LINE
  5
224
330
1F
100
AcDbEntity
  8
0
  6
Continuous
 62
     7
370
    25
100
AcDbLine
 10
184.1307298254
 20
141.6394986762
 30
0.0
 11
177.6807298254
 21
141.6394986762
 31
0.0
  0
LINE
  5
225
330
1F
100
AcDbEntity
  8
0
  6
Continuous
 62
     7
370
    25
100
AcDbLine
 10
177.6807298254
 20
140.8041361698
 30
0.0
 11
184.1307298254
 21
140.8041361698
 31
0.0
  0
LINE
  5
226
330
1F
100
AcDbEntity
  8
0
  6
Continuous
 62
     7
370
    25
100
AcDbLine
 10
177.6807298254
 20
171.4268282205
 30
0.0
 11
184.1307298254
 21
171.4268282205
 31
0.0
  0
LINE
  5
227
330
1F
100
AcDbEntity
  8
0
  6
Continuous
 62
     7
370
    25
100
AcDbLine
 10
184.545186733
 20
140.0302307174
 30
0.0
 11
177.2662729178
 21
140.0302307174
 31
0.0
  0
LINE
  5
228
330
1F
100
AcDbEntity
  8
0
  6
Continuous
 62
     7
370
    25
100
AcDbLine
 10
184.1307298254
 20
172.0394183037
 30
0.0
 11
177.6807298254
 21
172.0394183037
 31
0.0
  0
LINE
  5
229
330
1F
100
AcDbEntity
  8
0
  6
Continuous
 62
     7
370
    25
100
AcDbLine
 10
177.2662729178
 20
138.9874173619
 30
0.0
 11
184.545186733
 21
138.9874173619
 31
0.0
  0
SPLINE
  5
22A
330
1F
100
AcDbEntity
  8
0
  6
Continuous
 62
     7
370
    25
100
AcDbSpline
210
0.0
220
0.0
230
1.0
 70
     8
 71
     3
 72
    12
 73
     8
 74
     0
 42
0.00000001
 43
0.00000001
 40
0.0
 40
0.0
 40
0.0
 40
0.0
 40
0.1961211259854505
 40
0.3920122454189702
 40
0.7062105609801961
 40
0.7780407016783263
 40
1.0
 40
1.0
 40
1.0
 40
1.0
 10
150.512770148039
 20
161.1548172164402
 30
0.0
 10
150.8275920086184
 20
160.483708473643
 30
0.0
 10
151.456866513609
 20
159.142278049652
 30
0.0
 10
152.0178572909475
 20
156.4978928638005
 30
0.0
 10
151.9000835839772
 20
154.242950515327
 30
0.0
 10
151.3400724854524
 20
152.0039826101657
 30
0.0
 10
150.8688106635402
 20
150.9965144101207
 30
0.0
 10
150.512770148039
 20
150.2353674624652
 30
0.0
  0
SPLINE
  5
22B
330
1F
100
AcDbEntity
  8
0
  6
Continuous
 62
     7
370
    25
100
AcDbSpline
210
0.0
220
0.0
230
1.0
 70
     8
 71
     3
 72
    12
 73
     8
 74
     0
 42
0.00000001
 43
0.00000001
 40
0.0
 40
0.0
 40
0.0
 40
0.0
 40
0.1961211259854504
 40
0.3920122454189701
 40
0.706210560980196
 40
0.7780407016783261
 40
1.0
 40
1.0
 40
1.0
 40
1.0
 10
113.5486895028104
 20
161.1548172164402
 30
0.0
 10
113.233867642231
 20
160.4837084736429
 30
0.0
 10
112.6045931372404
 20
159.142278049652
 30
0.0
 10
112.0436023599018
 20
156.4978928638004
 30
0.0
 10
112.1613760668722
 20
154.242950515327
 30
0.0
 10
112.7213871653969
 20
152.0039826101657
 30
0.0
 10
113.1926489873091
 20
150.9965144101208
 30
0.0
 10
113.5486895028104
 20
150.2353674624652
 30
0.0
  0
SPLINE
  5
22C
330
1F
100
AcDbEntity
  8
0
  6
Continuous
 62
     7
370
    25
100
AcDbSpline
210
0.0
220
0.0
230
1.0
 70
     8
 71
     3
 72
    10
 73
     6
 74
     0
 42
0.00000001
 43
0.00000001
 40
0.0
 40
0.0
 40
0.0
 40
0.0
 40
0.4174866340693339
 40
0.8391571006300924
 40
0.9999999999999999
 40
0.9999999999999999
 40
0.9999999999999999
 40
0.9999999999999999
 10
119.6440386771266
 20
165.0504444432124
 30
0.0
 10
118.8465791661511
 20
164.4121748604442
 30
0.0
 10
117.2436684224529
 20
163.1292392912848
 30
0.0
 10
115.2170446808279
 20
161.8688438754817
 30
0.0
 10
113.9096780308382
 20
161.3093139543149
 30
0.0
 10
113.5486895028104
 20
161.1548172164402
 30
0.0
  0
SPLINE
  5
22D
330
1F
100
AcDbEntity
  8
0
  6
Continuous
 62
     7
370
    25
100
AcDbSpline
210
0.0
220
0.0
230
1.0
 70
     8
 71
     3
 72
     9
 73
     5
 74
     0
 42
0.00000001
 43
0.00000001
 40
0.0
 40
0.0
 40
0.0
 40
0.0
 40
0.4100126263040273
 40
1.0
 40
1.0
 40
1.0
 40
1.0
 10
150.512770148039
 20
150.2353674624652
 30
0.0
 10
149.613839045392
 20
149.8153011403915
 30
0.0
 10
147.4213916791969
 20
148.7907806863257
 30
0.0
 10
145.5320869242218
 20
147.2492335701777
 30
0.0
 10
144.4174209737228
 20
146.339740235693
 30
0.0
  0
LINE
  5
22E
330
1F
100
AcDbEntity
  8
0
  6
Continuous
 62
     7
370
    25
100
AcDbLine
 10
144.156168634
 20
140.6950923395
 30
0.0
 11
139.9307298254
 21
140.6950923395
 31
0.0
  0
LWPOLYLINE
  5
22F
330
1F
100
AcDbEntity
  8
0
  6
Continuous
 62
     7
370
    25
100
AcDbPolyline
 90
        9
 70
   128
 43
0.0
 10
150.512770148
 20
150.2353674625
 10
150.0709181641
 20
148.2116924617
 10
149.4966185132
 20
146.3555915654
 10
148.8027313592
 20
144.7086280267
 10
148.0047947626
 20
143.307681933
 10
147.1206767394
 20
142.1841243576
 10
146.1701751474
 20
141.3631148748
 10
145.1745743568
 20
140.8630381666
 10
144.156168634
 20
140.6950923395
  0
LINE
  5
230
330
1F
100
AcDbEntity
  8
0
  6
Continuous
 62
     7
370
    25
100
AcDbLine
 10
119.9052910168
 20
140.6950923395
 30
0.0
 11
124.1307298254
 21
140.6950923395
 31
0.0
  0
LWPOLYLINE
  5
231
330
1F
100
AcDbEntity
  8
0
  6
Continuous
 62
     7
370
    25
100
AcDbPolyline
 90
        9
 70
   128
 43
0.0
 10
113.5486895028
 20
150.2353674625
 10
113.9905414867
 20
148.2116924617
 10
114.5648411377
 20
146.3555915654
 10
115.2587282916
 20
144.7086280267
 10
116.0566648883
 20
143.307681933
 10
116.9407829114
 20
142.1841243576
 10
117.8912845034
 20
141.3631148748
 10
118.886885294
 20
140.8630381666
 10
119.9052910168
 20
140.6950923395
  0
LINE
  5
232
330
1F
100
AcDbEntity
  8
0
  6
Continuous
 62
     7
370
    25
100
AcDbLine
 10
144.156168634
 20
170.6950923395
 30
0.0
 11
134.6015928095
 21
170.6950923395
 31
0.0
  0
LWPOLYLINE
  5
233
330
1F
100
AcDbEntity
  8
0
  6
Continuous
 62
     7
370
    25
100
AcDbPolyline
 90
        9
 70
   128
 43
0.0
 10
144.156168634
 20
170.6950923395
 10
145.1745743568
 20
170.5271465123
 10
146.1701751474
 20
170.0270698041
 10
147.1206767394
 20
169.2060603213
 10
148.0047947626
 20
168.0825027459
 10
148.8027313592
 20
166.6815566522
 10
149.4966185132
 20
165.0345931135
 10
150.0709181641
 20
163.1784922172
 10
150.512770148
 20
161.1548172164
  0
LWPOLYLINE
  5
234
330
1F
100
AcDbEntity
  8
0
  6
Continuous
 62
     7
370
    25
100
AcDbPolyline
 90
        9
 70
   128
 43
0.0
 10
119.9052910168
 20
170.6950923395
 10
118.886885294
 20
170.5271465123
 10
117.8912845034
 20
170.0270698041
 10
116.9407829114
 20
169.2060603213
 10
116.0566648883
 20
168.0825027459
 10
115.2587282916
 20
166.6815566522
 10
114.5648411377
 20
165.0345931135
 10
113.9905414867
 20
163.1784922172
 10
113.5486895028
 20
161.1548172164
  0
LINE
  5
235
330
1F
100
AcDbEntity
  8
0
  6
Continuous
 62
     7
370
    25
100
AcDbLine
 10
119.9052910168
 20
170.6950923395
 30
0.0
 11
128.9849866667
 21
170.6950923395
 31
0.0
  0
LINE
  5
236
330
1F
100
AcDbEntity
  8
0
  6
Continuous
 62
     7
370
    25
100
AcDbLine
 10
134.6015928095
 20
170.6950923395
 30
0.0
 11
134.2103033759
 21
170.6950923395
 31
0.0
  0
LINE
  5
237
330
1F
100
AcDbEntity
  8
0
  6
Continuous
 62
     7
370
    25
100
AcDbLine
 10
152.719698826
 20
170.6950923395
 30
0.0
 11
144.156168634
 21
170.6950923395
 31
0.0
  0
LWPOLYLINE
  5
238
330
1F
100
AcDbEntity
  8
0
  6
Continuous
 62
     7
370
    25
100
AcDbPolyline
 90
       21
 70
   128
 43
0.0
 10
152.719698826
 20
170.6950923395
 10
153.7873228631
 20
170.5104174484
 10
154.8286584531
 20
169.9609400839
 10
155.8180644578
 20
169.0601902023
 10
156.7311784178
 20
167.8303472551
 10
157.5455164369
 20
166.3016940573
 10
158.2410268105
 20
164.5118711238
 10
158.8005837648
 20
162.5049498355
 10
159.2104091507
 20
160.3303472551
 10
159.4604117069
 20
158.0416093151
 10
159.5444355409
 20
155.6950923395
 10
159.4604117069
 20
153.3485753638
 10
159.2104091507
 20
151.0598374238
 10
158.8005837648
 20
148.8852348434
 10
158.2410268105
 20
146.8783135551
 10
157.5455164369
 20
145.0884906217
 10
156.7311784178
 20
143.5598374238
 10
155.8180644578
 20
142.3299944766
 10
154.8286584531
 20
141.429244595
 10
153.7873228631
 20
140.8797672305
 10
152.719698826
 20
140.6950923395
  0
LINE
  5
239
330
1F
100
AcDbEntity
  8
0
  6
Continuous
 62
     7
370
    25
100
AcDbLine
 10
152.719698826
 20
140.6950923395
 30
0.0
 11
144.156168634
 21
140.6950923395
 31
0.0
  0
LINE
  5
23A
330
1F
100
AcDbEntity
  8
0
  6
Continuous
 62
     7
370
    25
100
AcDbLine
 10
111.3417608248
 20
140.6950923395
 30
0.0
 11
119.9052910168
 21
140.6950923395
 31
0.0
  0
LWPOLYLINE
  5
23B
330
1F
100
AcDbEntity
  8
0
  6
Continuous
 62
     7
370
    25
100
AcDbPolyline
 90
       21
 70
   128
 43
0.0
 10
111.3417608248
 20
170.6950923395
 10
110.2741367878
 20
170.5104174484
 10
109.2328011978
 20
169.9609400839
 10
108.243395193
 20
169.0601902023
 10
107.330281233
 20
167.8303472551
 10
106.5159432139
 20
166.3016940573
 10
105.8204328404
 20
164.5118711238
 10
105.260875886
 20
162.5049498355
 10
104.8510505002
 20
160.3303472551
 10
104.6010479439
 20
158.0416093151
 10
104.51702411
 20
155.6950923395
 10
104.6010479439
 20
153.3485753638
 10
104.8510505002
 20
151.0598374238
 10
105.260875886
 20
148.8852348434
 10
105.8204328404
 20
146.8783135551
 10
106.5159432139
 20
145.0884906217
 10
107.330281233
 20
143.5598374238
 10
108.243395193
 20
142.3299944766
 10
109.2328011978
 20
141.429244595
 10
110.2741367878
 20
140.8797672305
 10
111.3417608248
 20
140.6950923395
  0
LINE
  5
23C
330
1F
100
AcDbEntity
  8
0
  6
Continuous
 62
     7
370
    25
100
AcDbLine
 10
111.3417608248
 20
170.6950923395
 30
0.0
 11
119.9052910168
 21
170.6950923395
 31
0.0
  0
LINE
  5
23D
330
1F
100
AcDbEntity
  8
0
  6
Continuous
 62
     7
370
    25
100
AcDbLine
 10
168.644084494
 20
170.6950923395
 30
0.0
 11
152.719698826
 21
170.6950923395
 31
0.0
  0
LINE
  5
23E
330
1F
100
AcDbEntity
  8
0
  6
Continuous
 62
     7
370
    25
100
AcDbLine
 10
168.644084494
 20
170.6950923395
 30
0.0
 11
168.644084494
 21
140.6950923395
 31
0.0
  0
LINE
  5
23F
330
1F
100
AcDbEntity
  8
0
  6
Continuous
 62
     7
370
    25
100
AcDbLine
 10
168.644084494
 20
140.6950923395
 30
0.0
 11
152.719698826
 21
140.6950923395
 31
0.0
  0
LINE
  5
240
330
1F
100
AcDbEntity
  8
0
  6
Continuous
 62
     7
370
    25
100
AcDbLine
 10
95.4173751568
 20
140.6950923395
 30
0.0
 11
111.3417608248
 21
140.6950923395
 31
0.0
  0
LINE
  5
241
330
1F
100
AcDbEntity
  8
0
  6
Continuous
 62
     7
370
    25
100
AcDbLine
 10
95.4173751568
 20
170.6950923395
 30
0.0
 11
95.4173751568
 21
140.6950923395
 31
0.0
  0
LINE
  5
242
330
1F
100
AcDbEntity
  8
0
  6
Continuous
 62
     7
370
    25
100
AcDbLine
 10
95.4173751568
 20
170.6950923395
 30
0.0
 11
111.3417608248
 21
170.6950923395
 31
0.0
  0
LINE
  5
243
330
1F
100
AcDbEntity
  8
0
  6
Continuous
 62
     7
370
    25
100
AcDbLine
 10
90.8307298254
 20
140.6950923395
 30
0.0
 11
90.8307298254
 21
170.6950923395
 31
0.0
  0
LINE
  5
244
330
1F
100
AcDbEntity
  8
0
  6
Continuous
 62
     7
370
    25
100
AcDbLine
 10
90.8307298254
 20
170.6950923395
 30
0.0
 11
95.4173751568
 21
170.6950923395
 31
0.0
  0
LINE
  5
245
330
1F
100
AcDbEntity
  8
0
  6
Continuous
 62
     7
370
    25
100
AcDbLine
 10
90.8307298254
 20
140.6950923395
 30
0.0
 11
95.4173751568
 21
140.6950923395
 31
0.0
  0
LINE
  5
246
330
1F
100
AcDbEntity
  8
0
  6
Continuous
 62
     7
370
    25
100
AcDbLine
 10
173.2307298254
 20
170.6950923395
 30
0.0
 11
168.644084494
 21
170.6950923395
 31
0.0
  0
LINE
  5
247
330
1F
100
AcDbEntity
  8
0
  6
Continuous
 62
     7
370
    25
100
AcDbLine
 10
173.2307298254
 20
140.6950923395
 30
0.0
 11
168.644084494
 21
140.6950923395
 31
0.0
  0
LINE
  5
248
330
1F
100
AcDbEntity
  8
0
  6
Continuous
 62
     7
370
    25
100
AcDbLine
 10
173.2307298254
 20
140.6950923395
 30
0.0
 11
173.2307298254
 21
170.6950923395
 31
0.0
  0
LINE
  5
249
330
1F
100
AcDbEntity
  8
0
  6
Continuous
 62
     7
370
    25
100
AcDbLine
 10
89.6994798234
 20
142.006991152
 30
0.0
 11
90.0744798234
 21
142.006991152
 31
0.0
  0
LINE
  5
24A
330
1F
100
AcDbEntity
  8
0
  6
Continuous
 62
     7
370
    25
100
AcDbLine
 10
89.2307298254
 20
141.1950923395
 30
0.0
 11
89.6994798234
 21
142.006991152
 31
0.0
  0
SPLINE
  5
24B
330
1F
100
AcDbEntity
  8
0
  6
Continuous
 62
     7
370
    25
100
AcDbSpline
210
0.0
220
0.0
230
1.0
 70
     8
 71
     3
 72
    18
 73
    14
 74
     0
 42
0.00000001
 43
0.00000001
 40
0.0
 40
0.0
 40
0.0
 40
0.0
 40
0.0569447277585363
 40
0.1507614687560893
 40
0.2445782097536427
 40
0.3400242771492498
 40
0.4338410181468031
 40
0.5276577591443564
 40
0.6231038265399629
 40
0.7169205675375168
 40
0.809930162935223
 40
0.9045689658892273
 40
1.0
 40
1.0
 40
1.0
 40
1.0
 10
89.13072982542468
 20
142.2745448044523
 30
0.0
 10
89.14367732144827
 20
142.536817469265
 30
0.0
 10
89.17795588583982
 20
143.2311857403614
 30
0.0
 10
89.2307427251281
 20
145.3509964360856
 30
0.0
 10
89.29176136265774
 20
148.3539542511539
 30
0.0
 10
89.3571957082857
 20
151.9011599219608
 30
0.0
 10
89.41822947028324
 20
155.6945427871405
 30
0.0
 10
89.47926535074235
 20
159.491242054473
 30
0.0
 10
89.54469326740234
 20
163.0283833261271
 30
0.0
 10
89.60556112412678
 20
166.0591007142603
 30
0.0
 10
89.66622293203874
 20
168.3664428249419
 30
0.0
 10
89.73163541995413
 20
169.9009008431168
 30
0.0
 10
89.77264138180993
 20
170.0967563918028
 30
0.0
 10
89.79322982132796
 20
170.1950923394527
 30
0.0
  0
LINE
  5
24C
330
1F
100
AcDbEntity
  8
0
  6
Continuous
 62
     7
370
    25
100
AcDbLine
 10
90.536757516
 20
141.246571541
 30
0.0
 11
90.5432298213
 21
141.1950923395
 31
0.0
  0
LINE
  5
24D
330
1F
100
AcDbEntity
  8
0
  6
Continuous
 62
     7
370
    25
100
AcDbLine
 10
90.0744798234
 20
142.006991152
 30
0.0
 11
90.5432298213
 21
141.1950923395
 31
0.0
  0
SPLINE
  5
24E
330
1F
100
AcDbEntity
  8
0
  6
Continuous
 62
     7
370
    25
100
AcDbSpline
210
0.0
220
0.0
230
1.0
 70
     8
 71
     3
 72
    21
 73
    17
 74
     0
 42
0.00000001
 43
0.00000001
 40
0.0
 40
0.0
 40
0.0
 40
0.0
 40
0.0744253596644122
 40
0.1594654728433944
 40
0.2430537979151432
 40
0.3266421229868914
 40
0.4116822361658743
 40
0.4952705612376231
 40
0.5788588863093712
 40
0.6638989994883541
 40
0.7474873245601027
 40
0.8166848884187203
 40
0.887223360781626
 40
0.9574401662793351
 40
0.9999794898814968
 40
1.0
 40
1.0
 40
1.0
 40
1.0
 10
175.8552485192967
 20
142.057532576993
 30
0.0
 10
175.837226299708
 20
142.1406054979558
 30
0.0
 10
175.7986114810309
 20
142.3185994328398
 30
0.0
 10
175.7355027981366
 20
143.7185456283714
 30
0.0
 10
175.6744830292796
 20
145.9024155867616
 30
0.0
 10
175.6134439383635
 20
148.7726015460341
 30
0.0
 10
175.5480147377483
 20
152.1115773945784
 30
0.0
 10
175.4869814034351
 20
155.6951213510013
 30
0.0
 10
175.4259385586058
 20
159.2784902303692
 30
0.0
 10
175.3605382199025
 20
162.6179973916644
 30
0.0
 10
175.3028833446695
 20
165.3226055728304
 30
0.0
 10
175.2491598874342
 20
167.3142810045486
 30
0.0
 10
175.1954887736469
 20
168.6716356321868
 30
0.0
 10
175.1487616211796
 20
169.2165664557812
 30
0.0
 10
175.1223916429277
 20
169.4613965736984
 30
0.0
 10
175.1119697827316
 20
169.3831181198492
 30
0.0
 10
175.1119647603062
 20
169.383080396479
 30
0.0
  0
SPLINE
  5
24F
330
1F
100
AcDbEntity
  8
0
  6
Continuous
 62
     7
370
    25
100
AcDbSpline
210
0.0
220
0.0
230
1.0
 70
     8
 71
     3
 72
    18
 73
    14
 74
     0
 42
0.00000001
 43
0.00000001
 40
0.0
 40
0.0
 40
0.0
 40
0.0
 40
0.062508350000668
 40
0.164864942035536
 40
0.2689991730679212
 40
0.3713557651027891
 40
0.472831736246613
 40
0.5760852167264459
 40
0.6802030526311144
 40
0.7825596446659819
 40
0.8866938756983671
 40
0.9890504677332341
 40
1.0
 40
1.0
 40
1.0
 40
1.0
 10
176.1807298254247
 20
144.0415295640984
 30
0.0
 10
176.1681994706591
 20
144.4840929629814
 30
0.0
 10
176.1351508265644
 20
145.6513480433526
 30
0.0
 10
176.0822611467983
 20
148.3824498109416
 30
0.0
 10
176.0167485878632
 20
151.8935651410662
 30
0.0
 10
175.9559035227827
 20
155.6859008376668
 30
0.0
 10
175.8952341830501
 20
159.457517666472
 30
0.0
 10
175.8298294089439
 20
163.0020824165628
 30
0.0
 10
175.7685599355584
 20
166.0467840367667
 30
0.0
 10
175.7072244623292
 20
168.4141408285155
 30
0.0
 10
175.6416628054765
 20
169.7994412759361
 30
0.0
 10
175.5990248543303
 20
170.3576748631887
 30
0.0
 10
175.5763520127199
 20
170.1617763041826
 30
0.0
 10
175.5741609836619
 20
170.1428453098867
 30
0.0
  0
SPLINE
  5
250
330
1F
100
AcDbEntity
  8
0
  6
Continuous
 62
     7
370
    25
100
AcDbSpline
210
0.0
220
0.0
230
1.0
 70
     8
 71
     3
 72
    11
 73
     7
 74
     0
 42
0.00000001
 43
0.00000001
 40
0.0
 40
0.0
 40
0.0
 40
0.0
 40
0.0338029119390439
 40
0.3659139339879695
 40
0.7037931638778603
 40
1.0
 40
1.0
 40
1.0
 40
1.0
 10
89.13072982542468
 20
165.087326769434
 30
0.0
 10
89.13281446425246
 20
165.1837922899855
 30
0.0
 10
89.15538051997552
 20
166.2280241651223
 30
0.0
 10
89.19790056076864
 20
167.6320542760587
 30
0.0
 10
89.26116574614515
 20
169.0806999582463
 30
0.0
 10
89.29979571434055
 20
169.2529050094874
 30
0.0
 10
89.3178413098393
 20
169.333348842157
 30
0.0
  0
SPLINE
  5
251
330
1F
100
AcDbEntity
  8
0
  6
Continuous
 62
     7
370
    25
100
AcDbSpline
210
0.0
220
0.0
230
1.0
 70
     8
 71
     3
 72
    14
 73
    10
 74
     0
 42
0.00000001
 43
0.00000001
 40
0.0
 40
0.0
 40
0.0
 40
0.0
 40
0.0918965940499282
 40
0.2423760614181678
 40
0.3954689234315533
 40
0.5459483907997938
 40
0.6951332188673912
 40
0.8469312509612343
 40
1.0
 40
1.0
 40
1.0
 40
1.0
 10
176.1807298254247
 20
153.4161998405726
 30
0.0
 10
176.1681994729916
 20
154.1740432225711
 30
0.0
 10
176.1351508328074
 20
156.1728452021182
 30
0.0
 10
176.0822611257894
 20
159.4950213947611
 30
0.0
 10
176.0167486856957
 20
163.0273824261394
 30
0.0
 10
175.9559031847591
 20
166.0593641504751
 30
0.0
 10
175.8952354573091
 20
168.3663714804612
 30
0.0
 10
175.8298245516514
 20
169.9009189835447
 30
0.0
 10
175.7888183762548
 20
170.0967624553913
 30
0.0
 10
175.7682298295214
 20
170.1950923394527
 30
0.0
  0
SPLINE
  5
252
330
1F
100
AcDbEntity
  8
0
  6
Continuous
 62
     7
370
    25
100
AcDbSpline
210
0.0
220
0.0
230
1.0
 70
     8
 71
     3
 72
    20
 73
    16
 74
     0
 42
0.00000001
 43
0.00000001
 40
0.0
 40
0.0
 40
0.0
 40
0.0
 40
0.0086573631120547
 40
0.0907937671802662
 40
0.1743566438584473
 40
0.2564930479266592
 40
0.3386294519948714
 40
0.4221923286730525
 40
0.5043287327412647
 40
0.5864651368094769
 40
0.6700280134876573
 40
0.75216441755587
 40
0.8335941669649458
 40
0.9164502849382267
 40
1.0
 40
1.0
 40
1.0
 40
1.0
 10
175.0247021348673
 20
141.2465715409589
 30
0.0
 10
175.0225433250224
 20
141.2279383038733
 30
0.0
 10
174.9999028886781
 20
141.0325229368766
 30
0.0
 10
174.957296206598
 20
141.5909300132902
 30
0.0
 10
174.8917380438211
 20
142.9759575719478
 30
0.0
 10
174.8307369686627
 20
145.3301345032242
 30
0.0
 10
174.7696928106839
 20
148.3596555799074
 30
0.0
 10
174.7042653928171
 20
151.8996504084655
 30
0.0
 10
174.6432297950082
 20
155.6949440997359
 30
0.0
 10
174.5821944054776
 20
159.4911323783004
 30
0.0
 10
174.5167663555413
 20
163.0284123721698
 30
0.0
 10
174.4558985340673
 20
166.0590930693611
 30
0.0
 10
174.3952367168215
 20
168.3664448953534
 30
0.0
 10
174.329824231401
 20
169.9009003166829
 30
0.0
 10
174.2888182692085
 20
170.0967562158379
 30
0.0
 10
174.2682298295214
 20
170.1950923394527
 30
0.0
  0
LINE
  5
253
330
1F
100
AcDbEntity
  8
0
  6
Continuous
 62
     7
370
    25
100
AcDbLine
 10
173.5247021349
 20
141.246571541
 30
0.0
 11
173.5182298295
 21
141.1950923395
 31
0.0
  0
SPLINE
  5
254
330
1F
100
AcDbEntity
  8
0
  6
Continuous
 62
     7
370
    25
100
AcDbSpline
210
0.0
220
0.0
230
1.0
 70
     8
 71
     3
 72
    20
 73
    16
 74
     0
 42
0.00000001
 43
0.00000001
 40
0.0
 40
0.0
 40
0.0
 40
0.0
 40
0.0835700848942301
 40
0.1686020731605481
 40
0.2521824120265455
 40
0.3213733646032418
 40
0.3919050975709867
 40
0.4621151944062689
 40
0.5046504537112819
 40
0.5882307925772794
 40
0.673262780843598
 40
0.756843119709595
 40
0.8404234585755923
 40
0.925455446841911
 40
0.9999999999999999
 40
0.9999999999999999
 40
0.9999999999999999
 40
0.9999999999999999
 10
175.4869722939688
 20
142.0070477165955
 30
0.0
 10
175.4667448182117
 20
142.0968729037048
 30
0.0
 10
175.4259360245894
 20
142.2780946026878
 30
0.0
 10
175.3605395261331
 20
143.7151753957244
 30
0.0
 10
175.3028784832355
 20
145.7789323601307
 30
0.0
 10
175.2491747975821
 20
148.2654275116012
 30
0.0
 10
175.195431644301
 20
150.9505261570885
 30
0.0
 10
175.1489383965349
 20
153.4942458393114
 30
0.0
 10
175.1023263732636
 20
156.2757973627111
 30
0.0
 10
175.0508478895235
 20
159.2794675303232
 30
0.0
 10
174.9855413939617
 20
162.6173585606088
 30
0.0
 10
174.92446984354
 20
165.4878171525662
 30
0.0
 10
174.8634585435246
 20
167.6716697116498
 30
0.0
 10
174.8003156148237
 20
169.0721461512219
 30
0.0
 10
174.7616708490476
 20
169.2501814628392
 30
0.0
 10
174.74361834101
 20
169.333348842157
 30
0.0
  0
LINE
  5
255
330
1F
100
AcDbEntity
  8
0
  6
Continuous
 62
     7
370
    25
100
AcDbLine
 10
174.8307298254
 20
141.1950923395
 30
0.0
 11
174.3619798275
 21
142.006991152
 31
0.0
  0
LINE
  5
256
330
1F
100
AcDbEntity
  8
0
  6
Continuous
 62
     7
370
    25
100
AcDbLine
 10
174.3619798275
 20
142.006991152
 30
0.0
 11
173.9869798275
 21
142.006991152
 31
0.0
  0
LINE
  5
257
330
1F
100
AcDbEntity
  8
0
  6
Continuous
 62
     7
370
    25
100
AcDbLine
 10
173.9869798275
 20
142.006991152
 30
0.0
 11
173.5182298295
 21
141.1950923395
 31
0.0
  0
ARC
  5
258
330
1F
100
AcDbEntity
  8
0
  6
Continuous
 62
     7
370
    25
100
AcDbCircle
 10
132.0307298254
 20
155.6950923395
 30
0.0
 40
28.25000000000002
100
AcDbArc
 50
32.0712506327
 51
90.0
  0
ARC
  5
259
330
1F
100
AcDbEntity
  8
0
  6
Continuous
 62
     7
370
    25
100
AcDbCircle
 10
132.0307298254
 20
155.6950923395
 30
0.0
 40
28.25000000000001
100
AcDbArc
 50
286.2390790814
 51
327.9287493673
  0
ARC
  5
25A
330
1F
100
AcDbEntity
  8
0
  6
Continuous
 62
     7
370
    25
100
AcDbCircle
 10
132.0307298254
 20
155.6950923395
 30
0.0
 40
28.25
100
AcDbArc
 50
212.0712506327
 51
253.7609209186
  0
ARC
  5
25B
330
1F
100
AcDbEntity
  8
0
  6
Continuous
 62
     7
370
    25
100
AcDbCircle
 10
132.0307298254
 20
155.6950923395
 30
0.0
 40
28.25000000000001
100
AcDbArc
 50
90.0
 51
147.9287493673
  0
ARC
  5
25C
330
1F
100
AcDbEntity
  8
0
  6
Continuous
 62
     7
370
    25
100
AcDbCircle
 10
132.0685549756
 20
-57.7135625542
 30
0.0
 40
11.51156068270988
100
AcDbArc
 50
133.5946937535
 51
356.3477284925
  0
ARC
  5
25D
330
1F
100
AcDbEntity
  8
0
  6
Continuous
 62
     7
370
    25
100
AcDbCircle
 10
132.2100244815
 20
-57.7228971196
 30
0.0
 40
11.3697838801817
100
AcDbArc
 50
356.3492597238
 51
47.2301808293
  0
LINE
  5
25E
330
1F
100
AcDbEntity
  8
0
  6
Continuous
 62
     7
370
    25
100
AcDbLine
 10
143.5567360088
 20
-60.3643016309
 30
0.0
 11
143.5807298254
 21
-59.6282715525
 31
0.0
  0
ARC
  5
25F
330
1F
100
AcDbEntity
  8
0
  6
Continuous
 62
     7
370
    25
100
AcDbCircle
 10
132.0336443094
 20
-59.5287847983
 30
0.0
 40
11.55334283614261
100
AcDbArc
 50
180.4933846131
 51
355.852852733
  0
ARC
  5
260
330
1F
100
AcDbEntity
  8
0
  6
Continuous
 62
     7
370
    25
100
AcDbCircle
 10
132.0661840497
 20
-57.7004656974
 30
0.0
 40
10.76480237216178
100
AcDbArc
 50
137.4906209186
 51
356.2790753317
  0
ARC
  5
261
330
1F
100
AcDbEntity
  8
0
  6
Continuous
 62
     7
370
    25
100
AcDbCircle
 10
132.2124966696
 20
-57.717919805
 30
0.0
 40
10.61766842219275
100
AcDbArc
 50
356.3218251123
 51
43.3708999106
  0
ARC
  5
262
330
1F
100
AcDbEntity
  8
0
  6
Continuous
 62
     7
370
    25
100
AcDbCircle
 10
132.0307298254
 20
-59.9726883249
 30
0.0
 40
11.11119944789593
100
AcDbArc
 50
251.3894551427
 51
288.6105448573
  0
ARC
  5
263
330
1F
100
AcDbEntity
  8
0
  6
Continuous
 62
     7
370
    25
100
AcDbCircle
 10
132.0307298254
 20
155.6950923395
 30
0.0
 40
9.724999999999994
100
AcDbArc
 50
182.3675813795
 51
215.6748758017
  0
ARC
  5
264
330
1F
100
AcDbEntity
  8
0
  6
Continuous
 62
     7
370
    25
100
AcDbCircle
 10
132.0307298254
 20
155.6950923395
 30
0.0
 40
9.725000000000003
100
AcDbArc
 50
324.3251241983
 51
182.3675813795
  0
ARC
  5
265
330
1F
100
AcDbEntity
  8
0
  6
Continuous
 62
     7
370
    25
100
AcDbCircle
 10
132.0307298254
 20
155.6950923395
 30
0.0
 40
9.925
100
AcDbArc
 50
322.7469493593
 51
182.3675813795
  0
ARC
  5
266
330
1F
100
AcDbEntity
  8
0
  6
Continuous
 62
     7
370
    25
100
AcDbCircle
 10
132.0307298254
 20
155.6950923395
 30
0.0
 40
9.924999999999995
100
AcDbArc
 50
182.3675813795
 51
217.2530506407
  0
ARC
  5
267
330
1F
100
AcDbEntity
  8
0
  6
Continuous
 62
     7
370
    25
100
AcDbCircle
 10
132.0307298254
 20
155.6950923395
 30
0.0
 40
14.22499999999999
100
AcDbArc
 50
303.7355336397
 51
182.3675813795
  0
ARC
  5
268
330
1F
100
AcDbEntity
  8
0
  6
Continuous
 62
     7
370
    25
100
AcDbCircle
 10
132.0307298254
 20
155.6950923395
 30
0.0
 40
14.22499999999999
100
AcDbArc
 50
182.3675813795
 51
236.2644663603
  0
LINE
  5
269
330
1F
100
AcDbEntity
  8
0
  6
Continuous
 62
     7
370
    25
100
AcDbLine
 10
122.6176775765
 20
145.0299588495
 30
0.0
 11
122.4571627487
 21
144.848093072
 31
0.0
  0
LINE
  5
26A
330
1F
100
AcDbEntity
  8
0
  6
Continuous
 62
     7
370
    25
100
AcDbLine
 10
145.9261821922
 20
159.7233653198
 30
0.0
 11
145.6932046483
 21
159.6558254427
 31
0.0
  0
SPLINE
  5
26B
330
1F
100
AcDbEntity
  8
0
  6
Continuous
 62
     7
370
    25
100
AcDbSpline
210
0.0
220
0.0
230
1.0
 70
     8
 71
     3
 72
    11
 73
     7
 74
     0
 42
0.00000001
 43
0.00000001
 40
0.0
 40
0.0
 40
0.0
 40
0.0
 40
0.1446702591042553
 40
0.3907520209323682
 40
0.5962314811354866
 40
1.0
 40
1.0
 40
1.0
 40
1.0
 10
146.2112902842563
 20
152.8276396798819
 30
0.0
 10
146.2356725997327
 20
153.1602183893724
 30
0.0
 10
146.3015288379563
 20
154.0585080838621
 30
0.0
 10
146.315423962891
 20
155.4344526828146
 30
0.0
 10
146.2461206368642
 20
157.4070430291507
 30
0.0
 10
146.0537033847807
 20
158.8001246594672
 30
0.0
 10
145.9261821921841
 20
159.7233653198483
 30
0.0
  0
LINE
  5
26C
330
1F
100
AcDbEntity
  8
0
  6
Continuous
 62
     7
370
    25
100
AcDbLine
 10
145.973532487
 20
152.8757167097
 30
0.0
 11
146.2112902843
 21
152.8276396799
 31
0.0
  0
LINE
  5
26D
330
1F
100
AcDbEntity
  8
0
  6
Continuous
 62
     7
370
    25
100
AcDbLine
 10
135.4898692744
 20
169.7430435763
 30
0.0
 11
135.4318717518
 21
169.5075091662
 31
0.0
  0
SPLINE
  5
26E
330
1F
100
AcDbEntity
  8
0
  6
Continuous
 62
     7
370
    25
100
AcDbSpline
210
0.0
220
0.0
230
1.0
 70
     8
 71
     3
 72
    11
 73
     7
 74
     0
 42
0.00000001
 43
0.00000001
 40
0.0
 40
0.0
 40
0.0
 40
0.0
 40
0.1446702591042563
 40
0.3907520209323671
 40
0.5962314811354599
 40
1.0
 40
1.0
 40
1.0
 40
1.0
 10
141.6042969021783
 20
166.5420916069167
 30
0.0
 10
141.3284664487399
 20
166.7294966662677
 30
0.0
 10
140.5834528724659
 20
167.2356746888117
 30
0.0
 10
139.3987974580403
 20
167.9356805194703
 30
0.0
 10
137.65583244384
 20
168.8619572517324
 30
0.0
 10
136.3531797363987
 20
169.3918598384598
 30
0.0
 10
135.4898692744036
 20
169.7430435763409
 30
0.0
  0
LINE
  5
26F
330
1F
100
AcDbEntity
  8
0
  6
Continuous
 62
     7
370
    25
100
AcDbLine
 10
141.6042969022
 20
166.5420916069
 30
0.0
 11
141.4437820744
 21
166.3602258294
 31
0.0
  0
LINE
  5
270
330
1F
100
AcDbEntity
  8
0
  6
Continuous
 62
     7
370
    25
100
AcDbLine
 10
121.5944169076
 20
165.7147705959
 30
0.0
 11
121.769396929
 21
165.5467760629
 31
0.0
  0
SPLINE
  5
271
330
1F
100
AcDbEntity
  8
0
  6
Continuous
 62
     7
370
    25
100
AcDbSpline
210
0.0
220
0.0
230
1.0
 70
     8
 71
     3
 72
    11
 73
     7
 74
     0
 42
0.00000001
 43
0.00000001
 40
0.0
 40
0.0
 40
0.0
 40
0.0
 40
0.1446702591042555
 40
0.3907520209323609
 40
0.5962314811354639
 40
1.0
 40
1.0
 40
1.0
 40
1.0
 10
127.4237364433467
 20
169.4095442664878
 30
0.0
 10
127.1235236744319
 20
169.2643706163482
 30
0.0
 10
126.3126538599343
 20
168.8722589444027
 30
0.0
 10
125.114103320574
 20
168.1963201761086
 30
0.0
 10
123.4404416324005
 20
167.1500065620347
 30
0.0
 10
122.3302061770427
 20
166.2868275184456
 30
0.0
 10
121.5944169076442
 20
165.7147705959456
 30
0.0
  0
LINE
  5
272
330
1F
100
AcDbEntity
  8
0
  6
Continuous
 62
     7
370
    25
100
AcDbLine
 10
127.4237364433
 20
169.4095442665
 30
0.0
 11
127.5009794128
 21
169.1796014592
 31
0.0
  0
LINE
  5
273
330
1F
100
AcDbEntity
  8
0
  6
Continuous
 62
     7
370
    25
100
AcDbLine
 10
118.3682550026
 20
151.7343592362
 30
0.0
 11
118.1352774587
 21
151.6668193591
 31
0.0
  0
SPLINE
  5
274
330
1F
100
AcDbEntity
  8
0
  6
Continuous
 62
     7
370
    25
100
AcDbSpline
210
0.0
220
0.0
230
1.0
 70
     8
 71
     3
 72
    11
 73
     7
 74
     0
 42
0.00000001
 43
0.00000001
 40
0.0
 40
0.0
 40
0.0
 40
0.0
 40
0.1446702591042534
 40
0.3907520209323634
 40
0.5962314811354792
 40
1.0
 40
1.0
 40
1.0
 40
1.0
 10
117.8501693665931
 20
158.562544999024
 30
0.0
 10
117.8257870511166
 20
158.2299662895335
 30
0.0
 10
117.7599308128931
 20
157.3316765950439
 30
0.0
 10
117.7460356879584
 20
155.9557319960912
 30
0.0
 10
117.8153390139852
 20
153.9831416497553
 30
0.0
 10
118.0077562660687
 20
152.5900600194387
 30
0.0
 10
118.1352774586653
 20
151.6668193590575
 30
0.0
  0
LINE
  5
275
330
1F
100
AcDbEntity
  8
0
  6
Continuous
 62
     7
370
    25
100
AcDbLine
 10
117.8501693666
 20
158.562544999
 30
0.0
 11
118.0879271639
 21
158.5144679692
 31
0.0
  0
LINE
  5
276
330
1F
100
AcDbEntity
  8
0
  6
Continuous
 62
     7
370
    25
100
AcDbLine
 10
142.2920627219
 20
145.843408616
 30
0.0
 11
142.4670427432
 21
145.675414083
 31
0.0
  0
SPLINE
  5
277
330
1F
100
AcDbEntity
  8
0
  6
Continuous
 62
     7
370
    25
100
AcDbSpline
210
0.0
220
0.0
230
1.0
 70
     8
 71
     3
 72
     9
 73
     5
 74
     0
 42
0.00000001
 43
0.00000001
 40
0.0
 40
0.0
 40
0.0
 40
0.0
 40
0.5862283062032706
 40
1.0
 40
1.0
 40
1.0
 40
1.0
 10
145.9261821921841
 20
159.7233653198483
 30
0.0
 10
145.8697620277609
 20
160.0513256539858
 30
0.0
 10
145.7735193799287
 20
160.610766968346
 30
0.0
 10
145.6555595527497
 20
161.16723380124
 30
0.0
 10
145.6067511152578
 20
161.3974840252283
 30
0.0
  0
SPLINE
  5
278
330
1F
100
AcDbEntity
  8
0
  6
Continuous
 62
     7
370
    25
100
AcDbSpline
210
0.0
220
0.0
230
1.0
 70
     8
 71
     3
 72
     9
 73
     5
 74
     0
 42
0.00000001
 43
0.00000001
 40
0.0
 40
0.0
 40
0.0
 40
0.0
 40
0.5863847898283623
 40
1.0
 40
1.0
 40
1.0
 40
1.0
 10
142.9819430758226
 20
165.5386970320597
 30
0.0
 10
142.7159531728557
 20
165.7399724070112
 30
0.0
 10
142.2623433460307
 20
166.0832203534843
 30
0.0
 10
141.7968372881463
 20
166.4078286698993
 30
0.0
 10
141.6042969021783
 20
166.5420916069167
 30
0.0
  0
ARC
  5
279
330
1F
100
AcDbEntity
  8
0
  6
Continuous
 62
     7
370
    25
100
AcDbCircle
 10
132.0307298254
 20
155.6950923395
 30
0.0
 40
14.72500000000001
100
AcDbArc
 50
22.7840658168
 51
41.9510969422
  0
SPLINE
  5
27A
330
1F
100
AcDbEntity
  8
0
  6
Continuous
 62
     7
370
    25
100
AcDbSpline
210
0.0
220
0.0
230
1.0
 70
     8
 71
     3
 72
     9
 73
     5
 74
     0
 42
0.00000001
 43
0.00000001
 40
0.0
 40
0.0
 40
0.0
 40
0.0
 40
0.586228306203293
 40
1.0
 40
1.0
 40
1.0
 40
1.0
 10
142.4670427432053
 20
145.6754140829604
 30
0.0
 10
142.7228546417904
 20
145.8882555457053
 30
0.0
 10
143.1592237080367
 20
146.2513247808355
 30
0.0
 10
143.5821582080968
 20
146.6317144042457
 30
0.0
 10
143.7571565325518
 20
146.7891088630268
 30
0.0
  0
SPLINE
  5
27B
330
1F
100
AcDbEntity
  8
0
  6
Continuous
 62
     7
370
    25
100
AcDbSpline
210
0.0
220
0.0
230
1.0
 70
     8
 71
     3
 72
     9
 73
     5
 74
     0
 42
0.00000001
 43
0.00000001
 40
0.0
 40
0.0
 40
0.0
 40
0.0
 40
0.5863847898283553
 40
1.0
 40
1.0
 40
1.0
 40
1.0
 10
146.0311481792328
 20
151.132865808651
 30
0.0
 10
146.0724628156137
 20
151.4638575092462
 30
0.0
 10
146.1429193436436
 20
152.0283191159195
 30
0.0
 10
146.1912853629965
 20
152.5937633458704
 30
0.0
 10
146.2112902842563
 20
152.8276396798819
 30
0.0
  0
ARC
  5
27C
330
1F
100
AcDbEntity
  8
0
  6
Continuous
 62
     7
370
    25
100
AcDbCircle
 10
132.0307298254
 20
155.6950923395
 30
0.0
 40
14.72500000000002
100
AcDbArc
 50
322.7840658168
 51
341.9510969422
  0
SPLINE
  5
27D
330
1F
100
AcDbEntity
  8
0
  6
Continuous
 62
     7
370
    25
100
AcDbSpline
210
0.0
220
0.0
230
1.0
 70
     8
 71
     3
 72
     9
 73
     5
 74
     0
 42
0.00000001
 43
0.00000001
 40
0.0
 40
0.0
 40
0.0
 40
0.0
 40
0.5862283062032704
 40
1.0
 40
1.0
 40
1.0
 40
1.0
 10
135.4898692744036
 20
169.7430435763409
 30
0.0
 10
135.1776372113953
 20
169.8581624477335
 30
0.0
 10
134.6450254973168
 20
170.0545345269633
 30
0.0
 10
134.1041311700775
 20
170.2306117364472
 30
0.0
 10
133.8803244081306
 20
170.3034675016544
 30
0.0
  0
SPLINE
  5
27E
330
1F
100
AcDbEntity
  8
0
  6
Continuous
 62
     7
370
    25
100
AcDbSpline
210
0.0
220
0.0
230
1.0
 70
     8
 71
     3
 72
     9
 73
     5
 74
     0
 42
0.00000001
 43
0.00000001
 40
0.0
 40
0.0
 40
0.0
 40
0.0
 40
0.5863847898283622
 40
1.0
 40
1.0
 40
1.0
 40
1.0
 10
128.9815247220145
 20
170.1009235628617
 30
0.0
 10
128.6742201826668
 20
169.971207237218
 30
0.0
 10
128.1501538278118
 20
169.7499935770178
 30
0.0
 10
127.6362817505745
 20
169.5091576634819
 30
0.0
 10
127.4237364433467
 20
169.4095442664878
 30
0.0
  0
ARC
  5
27F
330
1F
100
AcDbEntity
  8
0
  6
Continuous
 62
     7
370
    25
100
AcDbCircle
 10
132.0307298254
 20
155.6950923395
 30
0.0
 40
14.725
100
AcDbArc
 50
82.7840658168
 51
101.9510969422
  0
SPLINE
  5
280
330
1F
100
AcDbEntity
  8
0
  6
Continuous
 62
     7
370
    25
100
AcDbSpline
210
0.0
220
0.0
230
1.0
 70
     8
 71
     3
 72
     9
 73
     5
 74
     0
 42
0.00000001
 43
0.00000001
 40
0.0
 40
0.0
 40
0.0
 40
0.0
 40
0.5862283062032677
 40
1.0
 40
1.0
 40
1.0
 40
1.0
 10
121.5944169076442
 20
165.7147705959456
 30
0.0
 10
121.3386050090591
 20
165.5019291332006
 30
0.0
 10
120.9022359428128
 20
165.1388598980704
 30
0.0
 10
120.4793014427526
 20
164.7584702746602
 30
0.0
 10
120.3043031182976
 20
164.6010758158791
 30
0.0
  0
SPLINE
  5
281
330
1F
100
AcDbEntity
  8
0
  6
Continuous
 62
     7
370
    25
100
AcDbSpline
210
0.0
220
0.0
230
1.0
 70
     8
 71
     3
 72
     9
 73
     5
 74
     0
 42
0.00000001
 43
0.00000001
 40
0.0
 40
0.0
 40
0.0
 40
0.0
 40
0.5863847898283551
 40
1.0
 40
1.0
 40
1.0
 40
1.0
 10
118.0303114716166
 20
160.2573188702549
 30
0.0
 10
117.9889968352357
 20
159.9263271696597
 30
0.0
 10
117.9185403072058
 20
159.3618655629864
 30
0.0
 10
117.8701742878529
 20
158.7964213330355
 30
0.0
 10
117.8501693665931
 20
158.562544999024
 30
0.0
  0
ARC
  5
282
330
1F
100
AcDbEntity
  8
0
  6
Continuous
 62
     7
370
    25
100
AcDbCircle
 10
132.0307298254
 20
155.6950923395
 30
0.0
 40
14.72500000000002
100
AcDbArc
 50
142.7840658168
 51
161.9510969422
  0
SPLINE
  5
283
330
1F
100
AcDbEntity
  8
0
  6
Continuous
 62
     7
370
    25
100
AcDbSpline
210
0.0
220
0.0
230
1.0
 70
     8
 71
     3
 72
     9
 73
     5
 74
     0
 42
0.00000001
 43
0.00000001
 40
0.0
 40
0.0
 40
0.0
 40
0.0
 40
0.5863847898283611
 40
1.0
 40
1.0
 40
1.0
 40
1.0
 10
121.0795165750268
 20
145.8514876468462
 30
0.0
 10
121.3455064779936
 20
145.6502122718946
 30
0.0
 10
121.7991163048187
 20
145.3069643254216
 30
0.0
 10
122.2646223627031
 20
144.9823560090066
 30
0.0
 10
122.4571627486711
 20
144.8480930719892
 30
0.0
  0
ARC
  5
284
330
1F
100
AcDbEntity
  8
0
  6
Continuous
 62
     7
370
    25
100
AcDbCircle
 10
132.0307298254
 20
155.6950923395
 30
0.0
 40
14.72500000000002
100
AcDbArc
 50
202.7840658168
 51
221.9510969422
  0
SPLINE
  5
285
330
1F
100
AcDbEntity
  8
0
  6
Continuous
 62
     7
370
    25
100
AcDbSpline
210
0.0
220
0.0
230
1.0
 70
     8
 71
     3
 72
     9
 73
     5
 74
     0
 42
0.00000001
 43
0.00000001
 40
0.0
 40
0.0
 40
0.0
 40
0.0
 40
0.586228306203283
 40
0.9999999999999999
 40
0.9999999999999999
 40
0.9999999999999999
 40
0.9999999999999999
 10
118.1352774586653
 20
151.6668193590575
 30
0.0
 10
118.1916976230885
 20
151.3388590249201
 30
0.0
 10
118.2879402709207
 20
150.7794177105601
 30
0.0
 10
118.4059000980998
 20
150.222950877666
 30
0.0
 10
118.4547085355916
 20
149.9927006536776
 30
0.0
  0
ARC
  5
286
330
1F
100
AcDbEntity
  8
0
  6
Continuous
 62
     7
370
    25
100
AcDbCircle
 10
118.0819100669
 20
152.0523232802
 30
0.0
 40
0.3891803588377283
100
AcDbArc
 50
239.2550497425
 51
277.8816701874
  0
SPLINE
  5
287
330
1F
100
AcDbEntity
  8
0
  6
Continuous
 62
     7
370
    25
100
AcDbSpline
210
0.0
220
0.0
230
1.0
 70
    24
 71
     3
 72
    12
 73
     8
 74
     0
 42
0.00000001
 43
0.00000001
 40
0.0
 40
0.0
 40
0.0
 40
0.0
 40
0.3013828945620964
 40
0.4108442493795578
 40
0.6247185195336494
 40
0.6986171054378628
 40
1.0
 40
1.0
 40
1.0
 40
1.0
 10
117.8829543188284
 20
151.7178416483737
 30
0.0
 10
117.8548990214572
 20
152.3963970412194
 30
0.0
 10
117.8166541250229
 20
153.3214016983059
 30
0.0
 10
117.7582206434033
 20
154.7346946515434
 30
0.0
 10
117.7209953339598
 20
155.6350392153152
 30
0.0
 10
117.6659075753592
 20
156.9674113225744
 30
0.0
 10
117.6309739732451
 20
157.812327838424
 30
0.0
 10
117.6029193244798
 20
158.4908675438569
 30
0.0
  0
ARC
  5
288
330
1F
100
AcDbEntity
  8
0
  6
Continuous
 62
     7
370
    25
100
AcDbCircle
 10
117.8288075233
 20
158.173951351
 30
0.0
 40
0.3891803587968923
100
AcDbArc
 50
86.8534925694
 51
125.4801130186
  0
LINE
  5
289
330
1F
100
AcDbEntity
  8
0
  6
Continuous
 62
     7
370
    25
100
AcDbLine
 10
124.1307298254
 20
143.6897815277
 30
0.0
 11
122.3956122247
 21
144.5981295268
 31
0.0
  0
ARC
  5
28A
330
1F
100
AcDbEntity
  8
0
  6
Continuous
 62
     7
370
    25
100
AcDbCircle
 10
122.783013798
 20
144.635296349
 30
0.0
 40
0.3891803587961138
100
AcDbArc
 50
146.8534925694
 51
185.4801130186
  0
SPLINE
  5
28B
330
1F
100
AcDbEntity
  8
0
  6
Continuous
 62
     7
370
    25
100
AcDbSpline
210
0.0
220
0.0
230
1.0
 70
    24
 71
     3
 72
    10
 73
     6
 74
     0
 42
0.00000001
 43
0.00000001
 40
0.0
 40
0.0
 40
0.0
 40
0.0
 40
0.6588579034621722
 40
0.8981530991963108
 40
1.0
 40
1.0
 40
1.0
 40
1.0
 10
142.5490177144167
 20
145.4313846892409
 30
0.0
 10
141.9753917297339
 20
145.0678056862434
 30
0.0
 10
141.1934265241636
 20
144.5721758901537
 30
0.0
 10
140.3186537572358
 20
144.0177222584465
 30
0.0
 10
140.0199168039719
 20
143.8283750417469
 30
0.0
 10
139.9307298254247
 20
143.7718460252686
 30
0.0
  0
ARC
  5
28C
330
1F
100
AcDbEntity
  8
0
  6
Continuous
 62
     7
370
    25
100
AcDbCircle
 10
142.1598702502
 20
145.4364446054
 30
0.0
 40
0.3891803587986228
100
AcDbArc
 50
359.2550497404
 51
37.8816701894
  0
ARC
  5
28D
330
1F
100
AcDbEntity
  8
0
  6
Continuous
 62
     7
370
    25
100
AcDbCircle
 10
135.8504091592
 20
169.5965091328
 30
0.0
 40
0.3891803588379876
100
AcDbArc
 50
119.2550497425
 51
157.8816701874
  0
SPLINE
  5
28E
330
1F
100
AcDbEntity
  8
0
  6
Continuous
 62
     7
370
    25
100
AcDbSpline
210
0.0
220
0.0
230
1.0
 70
    24
 71
     3
 72
    12
 73
     8
 74
     0
 42
0.00000001
 43
0.00000001
 40
0.0
 40
0.0
 40
0.0
 40
0.0
 40
0.3013828945621493
 40
0.4108442493795586
 40
0.6247185195336381
 40
0.6986171054378644
 40
0.9999999999999999
 40
0.9999999999999999
 40
0.9999999999999999
 40
0.9999999999999999
 10
135.6602174430291
 20
169.9360506807442
 30
0.0
 10
136.2618912997941
 20
169.6210695845555
 30
0.0
 10
137.082091279667
 20
169.1916883078895
 30
0.0
 10
138.3352556209701
 20
168.5356467107848
 30
0.0
 10
139.1335895400773
 20
168.1177124925407
 30
0.0
 10
140.3150015115578
 20
167.4992338372969
 30
0.0
 10
141.0641874794176
 20
167.1070289662486
 30
0.0
 10
141.6658474261816
 20
166.7920551520572
 30
0.0
  0
ARC
  5
28F
330
1F
100
AcDbEntity
  8
0
  6
Continuous
 62
     7
370
    25
100
AcDbCircle
 10
141.2784458529
 20
166.75488833
 30
0.0
 40
0.389180358796825
100
AcDbArc
 50
326.8534925694
 51
5.4801130186
  0
ARC
  5
290
330
1F
100
AcDbEntity
  8
0
  6
Continuous
 62
     7
370
    25
100
AcDbCircle
 10
121.9015894007
 20
165.9537400735
 30
0.0
 40
0.3891803588379601
100
AcDbArc
 50
179.2550497425
 51
217.8816701874
  0
SPLINE
  5
291
330
1F
100
AcDbEntity
  8
0
  6
Continuous
 62
     7
370
    25
100
AcDbSpline
210
0.0
220
0.0
230
1.0
 70
    24
 71
     3
 72
    12
 73
     8
 74
     0
 42
0.00000001
 43
0.00000001
 40
0.0
 40
0.0
 40
0.0
 40
0.0
 40
0.3013828945621501
 40
0.4108442493795775
 40
0.6247185195336591
 40
0.6986171054378612
 40
1.0
 40
1.0
 40
1.0
 40
1.0
 10
121.5124419364328
 20
165.958799989665
 30
0.0
 10
122.0860604958265
 20
166.3223742863221
 30
0.0
 10
122.8680155792652
 20
166.8179976667426
 30
0.0
 10
124.0627464389487
 20
167.5752490228755
 30
0.0
 10
124.8238550486125
 20
168.0576593684031
 30
0.0
 10
125.9501792614923
 20
168.7715528204183
 30
0.0
 10
126.664431627238
 20
169.2242644652196
 30
0.0
 10
127.2380369252367
 20
169.5878303564611
 30
0.0
  0
ARC
  5
292
330
1F
100
AcDbEntity
  8
0
  6
Continuous
 62
     7
370
    25
100
AcDbCircle
 10
127.0765235507
 20
169.2337473415
 30
0.0
 40
0.3891803587966549
100
AcDbArc
 50
26.8534925694
 51
65.4801130186
  0
SPLINE
  5
293
330
1F
100
AcDbEntity
  8
0
  6
Continuous
 62
     7
370
    25
100
AcDbSpline
210
0.0
220
0.0
230
1.0
 70
    24
 71
     3
 72
    12
 73
     8
 74
     0
 42
0.00000001
 43
0.00000001
 40
0.0
 40
0.0
 40
0.0
 40
0.0
 40
0.3013828945621546
 40
0.4108442493795564
 40
0.6247185195336475
 40
0.6986171054378579
 40
1.0
 40
1.0
 40
1.0
 40
1.0
 10
146.178505332021
 20
159.6723430305321
 30
0.0
 10
146.2065606293922
 20
158.9937876376864
 30
0.0
 10
146.2448055258265
 20
158.0687829805999
 30
0.0
 10
146.3032390074461
 20
156.6554900273623
 30
0.0
 10
146.3404643168896
 20
155.7551454635906
 30
0.0
 10
146.3955520754902
 20
154.4227733563316
 30
0.0
 10
146.4304856776043
 20
153.577856840482
 30
0.0
 10
146.4585403263696
 20
152.899317135049
 30
0.0
  0
ARC
  5
294
330
1F
100
AcDbEntity
  8
0
  6
Continuous
 62
     7
370
    25
100
AcDbCircle
 10
146.2326521276
 20
153.216233328
 30
0.0
 40
0.3891803587963026
100
AcDbArc
 50
266.8534925694
 51
305.4801130186
  0
ARC
  5
295
330
1F
100
AcDbEntity
  8
0
  6
Continuous
 62
     7
370
    25
100
AcDbCircle
 10
145.979549584
 20
159.3378613988
 30
0.0
 40
0.3891803587981321
100
AcDbArc
 50
59.2550497404
 51
97.8816701894
  0
LINE
  5
296
330
1F
100
AcDbEntity
  8
0
  6
Continuous
 62
     7
370
    25
100
AcDbLine
 10
141.6658474262
 20
166.7920551521
 30
0.0
 11
143.2138417685
 21
165.9816676816
 31
0.0
  0
LINE
  5
297
330
1F
100
AcDbEntity
  8
0
  6
Continuous
 62
     7
370
    25
100
AcDbLine
 10
143.2138417685
 20
165.9816676816
 30
0.0
 11
142.9819430758
 21
165.5386970321
 31
0.0
  0
LINE
  5
298
330
1F
100
AcDbEntity
  8
0
  6
Continuous
 62
     7
370
    25
100
AcDbLine
 10
127.2380369252
 20
169.5878303565
 30
0.0
 11
128.7138502327
 21
170.5232390466
 31
0.0
  0
LINE
  5
299
330
1F
100
AcDbEntity
  8
0
  6
Continuous
 62
     7
370
    25
100
AcDbLine
 10
128.7138502327
 20
170.5232390466
 30
0.0
 11
128.981524722
 21
170.1009235629
 31
0.0
  0
LINE
  5
29A
330
1F
100
AcDbEntity
  8
0
  6
Continuous
 62
     7
370
    25
100
AcDbLine
 10
146.4585403264
 20
152.899317135
 30
0.0
 11
146.5307213612
 21
151.1535209745
 31
0.0
  0
LINE
  5
29B
330
1F
100
AcDbEntity
  8
0
  6
Continuous
 62
     7
370
    25
100
AcDbLine
 10
146.5307213612
 20
151.1535209745
 30
0.0
 11
146.0311481792
 21
151.1328658087
 31
0.0
  0
LINE
  5
29C
330
1F
100
AcDbEntity
  8
0
  6
Continuous
 62
     7
370
    25
100
AcDbLine
 10
117.6029193245
 20
158.4908675439
 30
0.0
 11
117.5307382897
 21
160.2366637044
 31
0.0
  0
LINE
  5
29D
330
1F
100
AcDbEntity
  8
0
  6
Continuous
 62
     7
370
    25
100
AcDbLine
 10
118.0303114716
 20
160.2573188703
 30
0.0
 11
117.5307382897
 21
160.2366637044
 31
0.0
  0
LINE
  5
29E
330
1F
100
AcDbEntity
  8
0
  6
Continuous
 62
     7
370
    25
100
AcDbLine
 10
122.3956122247
 20
144.5981295268
 30
0.0
 11
120.8476178824
 21
145.4085169973
 31
0.0
  0
LINE
  5
29F
330
1F
100
AcDbEntity
  8
0
  6
Continuous
 62
     7
370
    25
100
AcDbLine
 10
120.8476178824
 20
145.4085169973
 30
0.0
 11
121.079516575
 21
145.8514876468
 31
0.0
  0
LINE
  5
2A0
330
1F
100
AcDbEntity
  8
0
  6
Continuous
 62
     7
370
    25
100
AcDbLine
 10
146.1063242972
 20
161.4181391911
 30
0.0
 11
146.178505332
 21
159.6723430305
 31
0.0
  0
LINE
  5
2A1
330
1F
100
AcDbEntity
  8
0
  6
Continuous
 62
     7
370
    25
100
AcDbLine
 10
145.6067511153
 20
161.3974840252
 30
0.0
 11
146.1063242972
 21
161.4181391911
 31
0.0
  0
LINE
  5
2A2
330
1F
100
AcDbEntity
  8
0
  6
Continuous
 62
     7
370
    25
100
AcDbLine
 10
133.8803244081
 20
170.3034675017
 30
0.0
 11
134.1122231008
 21
170.7464381512
 31
0.0
  0
LINE
  5
2A3
330
1F
100
AcDbEntity
  8
0
  6
Continuous
 62
     7
370
    25
100
AcDbLine
 10
134.1122231008
 20
170.7464381512
 30
0.0
 11
135.660217443
 21
169.9360506807
 31
0.0
  0
LINE
  5
2A4
330
1F
100
AcDbEntity
  8
0
  6
Continuous
 62
     7
370
    25
100
AcDbLine
 10
144.0248310219
 20
146.3667933793
 30
0.0
 11
142.5490177144
 21
145.4313846892
 31
0.0
  0
LINE
  5
2A5
330
1F
100
AcDbEntity
  8
0
  6
Continuous
 62
     7
370
    25
100
AcDbLine
 10
143.7571565326
 20
146.789108863
 30
0.0
 11
144.0248310219
 21
146.3667933793
 31
0.0
  0
LINE
  5
2A6
330
1F
100
AcDbEntity
  8
0
  6
Continuous
 62
     7
370
    25
100
AcDbLine
 10
120.3043031183
 20
164.6010758159
 30
0.0
 11
120.036628629
 21
165.0233912996
 31
0.0
  0
LINE
  5
2A7
330
1F
100
AcDbEntity
  8
0
  6
Continuous
 62
     7
370
    25
100
AcDbLine
 10
120.036628629
 20
165.0233912996
 30
0.0
 11
121.5124419364
 21
165.9587999897
 31
0.0
  0
LINE
  5
2A8
330
1F
100
AcDbEntity
  8
0
  6
Continuous
 62
     7
370
    25
100
AcDbLine
 10
118.4547085356
 20
149.9927006537
 30
0.0
 11
117.9551353536
 21
149.9720454878
 31
0.0
  0
LINE
  5
2A9
330
1F
100
AcDbEntity
  8
0
  6
Continuous
 62
     7
370
    25
100
AcDbLine
 10
117.9551353536
 20
149.9720454878
 30
0.0
 11
117.8829543188
 21
151.7178416484
 31
0.0
  0
ARC
  5
2AA
330
1F
100
AcDbEntity
  8
0
  6
Continuous
 62
     7
370
    25
100
AcDbCircle
 10
144.6837707692
 20
164.6477765668
 30
0.0
 40
0.5000000000000024
100
AcDbArc
 50
35.2813916209
 51
62.3675813795
  0
LINE
  5
2AB
330
1F
100
AcDbEntity
  8
0
  6
Continuous
 62
     7
370
    25
100
AcDbLine
 10
144.6837707692
 20
164.6477765668
 30
0.0
 11
145.0919333803
 21
164.9365728322
 31
0.0
  0
LINE
  5
2AC
330
1F
100
AcDbEntity
  8
0
  6
Continuous
 62
     7
370
    25
100
AcDbLine
 10
144.9156694618
 20
165.0907472164
 30
0.0
 11
144.6837707692
 21
164.6477765668
 31
0.0
  0
LINE
  5
2AD
330
1F
100
AcDbEntity
  8
0
  6
Continuous
 62
     7
370
    25
100
AcDbLine
 10
133.8803244081
 20
170.3034675017
 30
0.0
 11
132.1784967148
 21
171.1943879669
 31
0.0
  0
LINE
  5
2AE
330
1F
100
AcDbEntity
  8
0
  6
Continuous
 62
     7
370
    25
100
AcDbLine
 10
130.6039983243
 20
171.1292893456
 30
0.0
 11
128.981524722
 21
170.1009235629
 31
0.0
  0
ARC
  5
2AF
330
1F
100
AcDbEntity
  8
0
  6
Continuous
 62
     7
370
    25
100
AcDbCircle
 10
132.0307298254
 20
155.6950923395
 30
0.0
 40
15.5
100
AcDbArc
 50
89.453771138
 51
95.2813916209
  0
LINE
  5
2B0
330
1F
100
AcDbEntity
  8
0
  6
Continuous
 62
     7
370
    25
100
AcDbLine
 10
145.6067511153
 20
161.3974840252
 30
0.0
 11
145.5273970242
 21
163.3167702732
 31
0.0
  0
LINE
  5
2B1
330
1F
100
AcDbEntity
  8
0
  6
Continuous
 62
     7
370
    25
100
AcDbLine
 10
144.6837707692
 20
164.6477765668
 30
0.0
 11
142.9819430758
 21
165.5386970321
 31
0.0
  0
ARC
  5
2B2
330
1F
100
AcDbEntity
  8
0
  6
Continuous
 62
     7
370
    25
100
AcDbCircle
 10
132.0307298254
 20
155.6950923395
 30
0.0
 40
15.50000000000001
100
AcDbArc
 50
29.453771138
 51
35.2813916209
  0
ARC
  5
2B3
330
1F
100
AcDbEntity
  8
0
  6
Continuous
 62
     7
370
    25
100
AcDbCircle
 10
132.1784967148
 20
171.1943879669
 30
0.0
 40
0.5000000000000194
100
AcDbArc
 50
62.3675813795
 51
89.453771138
  0
LINE
  5
2B4
330
1F
100
AcDbEntity
  8
0
  6
Continuous
 62
     7
370
    25
100
AcDbLine
 10
132.1784967148
 20
171.1943879669
 30
0.0
 11
132.4103954074
 21
171.6373586164
 31
0.0
  0
LINE
  5
2B5
330
1F
100
AcDbEntity
  8
0
  6
Continuous
 62
     7
370
    25
100
AcDbLine
 10
132.1784967148
 20
171.1943879669
 30
0.0
 11
132.1832633886
 21
171.6943652452
 31
0.0
  0
LINE
  5
2B6
330
1F
100
AcDbEntity
  8
0
  6
Continuous
 62
     7
370
    25
100
AcDbLine
 10
143.2138417685
 20
165.9816676816
 30
0.0
 11
144.9156694618
 21
165.0907472164
 31
0.0
  0
LINE
  5
2B7
330
1F
100
AcDbEntity
  8
0
  6
Continuous
 62
     7
370
    25
100
AcDbLine
 10
146.5307213612
 20
151.1535209745
 30
0.0
 11
146.6100754522
 21
149.2342347266
 31
0.0
  0
LINE
  5
2B8
330
1F
100
AcDbEntity
  8
0
  6
Continuous
 62
     7
370
    25
100
AcDbLine
 10
146.6100754522
 20
149.2342347266
 30
0.0
 11
146.1105022703
 21
149.2135795607
 31
0.0
  0
LINE
  5
2B9
330
1F
100
AcDbEntity
  8
0
  6
Continuous
 62
     7
370
    25
100
AcDbLine
 10
146.1105022703
 20
149.2135795607
 30
0.0
 11
146.0311481792
 21
151.1328658087
 31
0.0
  0
LINE
  5
2BA
330
1F
100
AcDbEntity
  8
0
  6
Continuous
 62
     7
370
    25
100
AcDbLine
 10
130.6039983243
 20
171.1292893456
 30
0.0
 11
130.5579747275
 21
171.6271666684
 31
0.0
  0
ARC
  5
2BB
330
1F
100
AcDbEntity
  8
0
  6
Continuous
 62
     7
370
    25
100
AcDbCircle
 10
132.0307298254
 20
155.6950923395
 30
0.0
 40
16.00000000000002
100
AcDbArc
 50
89.453771138
 51
95.2813916209
  0
LINE
  5
2BC
330
1F
100
AcDbEntity
  8
0
  6
Continuous
 62
     7
370
    25
100
AcDbLine
 10
128.7138502327
 20
170.5232390466
 30
0.0
 11
130.336323835
 21
171.5516048293
 31
0.0
  0
LINE
  5
2BD
330
1F
100
AcDbEntity
  8
0
  6
Continuous
 62
     7
370
    25
100
AcDbLine
 10
130.336323835
 20
171.5516048293
 30
0.0
 11
130.6039983243
 21
171.1292893456
 31
0.0
  0
LINE
  5
2BE
330
1F
100
AcDbEntity
  8
0
  6
Continuous
 62
     7
370
    25
100
AcDbLine
 10
143.7571565326
 20
146.789108863
 30
0.0
 11
145.3796301349
 21
147.8174746457
 31
0.0
  0
ARC
  5
2BF
330
1F
100
AcDbEntity
  8
0
  6
Continuous
 62
     7
370
    25
100
AcDbCircle
 10
132.0307298254
 20
155.6950923395
 30
0.0
 40
15.50000000000001
100
AcDbArc
 50
329.453771138
 51
335.2813916209
  0
ARC
  5
2C0
330
1F
100
AcDbEntity
  8
0
  6
Continuous
 62
     7
370
    25
100
AcDbCircle
 10
132.0307298254
 20
155.6950923395
 30
0.0
 40
16.00000000000001
100
AcDbArc
 50
29.453771138
 51
35.2813916209
  0
LINE
  5
2C1
330
1F
100
AcDbEntity
  8
0
  6
Continuous
 62
     7
370
    25
100
AcDbLine
 10
145.9627733855
 20
163.5626308517
 30
0.0
 11
145.5273970242
 21
163.3167702732
 31
0.0
  0
ARC
  5
2C2
330
1F
100
AcDbEntity
  8
0
  6
Continuous
 62
     7
370
    25
100
AcDbCircle
 10
145.5273970242
 20
163.3167702732
 30
0.0
 40
0.5000000000000232
100
AcDbArc
 50
2.3675813795
 51
29.453771138
  0
LINE
  5
2C3
330
1F
100
AcDbEntity
  8
0
  6
Continuous
 62
     7
370
    25
100
AcDbLine
 10
145.5273970242
 20
163.3167702732
 30
0.0
 11
146.0269702062
 21
163.337425439
 31
0.0
  0
LINE
  5
2C4
330
1F
100
AcDbEntity
  8
0
  6
Continuous
 62
     7
370
    25
100
AcDbLine
 10
146.0269702062
 20
163.337425439
 30
0.0
 11
146.1063242972
 21
161.4181391911
 31
0.0
  0
ARC
  5
2C5
330
1F
100
AcDbEntity
  8
0
  6
Continuous
 62
     7
370
    25
100
AcDbCircle
 10
130.6039983243
 20
171.1292893456
 30
0.0
 40
0.5000000000000131
100
AcDbArc
 50
95.2813916209
 51
122.3675813795
  0
LINE
  5
2C6
330
1F
100
AcDbEntity
  8
0
  6
Continuous
 62
     7
370
    25
100
AcDbLine
 10
132.4103954074
 20
171.6373586164
 30
0.0
 11
134.1122231008
 21
170.7464381512
 31
0.0
  0
LINE
  5
2C7
330
1F
100
AcDbEntity
  8
0
  6
Continuous
 62
     7
370
    25
100
AcDbLine
 10
146.5646884782
 20
149.0044985033
 30
0.0
 11
146.1105022703
 21
149.2135795607
 31
0.0
  0
ARC
  5
2C8
330
1F
100
AcDbEntity
  8
0
  6
Continuous
 62
     7
370
    25
100
AcDbCircle
 10
146.1105022703
 20
149.2135795607
 30
0.0
 40
0.5000000000000194
100
AcDbArc
 50
335.2813916209
 51
2.3675813795
  0
LINE
  5
2C9
330
1F
100
AcDbEntity
  8
0
  6
Continuous
 62
     7
370
    25
100
AcDbLine
 10
120.3043031183
 20
164.6010758159
 30
0.0
 11
118.681829516
 21
163.5727100332
 31
0.0
  0
LINE
  5
2CA
330
1F
100
AcDbEntity
  8
0
  6
Continuous
 62
     7
370
    25
100
AcDbLine
 10
118.681829516
 20
163.5727100332
 30
0.0
 11
118.4141550267
 21
163.9950255169
 31
0.0
  0
LINE
  5
2CB
330
1F
100
AcDbEntity
  8
0
  6
Continuous
 62
     7
370
    25
100
AcDbLine
 10
118.4141550267
 20
163.9950255169
 30
0.0
 11
120.036628629
 21
165.0233912996
 31
0.0
  0
LINE
  5
2CC
330
1F
100
AcDbEntity
  8
0
  6
Continuous
 62
     7
370
    25
100
AcDbLine
 10
117.9509573806
 20
162.1766051182
 30
0.0
 11
118.0303114716
 21
160.2573188703
 31
0.0
  0
ARC
  5
2CD
330
1F
100
AcDbEntity
  8
0
  6
Continuous
 62
     7
370
    25
100
AcDbCircle
 10
132.0307298254
 20
155.6950923395
 30
0.0
 40
15.50000000000002
100
AcDbArc
 50
149.453771138
 51
155.2813916209
  0
LINE
  5
2CE
330
1F
100
AcDbEntity
  8
0
  6
Continuous
 62
     7
370
    25
100
AcDbLine
 10
117.5307382897
 20
160.2366637044
 30
0.0
 11
117.4513841986
 21
162.1559499523
 31
0.0
  0
LINE
  5
2CF
330
1F
100
AcDbEntity
  8
0
  6
Continuous
 62
     7
370
    25
100
AcDbLine
 10
117.9509573806
 20
162.1766051182
 30
0.0
 11
117.4513841986
 21
162.1559499523
 31
0.0
  0
ARC
  5
2D0
330
1F
100
AcDbEntity
  8
0
  6
Continuous
 62
     7
370
    25
100
AcDbCircle
 10
132.0307298254
 20
155.6950923395
 30
0.0
 40
16.00000000000001
100
AcDbArc
 50
329.453771138
 51
335.2813916209
  0
LINE
  5
2D1
330
1F
100
AcDbEntity
  8
0
  6
Continuous
 62
     7
370
    25
100
AcDbLine
 10
145.8102398223
 20
147.5633579459
 30
0.0
 11
145.3796301349
 21
147.8174746457
 31
0.0
  0
LINE
  5
2D2
330
1F
100
AcDbEntity
  8
0
  6
Continuous
 62
     7
370
    25
100
AcDbLine
 10
117.9509573806
 20
162.1766051182
 30
0.0
 11
117.4967711727
 21
162.3856861756
 31
0.0
  0
ARC
  5
2D3
330
1F
100
AcDbEntity
  8
0
  6
Continuous
 62
     7
370
    25
100
AcDbCircle
 10
132.0307298254
 20
155.6950923395
 30
0.0
 40
16.00000000000002
100
AcDbArc
 50
149.453771138
 51
155.2813916209
  0
LINE
  5
2D4
330
1F
100
AcDbEntity
  8
0
  6
Continuous
 62
     7
370
    25
100
AcDbLine
 10
118.681829516
 20
163.5727100332
 30
0.0
 11
118.2512198286
 21
163.826826733
 31
0.0
  0
LINE
  5
2D5
330
1F
100
AcDbEntity
  8
0
  6
Continuous
 62
     7
370
    25
100
AcDbLine
 10
145.3796301349
 20
147.8174746457
 30
0.0
 11
145.6473046242
 21
147.395159162
 31
0.0
  0
LINE
  5
2D6
330
1F
100
AcDbEntity
  8
0
  6
Continuous
 62
     7
370
    25
100
AcDbLine
 10
145.6473046242
 20
147.395159162
 30
0.0
 11
144.0248310219
 21
146.3667933793
 31
0.0
  0
ARC
  5
2D7
330
1F
100
AcDbEntity
  8
0
  6
Continuous
 62
     7
370
    25
100
AcDbCircle
 10
145.3796301349
 20
147.8174746457
 30
0.0
 40
0.5000000000000131
100
AcDbArc
 50
302.3675813795
 51
329.453771138
  0
LINE
  5
2D8
330
1F
100
AcDbEntity
  8
0
  6
Continuous
 62
     7
370
    25
100
AcDbLine
 10
119.3776888817
 20
146.7424081121
 30
0.0
 11
121.079516575
 21
145.8514876468
 31
0.0
  0
ARC
  5
2D9
330
1F
100
AcDbEntity
  8
0
  6
Continuous
 62
     7
370
    25
100
AcDbCircle
 10
132.0307298254
 20
155.6950923395
 30
0.0
 40
15.50000000000002
100
AcDbArc
 50
209.453771138
 51
215.2813916209
  0
LINE
  5
2DA
330
1F
100
AcDbEntity
  8
0
  6
Continuous
 62
     7
370
    25
100
AcDbLine
 10
118.4547085356
 20
149.9927006537
 30
0.0
 11
118.5340626266
 21
148.0734144057
 31
0.0
  0
ARC
  5
2DB
330
1F
100
AcDbEntity
  8
0
  6
Continuous
 62
     7
370
    25
100
AcDbCircle
 10
118.681829516
 20
163.5727100332
 30
0.0
 40
0.4999999999999843
100
AcDbArc
 50
122.3675813795
 51
149.453771138
  0
ARC
  5
2DC
330
1F
100
AcDbEntity
  8
0
  6
Continuous
 62
     7
370
    25
100
AcDbCircle
 10
117.9509573806
 20
162.1766051182
 30
0.0
 40
0.4999999999999987
100
AcDbArc
 50
155.2813916209
 51
182.3675813795
  0
LINE
  5
2DD
330
1F
100
AcDbEntity
  8
0
  6
Continuous
 62
     7
370
    25
100
AcDbLine
 10
118.5340626266
 20
148.0734144057
 30
0.0
 11
118.0344894447
 21
148.0527592399
 31
0.0
  0
LINE
  5
2DE
330
1F
100
AcDbEntity
  8
0
  6
Continuous
 62
     7
370
    25
100
AcDbLine
 10
118.0344894447
 20
148.0527592399
 30
0.0
 11
117.9551353536
 21
149.9720454878
 31
0.0
  0
LINE
  5
2DF
330
1F
100
AcDbEntity
  8
0
  6
Continuous
 62
     7
370
    25
100
AcDbLine
 10
120.8476178824
 20
145.4085169973
 30
0.0
 11
119.145790189
 21
146.2994374625
 31
0.0
  0
LINE
  5
2E0
330
1F
100
AcDbEntity
  8
0
  6
Continuous
 62
     7
370
    25
100
AcDbLine
 10
119.145790189
 20
146.2994374625
 30
0.0
 11
119.3776888817
 21
146.7424081121
 31
0.0
  0
LINE
  5
2E1
330
1F
100
AcDbEntity
  8
0
  6
Continuous
 62
     7
370
    25
100
AcDbLine
 10
118.9695262706
 20
146.4536118467
 30
0.0
 11
119.3776888817
 21
146.7424081121
 31
0.0
  0
ARC
  5
2E2
330
1F
100
AcDbEntity
  8
0
  6
Continuous
 62
     7
370
    25
100
AcDbCircle
 10
132.0307298254
 20
155.6950923395
 30
0.0
 40
16.00000000000003
100
AcDbArc
 50
209.453771138
 51
215.2813916209
  0
LINE
  5
2E3
330
1F
100
AcDbEntity
  8
0
  6
Continuous
 62
     7
370
    25
100
AcDbLine
 10
118.5340626266
 20
148.0734144057
 30
0.0
 11
118.0986862654
 21
147.8275538272
 31
0.0
  0
ARC
  5
2E4
330
1F
100
AcDbEntity
  8
0
  6
Continuous
 62
     7
370
    25
100
AcDbCircle
 10
118.5340626266
 20
148.0734144057
 30
0.0
 40
0.5000000000000063
100
AcDbArc
 50
182.3675813795
 51
209.453771138
  0
ARC
  5
2E5
330
1F
100
AcDbEntity
  8
0
  6
Continuous
 62
     7
370
    25
100
AcDbCircle
 10
119.3776888817
 20
146.7424081121
 30
0.0
 40
0.5000000000000204
100
AcDbArc
 50
215.2813916209
 51
242.3675813795
  0
ARC
  5
2E6
330
1F
100
AcDbEntity
  8
0
  6
Continuous
 62
     7
370
    25
100
AcDbCircle
 10
132.0307298254
 20
155.6950923395
 30
0.0
 40
9.574999999999987
100
AcDbArc
 50
325.5951096848
 51
119.4063269879
  0
ARC
  5
2E7
330
1F
100
AcDbEntity
  8
0
  6
Continuous
 62
     7
370
    25
100
AcDbCircle
 10
132.0307298254
 20
155.6950923395
 30
0.0
 40
9.574999999999987
100
AcDbArc
 50
119.4063269879
 51
214.4048903152
  0
ARC
  5
2E8
330
1F
100
AcDbEntity
  8
0
  6
Continuous
 62
     7
370
    25
100
AcDbCircle
 10
132.0307298254
 20
155.6950923395
 30
0.0
 40
8.050000000000033
100
AcDbArc
 50
29.4063269879
 51
191.0780164461
  0
ARC
  5
2E9
330
1F
100
AcDbEntity
  8
0
  6
Continuous
 62
     7
370
    25
100
AcDbCircle
 10
132.0307298254
 20
155.6950923395
 30
0.0
 40
8.050000000000033
100
AcDbArc
 50
348.9219835539
 51
29.4063269879
  0
ARC
  5
2EA
330
1F
100
AcDbEntity
  8
0
  6
Continuous
 62
     7
370
    25
100
AcDbCircle
 10
132.0307298254
 20
155.6950923395
 30
0.0
 40
8.249999999999995
100
AcDbArc
 50
343.2508741362
 51
119.4063269879
  0
ARC
  5
2EB
330
1F
100
AcDbEntity
  8
0
  6
Continuous
 62
     7
370
    25
100
AcDbCircle
 10
132.0307298254
 20
155.6950923395
 30
0.0
 40
8.249999999999991
100
AcDbArc
 50
119.4063269879
 51
196.7491258638
  0
ARC
  5
2EC
330
1F
100
AcDbEntity
  8
0
  6
Continuous
 62
     8
370
    25
100
AcDbCircle
 10
132.0779120191
 20
-57.0879172446
 30
0.0
 40
7.852911808525699
100
AcDbArc
 50
269.6557510264
 51
359.7196557283
  0
ARC
  5
2ED
330
1F
100
AcDbEntity
  8
0
  6
Continuous
 62
     8
370
    25
100
AcDbCircle
 10
131.9835476318
 20
-57.0879172446
 30
0.0
 40
7.85291180852584
100
AcDbArc
 50
180.2803442717
 51
270.3442489736
  0
ARC
  5
2EE
330
1F
100
AcDbEntity
  8
0
  6
Continuous
 62
     8
370
    25
100
AcDbCircle
 10
132.1263040697
 20
-57.5720343753
 30
0.0
 40
9.721901268304997
100
AcDbArc
 50
269.4367265329
 51
36.6048083592
  0
ARC
  5
2EF
330
1F
100
AcDbEntity
  8
0
  6
Continuous
 62
     8
370
    25
100
AcDbCircle
 10
131.9351555812
 20
-57.5720343753
 30
0.0
 40
9.721901268305029
100
AcDbArc
 50
143.3951916408
 51
270.5632734671
  0
LINE
  5
2F0
330
1F
100
AcDbEntity
  8
0
  6
Continuous
 62
     8
370
    25
100
AcDbLine
 10
142.3371152449
 20
-59.8671915187
 30
0.0
 11
142.5813137751
 21
-59.9398473299
 31
0.0
  0
LINE
  5
2F1
330
1F
100
AcDbEntity
  8
0
  6
Continuous
 62
     8
370
    25
100
AcDbLine
 10
223.9357348149
 20
149.7699645683
 30
0.0
 11
223.9357348149
 21
161.6202201106
 31
0.0
  0
LINE
  5
2F2
330
1F
100
AcDbEntity
  8
0
  6
Continuous
 62
     8
370
    25
100
AcDbLine
 10
224.6900990298
 20
158.0673841237
 30
0.0
 11
224.6900990298
 21
151.4976589732
 31
0.0
  0
LINE
  5
2F3
330
1F
100
AcDbEntity
  8
0
  6
Continuous
 62
     8
370
    25
100
AcDbLine
 10
224.6900990298
 20
159.8925257057
 30
0.0
 11
224.6900990298
 21
158.0673841237
 31
0.0
  0
LINE
  5
2F4
330
1F
100
AcDbEntity
  8
0
  6
Continuous
 62
     8
370
    25
100
AcDbLine
 10
225.2278497535
 20
156.9530628656
 30
0.0
 11
225.4507516271
 21
156.9530628656
 31
0.0
  0
LINE
  5
2F5
330
1F
100
AcDbEntity
  8
0
  6
Continuous
 62
     8
370
    25
100
AcDbLine
 10
225.4507516271
 20
154.2422770047
 30
0.0
 11
225.3123099294
 21
154.2422770047
 31
0.0
  0
LINE
  5
2F6
330
1F
100
AcDbEntity
  8
0
  6
Continuous
 62
     8
370
    25
100
AcDbLine
 10
225.296508705
 20
156.4696955639
 30
0.0
 11
225.4507516271
 21
156.4696955639
 31
0.0
  0
LINE
  5
2F7
330
1F
100
AcDbEntity
  8
0
  6
Continuous
 62
     8
370
    25
100
AcDbLine
 10
39.3713606211
 20
158.0673841237
 30
0.0
 11
39.3713606211
 21
159.8925257057
 31
0.0
  0
LINE
  5
2F8
330
1F
100
AcDbEntity
  8
0
  6
Continuous
 62
     8
370
    25
100
AcDbLine
 10
39.3713606211
 20
151.4976589732
 30
0.0
 11
39.3713606211
 21
158.0673841237
 31
0.0
  0
LINE
  5
2F9
330
1F
100
AcDbEntity
  8
0
  6
Continuous
 62
     8
370
    25
100
AcDbLine
 10
38.6107080238
 20
156.9530628656
 30
0.0
 11
38.8336098974
 21
156.9530628656
 31
0.0
  0
LINE
  5
2FA
330
1F
100
AcDbEntity
  8
0
  6
Continuous
 62
     8
370
    25
100
AcDbLine
 10
38.7491497215
 20
154.2422770047
 30
0.0
 11
38.6107080238
 21
154.2422770047
 31
0.0
  0
LINE
  5
2FB
330
1F
100
AcDbEntity
  8
0
  6
Continuous
 62
     8
370
    25
100
AcDbLine
 10
38.6107080238
 20
156.4696955639
 30
0.0
 11
38.7649509459
 21
156.4696955639
 31
0.0
  0
LINE
  5
2FC
330
1F
100
AcDbEntity
  8
0
  6
Continuous
 62
     8
370
    25
100
AcDbLine
 10
40.1257248359
 20
150.1845677919
 30
0.0
 11
40.1257248359
 21
149.7699645683
 31
0.0
  0
LINE
  5
2FD
330
1F
100
AcDbEntity
  8
0
  6
Continuous
 62
     8
370
    25
100
AcDbLine
 10
40.1257248359
 20
161.6202201106
 30
0.0
 11
40.1257248359
 21
150.1845677919
 31
0.0
  0
LINE
  5
2FE
330
1F
100
AcDbEntity
  8
0
  6
Continuous
 62
     8
370
    25
100
AcDbLine
 10
217.4687737826
 20
147.7949222826
 30
0.0
 11
217.4687737826
 21
146.9648555841
 31
0.0
  0
LINE
  5
2FF
330
1F
100
AcDbEntity
  8
0
  6
Continuous
 62
     8
370
    25
100
AcDbLine
 10
216.5353535687
 20
164.9324645829
 30
0.0
 11
216.5353535687
 21
164.0965110447
 31
0.0
  0
LINE
  5
300
330
1F
100
AcDbEntity
  8
0
  6
Continuous
 62
     8
370
    25
100
AcDbLine
 10
221.8394560286
 20
147.0411461264
 30
0.0
 11
221.8394560286
 21
164.8398811301
 31
0.0
  0
ARC
  5
301
330
1F
100
AcDbEntity
  8
0
  6
Continuous
 62
     8
370
    25
100
AcDbCircle
 10
211.995571339
 20
165.5741493669
 30
0.0
 40
1.99719325415682
100
AcDbArc
 50
21.0122086051
 51
89.4244113789
  0
SPLINE
  5
302
330
1F
100
AcDbEntity
  8
0
  6
Continuous
 62
     8
370
    25
100
AcDbSpline
210
0.0
220
0.0
230
1.0
 70
     8
 71
     3
 72
    11
 73
     7
 74
     0
 42
0.00000001
 43
0.00000001
 40
0.0
 40
0.0
 40
0.0
 40
0.0
 40
0.2826501073666249
 40
0.8581489095904482
 40
0.8613649112870387
 40
1.0
 40
1.0
 40
1.0
 40
1.0
 10
215.2398472394739
 20
165.270412599789
 30
0.0
 10
215.3521166362836
 20
165.2094850980399
 30
0.0
 10
215.692975733597
 20
165.024504205313
 30
0.0
 10
216.0708297111131
 20
164.6274728353877
 30
0.0
 10
216.3812088044638
 20
164.2532772312801
 30
0.0
 10
216.4427112991949
 20
164.1742922981239
 30
0.0
 10
216.5028194294074
 20
164.0970980856334
 30
0.0
  0
SPLINE
  5
303
330
1F
100
AcDbEntity
  8
0
  6
Continuous
 62
     8
370
    25
100
AcDbSpline
210
0.0
220
0.0
230
1.0
 70
     8
 71
     3
 72
     9
 73
     5
 74
     0
 42
0.00000001
 43
0.00000001
 40
0.0
 40
0.0
 40
0.0
 40
0.0
 40
0.3530215453708969
 40
1.0
 40
1.0
 40
1.0
 40
1.0
 10
217.4241674493909
 20
147.7941156654607
 30
0.0
 10
217.2320699370566
 20
147.6008046601005
 30
0.0
 10
216.687917562072
 20
147.0532148376236
 30
0.0
 10
216.1676803222642
 20
146.7489932734641
 30
0.0
 10
215.8310980368129
 20
146.5521684760193
 30
0.0
  0
ARC
  5
304
330
1F
100
AcDbEntity
  8
0
  6
Continuous
 62
     8
370
    25
100
AcDbCircle
 10
212.1012574153
 20
146.1992610057
 30
0.0
 40
1.935629434209561
100
AcDbArc
 50
269.1328601458
 51
335.5788705465
  0
ARC
  5
305
330
1F
100
AcDbEntity
  8
0
  6
Continuous
 62
     8
370
    25
100
AcDbCircle
 10
211.9953853725
 20
165.6221291739
 30
0.0
 40
1.996106121819884
100
AcDbArc
 50
19.5637302954
 51
89.4187596751
  0
LINE
  5
306
330
1F
100
AcDbEntity
  8
0
  6
Continuous
 62
     8
370
    25
100
AcDbLine
 10
207.9894560286
 20
167.9123270906
 30
0.0
 11
207.9894560286
 21
167.6866475415
 31
0.0
  0
LINE
  5
307
330
1F
100
AcDbEntity
  8
0
  6
Continuous
 62
     8
370
    25
100
AcDbLine
 10
207.9894560286
 20
144.194379715
 30
0.0
 11
207.9894560286
 21
143.968700166
 31
0.0
  0
LINE
  5
308
330
1F
100
AcDbEntity
  8
0
  6
Continuous
 62
     8
370
    25
100
AcDbLine
 10
212.0156346383
 20
144.038977375
 30
0.0
 11
212.0156346383
 21
144.0555661814
 31
0.0
  0
LINE
  5
309
330
1F
100
AcDbEntity
  8
0
  6
Continuous
 62
     8
370
    25
100
AcDbLine
 10
212.0156346383
 20
167.6181325849
 30
0.0
 11
212.0156346383
 21
167.8420498815
 31
0.0
  0
ARC
  5
30A
330
1F
100
AcDbEntity
  8
0
  6
Continuous
 62
     8
370
    25
100
AcDbCircle
 10
211.9816542778
 20
146.0554898101
 30
0.0
 40
2.000212285190738
100
AcDbArc
 50
270.9734091321
 51
332.2807513659
  0
LINE
  5
30B
330
1F
100
AcDbEntity
  8
0
  6
Continuous
 62
     8
370
    25
100
AcDbLine
 10
46.5926858683
 20
163.8406836852
 30
0.0
 11
46.5926858683
 21
164.6707503837
 31
0.0
  0
LINE
  5
30C
330
1F
100
AcDbEntity
  8
0
  6
Continuous
 62
     8
370
    25
100
AcDbLine
 10
47.5261060822
 20
146.7031413848
 30
0.0
 11
47.5261060822
 21
147.539094923
 31
0.0
  0
LINE
  5
30D
330
1F
100
AcDbEntity
  8
0
  6
Continuous
 62
     8
370
    25
100
AcDbLine
 10
42.2220036222
 20
164.5944598413
 30
0.0
 11
42.2220036222
 21
146.7957248376
 31
0.0
  0
ARC
  5
30E
330
1F
100
AcDbEntity
  8
0
  6
Continuous
 62
     8
370
    25
100
AcDbCircle
 10
52.0658883119
 20
146.0614566009
 30
0.0
 40
1.997193254156787
100
AcDbArc
 50
201.0122086051
 51
269.4244113789
  0
SPLINE
  5
30F
330
1F
100
AcDbEntity
  8
0
  6
Continuous
 62
     8
370
    25
100
AcDbSpline
210
0.0
220
0.0
230
1.0
 70
     8
 71
     3
 72
    11
 73
     7
 74
     0
 42
0.00000001
 43
0.00000001
 40
0.0
 40
0.0
 40
0.0
 40
0.0
 40
0.2826501073666268
 40
0.8581489095904486
 40
0.8613649112870395
 40
1.0
 40
1.0
 40
1.0
 40
1.0
 10
48.82161241137545
 20
146.3651933679447
 30
0.0
 10
48.7093430145659
 20
146.4261208696937
 30
0.0
 10
48.36848391725263
 20
146.6111017624205
 30
0.0
 10
47.99062993973494
 20
147.0081331323476
 30
0.0
 10
47.68025084638597
 20
147.3823287364533
 30
0.0
 10
47.61874835165465
 20
147.4613136696096
 30
0.0
 10
47.55864022144199
 20
147.5385078821003
 30
0.0
  0
SPLINE
  5
310
330
1F
100
AcDbEntity
  8
0
  6
Continuous
 62
     8
370
    25
100
AcDbSpline
210
0.0
220
0.0
230
1.0
 70
     8
 71
     3
 72
     9
 73
     5
 74
     0
 42
0.00000001
 43
0.00000001
 40
0.0
 40
0.0
 40
0.0
 40
0.0
 40
0.3530215453708971
 40
1.0
 40
1.0
 40
1.0
 40
1.0
 10
46.63729220145851
 20
163.8414903022731
 30
0.0
 10
46.8293897137928
 20
164.0348013076333
 30
0.0
 10
47.37354208877736
 20
164.5823911301102
 30
0.0
 10
47.89377932858511
 20
164.8866126942697
 30
0.0
 10
48.23036161403645
 20
165.0834374917144
 30
0.0
  0
ARC
  5
311
330
1F
100
AcDbEntity
  8
0
  6
Continuous
 62
     8
370
    25
100
AcDbCircle
 10
51.9602022356
 20
165.436344962
 30
0.0
 40
1.935629434209555
100
AcDbArc
 50
89.1328601458
 51
155.5788705465
  0
ARC
  5
312
330
1F
100
AcDbEntity
  8
0
  6
Continuous
 62
     8
370
    25
100
AcDbCircle
 10
52.0660742784
 20
146.0134767939
 30
0.0
 40
1.996106121819957
100
AcDbArc
 50
199.5637302954
 51
269.4187596751
  0
LINE
  5
313
330
1F
100
AcDbEntity
  8
0
  6
Continuous
 62
     8
370
    25
100
AcDbLine
 10
56.0720036222
 20
143.7232788771
 30
0.0
 11
56.0720036222
 21
143.9489584262
 31
0.0
  0
LINE
  5
314
330
1F
100
AcDbEntity
  8
0
  6
Continuous
 62
     8
370
    25
100
AcDbLine
 10
56.0720036222
 20
167.4412262527
 30
0.0
 11
56.0720036222
 21
167.6669058018
 31
0.0
  0
LINE
  5
315
330
1F
100
AcDbEntity
  8
0
  6
Continuous
 62
     8
370
    25
100
AcDbLine
 10
52.0458250126
 20
144.0174733829
 30
0.0
 11
52.0458250126
 21
143.7935560862
 31
0.0
  0
LINE
  5
316
330
1F
100
AcDbEntity
  8
0
  6
Continuous
 62
     8
370
    25
100
AcDbLine
 10
52.0458250126
 20
167.5966285927
 30
0.0
 11
52.0458250126
 21
167.5800397864
 31
0.0
  0
ARC
  5
317
330
1F
100
AcDbEntity
  8
0
  6
Continuous
 62
     8
370
    25
100
AcDbCircle
 10
52.0798053731
 20
165.5801161576
 30
0.0
 40
2.000212285190693
100
AcDbArc
 50
90.9734091321
 51
152.2807513659
  0
SPLINE
  5
318
330
1F
100
AcDbEntity
  8
0
  6
Continuous
 62
     8
370
    25
100
AcDbSpline
210
0.0
220
0.0
230
1.0
 70
     8
 71
     3
 72
     9
 73
     5
 74
     0
 42
0.00000001
 43
0.00000001
 40
0.0
 40
0.0
 40
0.0
 40
0.0
 40
0.5990487405209016
 40
1.0
 40
1.0
 40
1.0
 40
1.0
 10
141.7749001882076
 20
144.9407289555442
 30
0.0
 10
141.9429552246434
 20
145.0731738966469
 30
0.0
 10
142.2234917237096
 20
145.2942659917369
 30
0.0
 10
142.4583297661305
 20
145.5659122010086
 30
0.0
 10
142.5524883750128
 20
145.6748290907488
 30
0.0
  0
ARC
  5
319
330
1F
100
AcDbEntity
  8
0
  6
Continuous
 62
     8
370
    25
100
AcDbCircle
 10
147.314146957
 20
171.2076942784
 30
0.0
 40
10.54947996540477
100
AcDbArc
 50
262.7677236859
 51
287.6500232438
  0
ARC
  5
31A
330
1F
100
AcDbEntity
  8
0
  6
Continuous
 62
     8
370
    25
100
AcDbCircle
 10
146.7736077535
 20
136.8709612501
 30
0.0
 40
13.8776326807066
100
AcDbArc
 50
74.3691692462
 51
90.933396377
  0
ARC
  5
31B
330
1F
100
AcDbEntity
  8
0
  6
Continuous
 62
     8
370
    25
100
AcDbCircle
 10
117.2878518973
 20
174.5192234288
 30
0.0
 40
13.87763268070808
100
AcDbArc
 50
254.3691692462
 51
270.933396377
  0
ARC
  5
31C
330
1F
100
AcDbEntity
  8
0
  6
Continuous
 62
     8
370
    25
100
AcDbCircle
 10
116.7473126938
 20
140.1824904005
 30
0.0
 40
10.54947996540254
100
AcDbArc
 50
82.7677236859
 51
107.6500232438
  0
LWPOLYLINE
  5
31D
330
1F
100
AcDbEntity
  8
0
  6
Continuous
 62
     8
370
    25
100
AcDbPolyline
 90
        3
 70
   128
 43
0.0
 10
119.9273884996
 20
164.9541520768
 10
119.8564486516
 20
164.9763670545
 10
119.6440386771
 20
165.0504444432
  0
SPLINE
  5
31E
330
1F
100
AcDbEntity
  8
0
  6
Continuous
 62
     8
370
    25
100
AcDbSpline
210
0.0
220
0.0
230
1.0
 70
     8
 71
     3
 72
    10
 73
     6
 74
     0
 42
0.00000001
 43
0.00000001
 40
0.0
 40
0.0
 40
0.0
 40
0.0
 40
0.2690419970047674
 40
0.7981687435934559
 40
0.9999999999999999
 40
0.9999999999999999
 40
0.9999999999999999
 40
0.9999999999999999
 10
145.5929387435986
 20
164.1461264849712
 30
0.0
 10
146.0037248099156
 20
163.8212014984267
 30
0.0
 10
147.2224066591743
 20
162.8572443052763
 30
0.0
 10
148.8451413922674
 20
161.8705180087977
 30
0.0
 10
150.1519387988306
 20
161.3096761930812
 30
0.0
 10
150.512770148039
 20
161.1548172164402
 30
0.0
  0
LWPOLYLINE
  5
31F
330
1F
100
AcDbEntity
  8
0
  6
Continuous
 62
     8
370
    25
100
AcDbPolyline
 90
        3
 70
   128
 43
0.0
 10
144.4174209737
 20
146.3397402357
 10
144.2050109993
 20
146.4138176244
 10
144.1340711512
 20
146.4360326021
  0
SPLINE
  5
320
330
1F
100
AcDbEntity
  8
0
  6
Continuous
 62
     8
370
    25
100
AcDbSpline
210
0.0
220
0.0
230
1.0
 70
     8
 71
     3
 72
     9
 73
     5
 74
     0
 42
0.00000001
 43
0.00000001
 40
0.0
 40
0.0
 40
0.0
 40
0.0
 40
0.508540846603281
 40
1.0
 40
1.0
 40
1.0
 40
1.0
 10
113.5486895028104
 20
150.2353674624652
 30
0.0
 10
114.4517027051026
 20
149.8222633894312
 30
0.0
 10
116.2273972404064
 20
149.0099312517214
 30
0.0
 10
117.7586821102897
 20
147.7807447728009
 30
0.0
 10
118.5112460760518
 20
147.176649826504
 30
0.0
  0
SPLINE
  5
321
330
1F
100
AcDbEntity
  8
0
  6
Continuous
 62
     8
370
    25
100
AcDbSpline
210
0.0
220
0.0
230
1.0
 70
     8
 71
     3
 72
    10
 73
     6
 74
     0
 42
0.00000001
 43
0.00000001
 40
0.0
 40
0.0
 40
0.0
 40
0.0
 40
0.2235812237394957
 40
0.7309018650606209
 40
1.0
 40
1.0
 40
1.0
 40
1.0
 10
135.4118452925712
 20
170.0660754962391
 30
0.0
 10
136.0756125730527
 20
169.9117995679457
 30
0.0
 10
138.2455118837188
 20
169.4074613152176
 30
0.0
 10
141.0646538099177
 20
167.997540363737
 30
0.0
 10
142.8478335017238
 20
166.4025411552133
 30
0.0
 10
143.465863801864
 20
165.8497321230686
 30
0.0
  0
SPLINE
  5
322
330
1F
100
AcDbEntity
  8
0
  6
Continuous
 62
     8
370
    25
100
AcDbSpline
210
0.0
220
0.0
230
1.0
 70
     8
 71
     3
 72
    10
 73
     6
 74
     0
 42
0.00000001
 43
0.00000001
 40
0.0
 40
0.0
 40
0.0
 40
0.0
 40
0.097452233232986
 40
0.6000722160634547
 40
1.0
 40
1.0
 40
1.0
 40
1.0
 10
127.5401099023315
 20
169.7792920314502
 30
0.0
 10
127.2486223400216
 20
169.7083060186988
 30
0.0
 10
125.4537574952924
 20
169.2712022954891
 30
0.0
 10
122.6459570337803
 20
167.7641864472063
 30
0.0
 10
120.5657838532924
 20
165.8837044804135
 30
0.0
 10
119.6440386771266
 20
165.0504444432124
 30
0.0
  0
SPLINE
  5
323
330
1F
100
AcDbEntity
  8
0
  6
Continuous
 62
     8
370
    25
100
AcDbSpline
210
0.0
220
0.0
230
1.0
 70
     8
 71
     3
 72
    10
 73
     6
 74
     0
 42
0.00000001
 43
0.00000001
 40
0.0
 40
0.0
 40
0.0
 40
0.0
 40
0.4445016749631699
 40
0.8976202267333362
 40
1.0
 40
1.0
 40
1.0
 40
1.0
 10
144.4174209737228
 20
146.339740235693
 30
0.0
 10
143.8073441602806
 20
145.7734275327588
 30
0.0
 10
142.575363903621
 20
144.6298238852542
 30
0.0
 10
141.0500174916828
 20
143.5011100656507
 30
0.0
 10
140.1049147052484
 20
143.0704029464711
 30
0.0
 10
139.9307298254247
 20
142.9910225141304
 30
0.0
  0
SPLINE
  5
324
330
1F
100
AcDbEntity
  8
0
  6
Continuous
 62
     8
370
    25
100
AcDbSpline
210
0.0
220
0.0
230
1.0
 70
     8
 71
     3
 72
    10
 73
     6
 74
     0
 42
0.00000001
 43
0.00000001
 40
0.0
 40
0.0
 40
0.0
 40
0.0
 40
0.3191784214507695
 40
0.8957407084868505
 40
1.0
 40
1.0
 40
1.0
 40
1.0
 10
120.4560912254301
 20
145.6134843466602
 30
0.0
 10
120.8020844219145
 20
145.2956325538701
 30
0.0
 10
121.7730779795046
 20
144.4036148893505
 30
0.0
 10
122.978807881931
 20
143.5208599340966
 30
0.0
 10
123.8878442066386
 20
143.1037759707582
 30
0.0
 10
124.0270517261413
 20
143.0399047893954
 30
0.0
  0
ARC
  5
325
330
1F
100
AcDbEntity
  8
0
  6
Continuous
 62
     8
370
    25
100
AcDbCircle
 10
130.529044757
 20
153.3774095431
 30
0.0
 40
12.95489440752783
100
AcDbArc
 50
215.43874522
 51
240.4033051406
  0
ARC
  5
326
330
1F
100
AcDbEntity
  8
0
  6
Continuous
 62
     8
370
    25
100
AcDbCircle
 10
133.4788692526
 20
153.4558761162
 30
0.0
 40
13.04957101302898
100
AcDbArc
 50
299.6309645688
 51
326.9537602689
  0
ARC
  5
327
330
1F
100
AcDbEntity
  8
0
  6
Continuous
 62
     8
370
    25
100
AcDbCircle
 10
134.2891510451
 20
158.8358120729
 30
0.0
 40
11.86339531062669
100
AcDbArc
 50
34.3192740789
 51
88.490848185
  0
LINE
  5
328
330
1F
100
AcDbEntity
  8
0
  6
Continuous
 62
     8
370
    25
100
AcDbLine
 10
134.6015928095
 20
170.6950923395
 30
0.0
 11
134.0422412992
 21
170.6177874972
 31
0.0
  0
ARC
  5
329
330
1F
100
AcDbEntity
  8
0
  6
Continuous
 62
     8
370
    25
100
AcDbCircle
 10
129.836467867
 20
158.7130902869
 30
0.0
 40
12.00198610613541
100
AcDbArc
 50
94.1556406256
 51
148.1278604985
  0
ARC
  5
32A
330
1F
100
AcDbEntity
  8
0
  6
Continuous
 62
     8
370
    25
100
AcDbCircle
 10
132.0307298254
 20
155.6950923395
 30
0.0
 40
15.79423749544211
100
AcDbArc
 50
71.7526233598
 51
87.4912479452
  0
ARC
  5
32B
330
1F
100
AcDbEntity
  8
0
  6
Continuous
 62
     8
370
    25
100
AcDbCircle
 10
132.0307298254
 20
155.6950923395
 30
0.0
 40
15.7942374954421
100
AcDbArc
 50
97.2439148137
 51
108.2473766402
  0
LWPOLYLINE
  5
32C
330
1F
100
AcDbEntity
  8
0
  6
Continuous
 62
     8
370
    25
100
AcDbPolyline
 90
        3
 70
   128
 43
0.0
 10
124.1307298254
 20
139.0261099693
 10
122.2556946153
 20
140.0517659701
 10
121.2945771972
 20
140.6950923395
  0
ARC
  5
32D
330
1F
100
AcDbEntity
  8
0
  6
Continuous
 62
     8
370
    25
100
AcDbCircle
 10
132.0307298254
 20
155.6950923395
 30
0.0
 40
18.44627261143965
100
AcDbArc
 50
54.407052935
 51
125.592947065
  0
LWPOLYLINE
  5
32E
330
1F
100
AcDbEntity
  8
0
  6
Continuous
 62
     8
370
    25
100
AcDbPolyline
 90
        3
 70
   128
 43
0.0
 10
142.7668824536
 20
140.6950923395
 10
141.8057650355
 20
140.0517659701
 10
139.9307298254
 20
139.0261099693
  0
ARC
  5
32F
330
1F
100
AcDbEntity
  8
0
  6
Continuous
 62
     8
370
    25
100
AcDbCircle
 10
132.0307298254
 20
155.6950923395
 30
0.0
 40
27.1874316137987
100
AcDbArc
 50
286.8924101234
 51
326.5145280392
  0
ARC
  5
330
330
1F
100
AcDbEntity
  8
0
  6
Continuous
 62
     8
370
    25
100
AcDbCircle
 10
132.0307298254
 20
155.6950923395
 30
0.0
 40
27.18743161379872
100
AcDbArc
 50
33.4854719608
 51
146.5145280392
  0
ARC
  5
331
330
1F
100
AcDbEntity
  8
0
  6
Continuous
 62
     8
370
    25
100
AcDbCircle
 10
132.0307298254
 20
155.6950923395
 30
0.0
 40
27.18743161379869
100
AcDbArc
 50
213.4854719608
 51
253.1075898766
  0
ARC
  5
332
330
1F
100
AcDbEntity
  8
0
  6
Continuous
 62
     8
370
    25
100
AcDbCircle
 10
132.0307298254
 20
155.6950923395
 30
0.0
 40
11.0599364905389
100
AcDbArc
 50
182.3675813795
 51
224.4149728023
  0
ARC
  5
333
330
1F
100
AcDbEntity
  8
0
  6
Continuous
 62
     8
370
    25
100
AcDbCircle
 10
132.0307298254
 20
155.6950923395
 30
0.0
 40
11.05993649053893
100
AcDbArc
 50
315.5850271977
 51
182.3675813795
  0
ARC
  5
334
330
1F
100
AcDbEntity
  8
0
  6
Continuous
 62
     8
370
    25
100
AcDbCircle
 10
132.0307298254
 20
155.6950923395
 30
0.0
 40
11.30993649053891
100
AcDbArc
 50
314.3068486059
 51
182.3675813795
  0
ARC
  5
335
330
1F
100
AcDbEntity
  8
0
  6
Continuous
 62
     8
370
    25
100
AcDbCircle
 10
132.0307298254
 20
155.6950923395
 30
0.0
 40
11.30993649053889
100
AcDbArc
 50
182.3675813795
 51
225.6931513941
  0
SPLINE
  5
336
330
1F
100
AcDbEntity
  8
0
  6
Continuous
 62
     8
370
    25
100
AcDbSpline
210
0.0
220
0.0
230
1.0
 70
     8
 71
     3
 72
     9
 73
     5
 74
     0
 42
0.00000001
 43
0.00000001
 40
0.0
 40
0.0
 40
0.0
 40
0.0
 40
0.5050734883508633
 40
1.0
 40
1.0
 40
1.0
 40
1.0
 10
122.4571627486711
 20
144.8480930719892
 30
0.0
 10
122.7321335586297
 20
144.6592943739439
 30
0.0
 10
123.2765509875794
 20
144.2854899625069
 30
0.0
 10
123.8479361568096
 20
143.9535530035091
 30
0.0
 10
124.1307298254247
 20
143.7892686023048
 30
0.0
  0
SPLINE
  5
337
330
1F
100
AcDbEntity
  8
0
  6
Continuous
 62
     8
370
    25
100
AcDbSpline
210
0.0
220
0.0
230
1.0
 70
     8
 71
     3
 72
     9
 73
     5
 74
     0
 42
0.00000001
 43
0.00000001
 40
0.0
 40
0.0
 40
0.0
 40
0.0
 40
0.0775288618466624
 40
1.0
 40
1.0
 40
1.0
 40
1.0
 10
140.0252090303403
 20
143.8856576339899
 30
0.0
 10
140.0915012999032
 20
143.9272588705709
 30
0.0
 10
140.9465669874928
 20
144.463849187907
 30
0.0
 10
141.7374635193247
 20
145.0940614553417
 30
0.0
 10
142.4670427432053
 20
145.6754140829604
 30
0.0
  0
ARC
  5
338
330
1F
100
AcDbEntity
  8
0
  6
Continuous
 62
     8
370
    25
100
AcDbCircle
 10
132.0307298254
 20
155.6950923395
 30
0.0
 40
9.374999999999973
100
AcDbArc
 50
119.4063269879
 51
212.5772063232
  0
ARC
  5
339
330
1F
100
AcDbEntity
  8
0
  6
Continuous
 62
     8
370
    25
100
AcDbCircle
 10
132.0307298254
 20
155.6950923395
 30
0.0
 40
9.374999999999973
100
AcDbArc
 50
327.4227936768
 51
119.4063269879
  0
ENDSEC
  0
SECTION
  2
OBJECTS
  0
DICTIONARY
  5
C
330
0
100
AcDbDictionary
281
     1
  3
ACAD_GROUP
350
D
  3
ACAD_LAYOUT
350
1A
  3
ACAD_MLINESTYLE
350
17
  3
ACAD_PLOTSETTINGS
350
19
  3
ACAD_PLOTSTYLENAME
350
E
  3
ACAD_SCALELIST
350
47
  3
DWGPROPS
350
33A
  0
DICTIONARY
  5
D
102
{ACAD_REACTORS
330
C
102
}
330
C
100
AcDbDictionary
281
     1
  0
DICTIONARY
  5
1A
102
{ACAD_REACTORS
330
C
102
}
330
C
100
AcDbDictionary
281
     1
  3
Layout1
350
1E
  3
Layout2
350
26
  3
Model
350
22
  0
DICTIONARY
  5
17
102
{ACAD_REACTORS
330
C
102
}
330
C
100
AcDbDictionary
281
     1
  3
Standard
350
18
  0
DICTIONARY
  5
19
102
{ACAD_REACTORS
330
C
102
}
330
C
100
AcDbDictionary
281
     1
  0
ACDBDICTIONARYWDFLT
  5
E
102
{ACAD_REACTORS
330
C
102
}
330
C
100
AcDbDictionary
281
     1
  3
Normal
350
F
100
AcDbDictionaryWithDefault
340
F
  0
DICTIONARY
  5
47
102
{ACAD_REACTORS
330
C
102
}
330
C
100
AcDbDictionary
281
     1
  3
A0
350
48
  3
A1
350
49
  3
A2
350
4A
  3
A3
350
4B
  3
A4
350
4C
  3
A5
350
4D
  3
A6
350
4E
  3
A7
350
4F
  3
A8
350
50
  3
A9
350
51
  3
B0
350
52
  3
B1
350
53
  3
B2
350
54
  3
B3
350
55
  3
B4
350
56
  3
B5
350
57
  3
B6
350
58
  3
B7
350
59
  3
B8
350
5A
  3
B9
350
5B
  3
C0
350
5C
  3
C1
350
5D
  3
C2
350
5E
  3
C3
350
5F
  3
C4
350
60
  3
C5
350
61
  3
C6
350
62
  3
C7
350
63
  3
C8
350
64
  3
C9
350
65
  3
D0
350
66
  3
D1
350
67
  3
D2
350
68
  0
XRECORD
  5
33A
102
{ACAD_REACTORS
330
C
102
}
330
C
100
AcDbXrecord
280
     1
  1
DWGPROPS COOKIE
  2

  3

  4

  6

  7

  8
DS-1
  9

300
=
301
=
302
=
303
=
304
=
305
=
306
=
307
=
308
=
309
=
 40
0.0
 41
2460383.504928461
 42
2460383.504929572
  1

 90
        0
  0
LAYOUT
  5
1E
102
{ACAD_REACTORS
330
1A
102
}
330
1A
100
AcDbPlotSettings
  1

  2
none_device
  4

  6

 40
0.0
 41
0.0
 42
0.0
 43
0.0
 44
0.0
 45
0.0
 46
0.0
 47
0.0
 48
0.0
 49
0.0
140
0.0
141
0.0
142
1.0
143
1.0
 70
   688
 72
     1
 73
     0
 74
     5
  7

 75
    16
147
1.0
148
0.0
149
0.0
100
AcDbLayout
  1
Layout1
 70
     1
 71
     1
 10
0.0
 20
0.0
 11
420.0
 21
297.0
 12
0.0
 22
0.0
 32
0.0
 14
1.0000000000E+20
 24
1.0000000000E+20
 34
1.0000000000E+20
 15
-1.0000000000E+20
 25
-1.0000000000E+20
 35
-1.0000000000E+20
146
0.0
 13
0.0
 23
0.0
 33
0.0
 16
1.0
 26
0.0
 36
0.0
 17
0.0
 27
1.0
 37
0.0
 76
     0
330
1B
  0
LAYOUT
  5
26
102
{ACAD_REACTORS
330
1A
102
}
330
1A
100
AcDbPlotSettings
  1

  2
none_device
  4

  6

 40
0.0
 41
0.0
 42
0.0
 43
0.0
 44
0.0
 45
0.0
 46
0.0
 47
0.0
 48
0.0
 49
0.0
140
0.0
141
0.0
142
1.0
143
1.0
 70
   688
 72
     1
 73
     0
 74
     5
  7

 75
    16
147
1.0
148
0.0
149
0.0
100
AcDbLayout
  1
Layout2
 70
     1
 71
     2
 10
0.0
 20
0.0
 11
0.0
 21
0.0
 12
0.0
 22
0.0
 32
0.0
 14
0.0
 24
0.0
 34
0.0
 15
0.0
 25
0.0
 35
0.0
146
0.0
 13
0.0
 23
0.0
 33
0.0
 16
1.0
 26
0.0
 36
0.0
 17
0.0
 27
1.0
 37
0.0
 76
     0
330
23
  0
LAYOUT
  5
22
102
{ACAD_REACTORS
330
1A
102
}
330
1A
100
AcDbPlotSettings
  1

  2
none_device
  4
Letter_(8.50_x_11.00_Inches)
  6

 40
6.35
 41
6.35
 42
6.35000508
 43
6.35000508
 44
215.9
 45
279.4
 46
0.0
 47
0.0
 48
0.0
 49
0.0
140
0.0
141
0.0
142
1.0
143
1.0
 70
  1712
 72
     1
 73
     0
 74
     0
  7

 75
     0
147
1.0
148
0.0
149
0.0
100
AcDbLayout
  1
Model
 70
     1
 71
     0
 10
0.0
 20
0.0
 11
279.4
 21
215.9
 12
0.0
 22
0.0
 32
0.0
 14
0.0
 24
0.0
 34
0.0
 15
279.4
 25
215.9
 35
0.0
146
0.0
 13
0.0
 23
0.0
 33
0.0
 16
1.0
 26
0.0
 36
0.0
 17
0.0
 27
1.0
 37
0.0
 76
     0
330
1F
331
29
  0
MLINESTYLE
  5
18
102
{ACAD_REACTORS
330
17
102
}
330
17
100
AcDbMlineStyle
  2
Standard
 70
     0
  3

 62
   256
 51
90.0
 52
90.0
 71
     2
 49
0.5
 62
   256
  6
BYLAYER
 49
-0.5
 62
   256
  6
BYLAYER
  0
ACDBPLACEHOLDER
  5
F
102
{ACAD_REACTORS
330
E
102
}
330
E
  0
SCALE
  5
48
102
{ACAD_REACTORS
330
47
102
}
330
47
100
AcDbScale
 70
     0
300
1:1
140
1.0
141
1.0
290
     1
  0
SCALE
  5
49
102
{ACAD_REACTORS
330
47
102
}
330
47
100
AcDbScale
 70
     0
300
1:2
140
1.0
141
2.0
290
     0
  0
SCALE
  5
4A
102
{ACAD_REACTORS
330
47
102
}
330
47
100
AcDbScale
 70
     0
300
1:4
140
1.0
141
4.0
290
     0
  0
SCALE
  5
4B
102
{ACAD_REACTORS
330
47
102
}
330
47
100
AcDbScale
 70
     0
300
1:5
140
1.0
141
5.0
290
     0
  0
SCALE
  5
4C
102
{ACAD_REACTORS
330
47
102
}
330
47
100
AcDbScale
 70
     0
300
1:8
140
1.0
141
8.0
290
     0
  0
SCALE
  5
4D
102
{ACAD_REACTORS
330
47
102
}
330
47
100
AcDbScale
 70
     0
300
1:10
140
1.0
141
10.0
290
     0
  0
SCALE
  5
4E
102
{ACAD_REACTORS
330
47
102
}
330
47
100
AcDbScale
 70
     0
300
1:16
140
1.0
141
16.0
290
     0
  0
SCALE
  5
4F
102
{ACAD_REACTORS
330
47
102
}
330
47
100
AcDbScale
 70
     0
300
1:20
140
1.0
141
20.0
290
     0
  0
SCALE
  5
50
102
{ACAD_REACTORS
330
47
102
}
330
47
100
AcDbScale
 70
     0
300
1:30
140
1.0
141
30.0
290
     0
  0
SCALE
  5
51
102
{ACAD_REACTORS
330
47
102
}
330
47
100
AcDbScale
 70
     0
300
1:40
140
1.0
141
40.0
290
     0
  0
SCALE
  5
52
102
{ACAD_REACTORS
330
47
102
}
330
47
100
AcDbScale
 70
     0
300
1:50
140
1.0
141
50.0
290
     0
  0
SCALE
  5
53
102
{ACAD_REACTORS
330
47
102
}
330
47
100
AcDbScale
 70
     0
300
1:100
140
1.0
141
100.0
290
     0
  0
SCALE
  5
54
102
{ACAD_REACTORS
330
47
102
}
330
47
100
AcDbScale
 70
     0
300
2:1
140
2.0
141
1.0
290
     0
  0
SCALE
  5
55
102
{ACAD_REACTORS
330
47
102
}
330
47
100
AcDbScale
 70
     0
300
4:1
140
4.0
141
1.0
290
     0
  0
SCALE
  5
56
102
{ACAD_REACTORS
330
47
102
}
330
47
100
AcDbScale
 70
     0
300
8:1
140
8.0
141
1.0
290
     0
  0
SCALE
  5
57
102
{ACAD_REACTORS
330
47
102
}
330
47
100
AcDbScale
 70
     0
300
10:1
140
10.0
141
1.0
290
     0
  0
SCALE
  5
58
102
{ACAD_REACTORS
330
47
102
}
330
47
100
AcDbScale
 70
     0
300
100:1
140
100.0
141
1.0
290
     0
  0
SCALE
  5
59
102
{ACAD_REACTORS
330
47
102
}
330
47
100
AcDbScale
 70
     0
300
1/128" = 1'-0"
140
0.0078125
141
12.0
290
     0
  0
SCALE
  5
5A
102
{ACAD_REACTORS
330
47
102
}
330
47
100
AcDbScale
 70
     0
300
1/64" = 1'-0"
140
0.015625
141
12.0
290
     0
  0
SCALE
  5
5B
102
{ACAD_REACTORS
330
47
102
}
330
47
100
AcDbScale
 70
     0
300
1/32" = 1'-0"
140
0.03125
141
12.0
290
     0
  0
SCALE
  5
5C
102
{ACAD_REACTORS
330
47
102
}
330
47
100
AcDbScale
 70
     0
300
1/16" = 1'-0"
140
0.0625
141
12.0
290
     0
  0
SCALE
  5
5D
102
{ACAD_REACTORS
330
47
102
}
330
47
100
AcDbScale
 70
     0
300
3/32" = 1'-0"
140
0.09375
141
12.0
290
     0
  0
SCALE
  5
5E
102
{ACAD_REACTORS
330
47
102
}
330
47
100
AcDbScale
 70
     0
300
1/8" = 1'-0"
140
0.125
141
12.0
290
     0
  0
SCALE
  5
5F
102
{ACAD_REACTORS
330
47
102
}
330
47
100
AcDbScale
 70
     0
300
3/16" = 1'-0"
140
0.1875
141
12.0
290
     0
  0
SCALE
  5
60
102
{ACAD_REACTORS
330
47
102
}
330
47
100
AcDbScale
 70
     0
300
1/4" = 1'-0"
140
0.25
141
12.0
290
     0
  0
SCALE
  5
61
102
{ACAD_REACTORS
330
47
102
}
330
47
100
AcDbScale
 70
     0
300
3/8" = 1'-0"
140
0.375
141
12.0
290
     0
  0
SCALE
  5
62
102
{ACAD_REACTORS
330
47
102
}
330
47
100
AcDbScale
 70
     0
300
1/2" = 1'-0"
140
0.5
141
12.0
290
     0
  0
SCALE
  5
63
102
{ACAD_REACTORS
330
47
102
}
330
47
100
AcDbScale
 70
     0
300
3/4" = 1'-0"
140
0.75
141
12.0
290
     0
  0
SCALE
  5
64
102
{ACAD_REACTORS
330
47
102
}
330
47
100
AcDbScale
 70
     0
300
1" = 1'-0"
140
1.0
141
12.0
290
     0
  0
SCALE
  5
65
102
{ACAD_REACTORS
330
47
102
}
330
47
100
AcDbScale
 70
     0
300
1-1/2" = 1'-0"
140
1.5
141
12.0
290
     0
  0
SCALE
  5
66
102
{ACAD_REACTORS
330
47
102
}
330
47
100
AcDbScale
 70
     0
300
3" = 1'-0"
140
3.0
141
12.0
290
     0
  0
SCALE
  5
67
102
{ACAD_REACTORS
330
47
102
}
330
47
100
AcDbScale
 70
     0
300
6" = 1'-0"
140
6.0
141
12.0
290
     0
  0
SCALE
  5
68
102
{ACAD_REACTORS
330
47
102
}
330
47
100
AcDbScale
 70
     0
300
1'-0" = 1'-0"
140
12.0
141
12.0
290
     0
  0
ENDSEC
  0
EOF
