  0
SECTION
  2
HEADER
  9
$ACADVER
  1
AC1015
  9
$ACADMAINTVER
 70
     6
  9
$DWGCODEPAGE
  3
ANSI_1252
  9
$INSBASE
 10
0.0
 20
0.0
 30
0.0
  9
$EXTMIN
 10
0.0
 20
0.0
 30
0.0
  9
$EXTMAX
 10
279.4
 20
215.9
 30
0.0
  9
$LIMMIN
 10
0.0
 20
0.0
  9
$LIMMAX
 10
279.4
 20
215.9
  9
$ORTHOMODE
 70
     0
  9
$REGENMODE
 70
     1
  9
$FILLMODE
 70
     1
  9
$QTEXTMODE
 70
     0
  9
$MIRRTEXT
 70
     1
  9
$LTSCALE
 40
1.0
  9
$ATTMODE
 70
     1
  9
$TEXTSIZE
 40
3.5
  9
$TRACEWID
 40
1.0
  9
$TEXTSTYLE
  7
Standard
  9
$CLAYER
  8
0
  9
$CELTYPE
  6
ByLayer
  9
$CECOLOR
 62
   256
  9
$CELTSCALE
 40
1.0
  9
$DISPSILH
 70
     0
  9
$DIMSCALE
 40
1.0
  9
$DIMASZ
 40
3.556
  9
$DIMEXO
 40
1.0
  9
$DIMDLI
 40
3.75
  9
$DIMRND
 40
0.0
  9
$DIMDLE
 40
0.0
  9
$DIMEXE
 40
1.0
  9
$DIMTP
 40
0.0
  9
$DIMTM
 40
0.0
  9
$DIMTXT
 40
3.5
  9
$DIMCEN
 40
2.5
  9
$DIMTSZ
 40
0.0
  9
$DIMTOL
 70
     0
  9
$DIMLIM
 70
     0
  9
$DIMTIH
 70
     1
  9
$DIMTOH
 70
     1
  9
$DIMSE1
 70
     0
  9
$DIMSE2
 70
     0
  9
$DIMTAD
 70
     1
  9
$DIMZIN
 70
     1
  9
$DIMBLK
  1

  9
$DIMASO
 70
     1
  9
$DIMSHO
 70
     1
  9
$DIMPOST
  1

  9
$DIMAPOST
  1

  9
$DIMALT
 70
     0
  9
$DIMALTD
 70
     3
  9
$DIMALTF
 40
0.0393700787
  9
$DIMLFAC
 40
10.0
  9
$DIMTOFL
 70
     1
  9
$DIMTVP
 40
0.0
  9
$DIMTIX
 70
     0
  9
$DIMSOXD
 70
     0
  9
$DIMSAH
 70
     0
  9
$DIMBLK1
  1

  9
$DIMBLK2
  1

  9
$DIMSTYLE
  2
ISO-25
  9
$DIMCLRD
 70
     0
  9
$DIMCLRE
 70
     0
  9
$DIMCLRT
 70
     0
  9
$DIMTFAC
 40
1.0
  9
$DIMGAP
 40
1.524
  9
$DIMJUST
 70
     0
  9
$DIMSD1
 70
     0
  9
$DIMSD2
 70
     0
  9
$DIMTOLJ
 70
     0
  9
$DIMTZIN
 70
     1
  9
$DIMALTZ
 70
     0
  9
$DIMALTTZ
 70
     0
  9
$DIMUPT
 70
     0
  9
$DIMDEC
 70
     2
  9
$DIMTDEC
 70
     2
  9
$DIMALTU
 70
     2
  9
$DIMALTTD
 70
     3
  9
$DIMTXSTY
  7
Standard
  9
$DIMAUNIT
 70
     0
  9
$DIMADEC
 70
     2
  9
$DIMALTRND
 40
0.0
  9
$DIMAZIN
 70
     0
  9
$DIMDSEP
 70
    44
  9
$DIMATFIT
 70
     3
  9
$DIMFRAC
 70
     0
  9
$DIMLDRBLK
  1

  9
$DIMLUNIT
 70
     2
  9
$DIMLWD
 70
    -2
  9
$DIMLWE
 70
    -2
  9
$DIMTMOVE
 70
     0
  9
$LUNITS
 70
     2
  9
$LUPREC
 70
     2
  9
$SKETCHINC
 40
1.0
  9
$FILLETRAD
 40
10.0
  9
$AUNITS
 70
     0
  9
$AUPREC
 70
     2
  9
$MENU
  1
.
  9
$ELEVATION
 40
0.0
  9
$PELEVATION
 40
0.0
  9
$THICKNESS
 40
0.0
  9
$LIMCHECK
 70
     0
  9
$CHAMFERA
 40
0.0
  9
$CHAMFERB
 40
0.0
  9
$CHAMFERC
 40
0.0
  9
$CHAMFERD
 40
0.0
  9
$SKPOLY
 70
     0
  9
$TDCREATE
 40
2460383.710591123
  9
$TDUCREATE
 40
2460383.481424456
  9
$TDUPDATE
 40
2460383.71059147
  9
$TDUUPDATE
 40
2460383.481424803
  9
$TDINDWG
 40
0.0000000116
  9
$TDUSRTIMER
 40
0.0000000116
  9
$USRTIMER
 70
     1
  9
$ANGBASE
 50
0.0
  9
$ANGDIR
 70
     0
  9
$PDMODE
 70
     0
  9
$PDSIZE
 40
-1.0
  9
$PLINEWID
 40
0.0
  9
$SPLFRAME
 70
     0
  9
$SPLINETYPE
 70
     6
  9
$SPLINESEGS
 70
     8
  9
$HANDSEED
  5
3BD
  9
$SURFTAB1
 70
     6
  9
$SURFTAB2
 70
     6
  9
$SURFTYPE
 70
     6
  9
$SURFU
 70
     6
  9
$SURFV
 70
     6
  9
$UCSBASE
  2

  9
$UCSNAME
  2

  9
$UCSORG
 10
0.0
 20
0.0
 30
0.0
  9
$UCSXDIR
 10
1.0
 20
0.0
 30
0.0
  9
$UCSYDIR
 10
0.0
 20
1.0
 30
0.0
  9
$UCSORTHOREF
  2

  9
$UCSORTHOVIEW
 70
     0
  9
$UCSORGTOP
 10
0.0
 20
0.0
 30
0.0
  9
$UCSORGBOTTOM
 10
0.0
 20
0.0
 30
0.0
  9
$UCSORGLEFT
 10
0.0
 20
0.0
 30
0.0
  9
$UCSORGRIGHT
 10
0.0
 20
0.0
 30
0.0
  9
$UCSORGFRONT
 10
0.0
 20
0.0
 30
0.0
  9
$UCSORGBACK
 10
0.0
 20
0.0
 30
0.0
  9
$PUCSBASE
  2

  9
$PUCSNAME
  2

  9
$PUCSORG
 10
0.0
 20
0.0
 30
0.0
  9
$PUCSXDIR
 10
1.0
 20
0.0
 30
0.0
  9
$PUCSYDIR
 10
0.0
 20
1.0
 30
0.0
  9
$PUCSORTHOREF
  2

  9
$PUCSORTHOVIEW
 70
     0
  9
$PUCSORGTOP
 10
0.0
 20
0.0
 30
0.0
  9
$PUCSORGBOTTOM
 10
0.0
 20
0.0
 30
0.0
  9
$PUCSORGLEFT
 10
0.0
 20
0.0
 30
0.0
  9
$PUCSORGRIGHT
 10
0.0
 20
0.0
 30
0.0
  9
$PUCSORGFRONT
 10
0.0
 20
0.0
 30
0.0
  9
$PUCSORGBACK
 10
0.0
 20
0.0
 30
0.0
  9
$USERI1
 70
     0
  9
$USERI2
 70
     0
  9
$USERI3
 70
     0
  9
$USERI4
 70
     0
  9
$USERI5
 70
     0
  9
$USERR1
 40
0.0
  9
$USERR2
 40
0.0
  9
$USERR3
 40
0.0
  9
$USERR4
 40
0.0
  9
$USERR5
 40
0.0
  9
$WORLDVIEW
 70
     1
  9
$SHADEDGE
 70
     3
  9
$SHADEDIF
 70
    70
  9
$TILEMODE
 70
     1
  9
$MAXACTVP
 70
    64
  9
$PINSBASE
 10
0.0
 20
0.0
 30
0.0
  9
$PLIMCHECK
 70
     0
  9
$PEXTMIN
 10
1.0000000000E+20
 20
1.0000000000E+20
 30
1.0000000000E+20
  9
$PEXTMAX
 10
-1.0000000000E+20
 20
-1.0000000000E+20
 30
-1.0000000000E+20
  9
$PLIMMIN
 10
0.0
 20
0.0
  9
$PLIMMAX
 10
420.0
 20
297.0
  9
$UNITMODE
 70
     0
  9
$VISRETAIN
 70
     1
  9
$PLINEGEN
 70
     0
  9
$PSLTSCALE
 70
     1
  9
$TREEDEPTH
 70
  3020
  9
$CMLSTYLE
  2
Standard
  9
$CMLJUST
 70
     0
  9
$CMLSCALE
 40
20.0
  9
$PROXYGRAPHICS
 70
     1
  9
$MEASUREMENT
 70
     1
  9
$CELWEIGHT
370
    -1
  9
$ENDCAPS
280
     0
  9
$JOINSTYLE
280
     0
  9
$LWDISPLAY
290
     1
  9
$INSUNITS
 70
     4
  9
$HYPERLINKBASE
  1

  9
$STYLESHEET
  1

  9
$XEDIT
290
     1
  9
$CEPSNTYPE
380
     0
  9
$PSTYLEMODE
290
     1
  9
$FINGERPRINTGUID
  2
{369a5cd9-0a20-4848-96ab-3746aac11208}
  9
$VERSIONGUID
  2
{FAEB1C32-E019-11D5-929B-00C0DF256EC4}
  9
$EXTNAMES
290
     1
  9
$PSVPSCALE
 40
0.0
  9
$OLESTARTUP
290
     0
  0
ENDSEC
  0
SECTION
  2
CLASSES
  0
CLASS
  1
ACDBDICTIONARYWDFLT
  2
AcDbDictionaryWithDefault
  3
ObjectDBX Classes
 90
        0
280
     0
281
     0
  0
CLASS
  1
VISUALSTYLE
  2
AcDbVisualStyle
  3
ObjectDBX Classes
 90
     4095
280
     0
281
     0
  0
CLASS
  1
MATERIAL
  2
AcDbMaterial
  3
ObjectDBX Classes
 90
     1153
280
     0
281
     0
  0
CLASS
  1
SCALE
  2
AcDbScale
  3
ObjectDBX Classes
 90
     1153
280
     0
281
     0
  0
CLASS
  1
TABLESTYLE
  2
AcDbTableStyle
  3
ObjectDBX Classes
 90
     4095
280
     0
281
     0
  0
CLASS
  1
MLEADERSTYLE
  2
AcDbMLeaderStyle
  3
ACDB_MLEADERSTYLE_CLASS
 90
     4095
280
     0
281
     0
  0
CLASS
  1
SUN
  2
AcDbSun
  3
SCENEOE
 90
     1153
280
     0
281
     0
  0
CLASS
  1
ACDBPLACEHOLDER
  2
AcDbPlaceHolder
  3
ObjectDBX Classes
 90
        0
280
     0
281
     0
  0
CLASS
  1
LAYOUT
  2
AcDbLayout
  3
ObjectDBX Classes
 90
        0
280
     0
281
     0
  0
ENDSEC
  0
SECTION
  2
TABLES
  0
TABLE
  2
VPORT
  5
8
330
0
100
AcDbSymbolTable
 70
     1
  0
VPORT
  5
29
330
8
100
AcDbSymbolTableRecord
100
AcDbViewportTableRecord
  2
*Active
 70
     0
 10
0.0
 20
0.0
 11
1.0
 21
1.0
 12
139.7
 22
107.95
 13
0.0
 23
0.0
 14
10.0
 24
10.0
 15
10.0
 25
10.0
 16
0.0
 26
0.0
 36
1.0
 17
0.0
 27
0.0
 37
0.0
 40
215.9
 41
1.2941176471
 42
50.0
 43
0.0
 44
0.0
 50
0.0
 51
0.0
 71
     0
 72
  2000
 73
     1
 74
     3
 75
     0
 76
     0
 77
     0
 78
     0
281
     0
 65
     1
110
0.0
120
0.0
130
0.0
111
1.0
121
0.0
131
0.0
112
0.0
122
1.0
132
0.0
 79
     0
146
0.0
  0
ENDTAB
  0
TABLE
  2
LTYPE
  5
5
330
0
100
AcDbSymbolTable
 70
     6
  0
LTYPE
  5
14
330
5
100
AcDbSymbolTableRecord
100
AcDbLinetypeTableRecord
  2
ByBlock
 70
     0
  3

 72
    65
 73
     0
 40
0.0
  0
LTYPE
  5
15
330
5
100
AcDbSymbolTableRecord
100
AcDbLinetypeTableRecord
  2
ByLayer
 70
     0
  3

 72
    65
 73
     0
 40
0.0
  0
LTYPE
  5
16
330
5
100
AcDbSymbolTableRecord
100
AcDbLinetypeTableRecord
  2
Continuous
 70
     0
  3
Solid line
 72
    65
 73
     0
 40
0.0
  0
LTYPE
  5
6E
330
5
100
AcDbSymbolTableRecord
100
AcDbLinetypeTableRecord
  2
HIDDEN
 70
     0
  3
Hidden __ __ __ __ __ __ __ __ __ __ __ __ __ __
 72
    65
 73
     2
 40
1.905
 49
1.27
 74
     0
 49
-0.635
 74
     0
  0
LTYPE
  5
6F
330
5
100
AcDbSymbolTableRecord
100
AcDbLinetypeTableRecord
  2
PHANTOM
 70
     0
  3
Phantom ______  __  __  ______  __  __  ______
 72
    65
 73
     6
 40
12.7
 49
6.35
 74
     0
 49
-1.27
 74
     0
 49
1.27
 74
     0
 49
-1.27
 74
     0
 49
1.27
 74
     0
 49
-1.27
 74
     0
  0
LTYPE
  5
70
330
5
100
AcDbSymbolTableRecord
100
AcDbLinetypeTableRecord
  2
CENTER
 70
     0
  3
Center ____ _ ____ _ ____ _ ____ _ ____ _ ____
 72
    65
 73
     4
 40
10.16
 49
6.35
 74
     0
 49
-1.27
 74
     0
 49
1.27
 74
     0
 49
-1.27
 74
     0
  0
LTYPE
  5
71
330
5
100
AcDbSymbolTableRecord
100
AcDbLinetypeTableRecord
  2
CENTERX2
 70
     0
  3
Center (2x) ________  __  ________  __  _____
 72
    65
 73
     4
 40
20.32
 49
12.7
 74
     0
 49
-2.54
 74
     0
 49
2.54
 74
     0
 49
-2.54
 74
     0
  0
LTYPE
  5
72
330
5
100
AcDbSymbolTableRecord
100
AcDbLinetypeTableRecord
  2
DOT2
 70
     0
  3
Dot (.5x) ........................................
 72
    65
 73
     2
 40
0.635
 49
0.0
 74
     0
 49
-0.635
 74
     0
  0
ENDTAB
  0
TABLE
  2
LAYER
  5
2
330
0
100
AcDbSymbolTable
 70
     1
  0
LAYER
  5
10
330
2
100
AcDbSymbolTableRecord
100
AcDbLayerTableRecord
  2
0
 70
     0
 62
     7
  6
Continuous
370
    -3
390
F
  0
ENDTAB
  0
TABLE
  2
STYLE
  5
3
330
0
100
AcDbSymbolTable
 70
     1
  0
STYLE
  5
11
330
3
100
AcDbSymbolTableRecord
100
AcDbTextStyleTableRecord
  2
Standard
 70
     0
 40
0.0
 41
1.0
 50
0.0
 71
     0
 42
3.5
  3
txt
  4

  0
ENDTAB
  0
TABLE
  2
VIEW
  5
6
330
0
100
AcDbSymbolTable
 70
     0
  0
ENDTAB
  0
TABLE
  2
UCS
  5
7
330
0
100
AcDbSymbolTable
 70
     0
  0
ENDTAB
  0
TABLE
  2
APPID
  5
9
330
0
100
AcDbSymbolTable
 70
     1
  0
APPID
  5
12
330
9
100
AcDbSymbolTableRecord
100
AcDbRegAppTableRecord
  2
ACAD
 70
     0
  0
ENDTAB
  0
TABLE
  2
DIMSTYLE
  5
A
330
0
100
AcDbSymbolTable
 70
     1
100
AcDbDimStyleTable
  0
DIMSTYLE
105
27
330
A
100
AcDbSymbolTableRecord
100
AcDbDimStyleTableRecord
  2
ISO-25
 70
     0
 41
2.5
 42
0.625
 43
3.75
 44
1.25
 73
     0
 74
     0
 77
     1
 78
     8
140
2.5
141
2.5
143
0.0393700787
147
0.625
171
     3
172
     1
178
     0
271
     2
272
     2
274
     3
278
    44
283
     0
284
     8
340
11
  0
ENDTAB
  0
TABLE
  2
BLOCK_RECORD
  5
1
330
0
100
AcDbSymbolTable
 70
     1
  0
BLOCK_RECORD
  5
1F
330
1
100
AcDbSymbolTableRecord
100
AcDbBlockTableRecord
  2
*Model_Space
340
22
  0
BLOCK_RECORD
  5
1B
330
1
100
AcDbSymbolTableRecord
100
AcDbBlockTableRecord
  2
*Paper_Space
340
1E
  0
BLOCK_RECORD
  5
23
330
1
100
AcDbSymbolTableRecord
100
AcDbBlockTableRecord
  2
*Paper_Space0
340
26
  0
ENDTAB
  0
ENDSEC
  0
SECTION
  2
BLOCKS
  0
BLOCK
  5
20
330
1F
100
AcDbEntity
  8
0
100
AcDbBlockBegin
  2
*Model_Space
 70
     0
 10
0.0
 20
0.0
 30
0.0
  3
*Model_Space
  1

  0
ENDBLK
  5
21
330
1F
100
AcDbEntity
  8
0
100
AcDbBlockEnd
  0
BLOCK
  5
1C
330
1B
100
AcDbEntity
 67
     1
  8
0
100
AcDbBlockBegin
  2
*Paper_Space
 70
     0
 10
0.0
 20
0.0
 30
0.0
  3
*Paper_Space
  1

  0
ENDBLK
  5
1D
330
1B
100
AcDbEntity
 67
     1
  8
0
100
AcDbBlockEnd
  0
BLOCK
  5
24
330
23
100
AcDbEntity
  8
0
100
AcDbBlockBegin
  2
*Paper_Space0
 70
     0
 10
0.0
 20
0.0
 30
0.0
  3
*Paper_Space0
  1

  0
ENDBLK
  5
25
330
23
100
AcDbEntity
  8
0
100
AcDbBlockEnd
  0
ENDSEC
  0
SECTION
  2
ENTITIES
  0
LINE
  5
73
330
1F
100
AcDbEntity
  8
0
  6
Continuous
 62
     7
370
    25
100
AcDbLine
 10
58.8322327504
 20
-19.4094569187
 30
0.0
 11
58.8322327504
 21
193.4119762643
 31
0.0
  0
LINE
  5
74
330
1F
100
AcDbEntity
  8
0
  6
Continuous
 62
     7
370
    25
100
AcDbLine
 10
43.0322327504
 20
193.4119762643
 30
0.0
 11
43.0322327504
 21
-19.4094569187
 31
0.0
  0
LINE
  5
75
330
1F
100
AcDbEntity
  8
0
  6
Continuous
 62
     7
370
    25
100
AcDbLine
 10
43.0322327504
 20
-19.4094569187
 30
0.0
 11
43.0322327504
 21
-19.5563136004
 31
0.0
  0
LINE
  5
76
330
1F
100
AcDbEntity
  8
0
  6
Continuous
 62
     7
370
    25
100
AcDbLine
 10
58.8322327504
 20
-19.5563136004
 30
0.0
 11
58.8322327504
 21
-19.4094569187
 31
0.0
  0
LINE
  5
77
330
1F
100
AcDbEntity
  8
0
  6
Continuous
 62
     7
370
    25
100
AcDbLine
 10
62.4822327504
 20
-21.9113876277
 30
0.0
 11
62.4822327504
 21
-19.9939465119
 31
0.0
  0
LINE
  5
78
330
1F
100
AcDbEntity
  8
0
  6
Continuous
 62
     7
370
    25
100
AcDbLine
 10
39.3822327504
 20
-19.9939465119
 30
0.0
 11
39.3822327504
 21
-21.9113876277
 31
0.0
  0
LINE
  5
79
330
1F
100
AcDbEntity
  8
0
  6
Continuous
 62
     7
370
    25
100
AcDbLine
 10
47.2089762582
 20
-32.7262736031
 30
0.0
 11
47.3862741864
 21
-32.7859958054
 31
0.0
  0
LINE
  5
7A
330
1F
100
AcDbEntity
  8
0
  6
Continuous
 62
     7
370
    25
100
AcDbLine
 10
54.4781913143
 20
-32.7859958054
 30
0.0
 11
54.6554892425
 21
-32.7262736031
 31
0.0
  0
SPLINE
  5
7B
330
1F
100
AcDbEntity
  8
0
  6
Continuous
 62
     7
370
    25
100
AcDbSpline
210
0.0
220
0.0
230
1.0
 70
     8
 71
     3
 72
    17
 73
    13
 74
     0
 42
0.00000001
 43
0.00000001
 40
0.0
 40
0.0
 40
0.0
 40
0.0
 40
0.1727939157605083
 40
0.4670908646424488
 40
0.5836036464445745
 40
0.6237329378319808
 40
0.6617158152047125
 40
0.7176264960717696
 40
0.7837734229449291
 40
0.8640117675634424
 40
0.9541263261861176
 40
1.0
 40
1.0
 40
1.0
 40
1.0
 10
209.7068784352391
 20
188.2121900629097
 30
0.0
 10
209.790825517822
 20
188.2153494567809
 30
0.0
 10
210.017748527323
 20
188.2238898270165
 30
0.0
 10
210.1968155250718
 20
188.2346556609625
 30
0.0
 10
210.2790703559147
 20
188.2418142696806
 30
0.0
 10
210.3412873284894
 20
188.25226285259
 30
0.0
 10
210.410568803784
 20
188.2705673609052
 30
0.0
 10
210.505184176113
 20
188.3135101533089
 30
0.0
 10
210.6102590594447
 20
188.3961412297899
 30
0.0
 10
210.6993312305725
 20
188.5248590038088
 30
0.0
 10
210.7472611964498
 20
188.6651167653756
 30
0.0
 10
210.7351925207833
 20
188.7543102935035
 30
0.0
 10
210.7311213266735
 20
188.7843984470322
 30
0.0
  0
SPLINE
  5
7C
330
1F
100
AcDbEntity
  8
0
  6
Continuous
 62
     7
370
    25
100
AcDbSpline
210
0.0
220
0.0
230
1.0
 70
     8
 71
     3
 72
    10
 73
     6
 74
     0
 42
0.00000001
 43
0.00000001
 40
0.0
 40
0.0
 40
0.0
 40
0.0
 40
0.2705197672746665
 40
0.6900585277323403
 40
1.0
 40
1.0
 40
1.0
 40
1.0
 10
210.9159033237926
 20
194.2843178034106
 30
0.0
 10
210.9158567523759
 20
194.3168439096363
 30
0.0
 10
210.91573795513
 20
194.3998135099763
 30
0.0
 10
210.8630750540221
 20
194.5125019783701
 30
0.0
 10
210.8058620801666
 20
194.5776101309774
 30
0.0
 10
210.7815534388162
 20
194.6052732749125
 30
0.0
  0
LINE
  5
7D
330
1F
100
AcDbEntity
  8
0
  6
Continuous
 62
     7
370
    25
100
AcDbLine
 10
209.9290074035
 20
194.8219327509
 30
0.0
 11
206.4557858117
 21
195.180959103
 31
0.0
  0
LINE
  5
7E
330
1F
100
AcDbEntity
  8
0
  6
Continuous
 62
     7
370
    25
100
AcDbLine
 10
206.2173893198
 20
188.0871546267
 30
0.0
 11
209.7068784352
 21
188.2121900629
 31
0.0
  0
ARC
  5
7F
330
1F
100
AcDbEntity
  8
0
  6
Continuous
 62
     7
370
    25
100
AcDbCircle
 10
153.4322327504
 20
193.4119762643
 30
0.0
 40
9.141196303513956
100
AcDbArc
 50
113.5749460385
 51
178.0752254675
  0
ARC
  5
80
330
1F
100
AcDbEntity
  8
0
  6
Continuous
 62
     7
370
    25
100
AcDbCircle
 10
153.4322327504
 20
193.4119762643
 30
0.0
 40
9.141196303513956
100
AcDbArc
 50
178.0752254675
 51
242.5957046265
  0
SPLINE
  5
81
330
1F
100
AcDbEntity
  8
0
  6
Continuous
 62
     7
370
    25
100
AcDbSpline
210
0.0
220
0.0
230
1.0
 70
     8
 71
     3
 72
    10
 73
     6
 74
     0
 42
0.00000001
 43
0.00000001
 40
0.0
 40
0.0
 40
0.0
 40
0.0
 40
0.2705197672747571
 40
0.6900585277324421
 40
1.0
 40
1.0
 40
1.0
 40
1.0
 10
-109.0241446556468
 20
191.4376263125275
 30
0.0
 10
-109.0234744503148
 20
191.4051070785281
 30
0.0
 10
-109.0217648491671
 20
191.3221550082866
 30
0.0
 10
-108.9669509857351
 20
191.2104969927316
 30
0.0
 10
-108.9085001718321
 20
191.1464977875228
 30
0.0
 10
-108.8836655971533
 20
191.1193058130228
 30
0.0
  0
SPLINE
  5
82
330
1F
100
AcDbEntity
  8
0
  6
Continuous
 62
     7
370
    25
100
AcDbSpline
210
0.0
220
0.0
230
1.0
 70
     8
 71
     3
 72
    17
 73
    13
 74
     0
 42
0.00000001
 43
0.00000001
 40
0.0
 40
0.0
 40
0.0
 40
0.0
 40
0.1727939157605175
 40
0.4670908646424378
 40
0.5836036464445505
 40
0.6237329378319652
 40
0.6617158152046904
 40
0.7176264960717739
 40
0.7837734229448736
 40
0.8640117675634408
 40
0.954126326186078
 40
1.0
 40
1.0
 40
1.0
 40
1.0
 10
-107.9317665571847
 20
197.5318191686901
 30
0.0
 10
-108.0156376308012
 20
197.5270507880194
 30
0.0
 10
-108.242355175349
 20
197.5141610572629
 30
0.0
 10
-108.4211828353849
 20
197.4999638438223
 30
0.0
 10
-108.5032852890116
 20
197.4912294300357
 30
0.0
 10
-108.5652904872948
 20
197.4795898446885
 30
0.0
 10
-108.6342082632746
 20
197.4599603261595
 30
0.0
 10
-108.727982874602
 20
197.4152113108553
 30
0.0
 10
-108.8314541069642
 20
197.3305807609271
 30
0.0
 10
-108.9180419211061
 20
197.2001788151598
 30
0.0
 10
-108.9632738301037
 20
197.0590278473379
 30
0.0
 10
-108.9494972121974
 20
196.9700821156171
 30
0.0
 10
-108.9448498683444
 20
196.9400775526414
 30
0.0
  0
LINE
  5
83
330
1F
100
AcDbEntity
  8
0
  6
Continuous
 62
     7
370
    25
100
AcDbLine
 10
-104.4453162948
 20
197.7237376802
 30
0.0
 11
-107.9317665572
 21
197.5318191687
 31
0.0
  0
LINE
  5
84
330
1F
100
AcDbEntity
  8
0
  6
Continuous
 62
     7
370
    25
100
AcDbLine
 10
-108.027122144
 20
190.9190325403
 30
0.0
 11
-104.5476552088
 21
190.6266663418
 31
0.0
  0
ARC
  5
85
330
1F
100
AcDbEntity
  8
0
  6
Continuous
 62
     7
370
    25
100
AcDbCircle
 10
-51.5677672496
 20
193.4119762643
 30
0.0
 40
9.141196303513926
100
AcDbArc
 50
294.6735795881
 51
359.173859017
  0
ARC
  5
86
330
1F
100
AcDbEntity
  8
0
  6
Continuous
 62
     7
370
    25
100
AcDbCircle
 10
-51.5677672496
 20
193.4119762643
 30
0.0
 40
9.141196303513926
100
AcDbArc
 50
359.173859017
 51
63.694338176
  0
LINE
  5
87
330
1F
100
AcDbEntity
  8
0
  6
Continuous
 62
     7
370
    25
100
AcDbLine
 10
-69.0182767591
 20
211.3488729702
 30
0.0
 11
-68.8677672496
 21
211.2619762643
 31
0.0
  0
LINE
  5
88
330
1F
100
AcDbEntity
  8
0
  6
Continuous
 62
     7
370
    25
100
AcDbLine
 10
-34.2677672496
 20
211.2619762643
 30
0.0
 11
-34.1172577402
 21
211.3488729702
 31
0.0
  0
ARC
  5
89
330
1F
100
AcDbEntity
  8
0
  6
Continuous
 62
     7
370
    25
100
AcDbCircle
 10
-76.8677672496
 20
250.8619762643
 30
0.0
 40
0.5
100
AcDbArc
 50
90.0
 51
180.0
  0
ARC
  5
8A
330
1F
100
AcDbEntity
  8
0
  6
Continuous
 62
     7
370
    25
100
AcDbCircle
 10
-26.2677672496
 20
250.8619762643
 30
0.0
 40
0.5000000000000568
100
AcDbArc
 50
0.0
 51
90.0
  0
ARC
  5
8B
330
1F
100
AcDbEntity
  8
0
  6
Continuous
 62
     7
370
    25
100
AcDbCircle
 10
-26.7677672496
 20
248.3619762643
 30
0.0
 40
1.0
100
AcDbArc
 50
270.0
 51
0.0
  0
ARC
  5
8C
330
1F
100
AcDbEntity
  8
0
  6
Continuous
 62
     7
370
    25
100
AcDbCircle
 10
-76.3677672496
 20
248.3619762643
 30
0.0
 40
1.0
100
AcDbArc
 50
180.0
 51
270.0
  0
LINE
  5
8D
330
1F
100
AcDbEntity
  8
0
  6
Continuous
 62
     7
370
    25
100
AcDbLine
 10
-77.3677672496
 20
250.8619762643
 30
0.0
 11
-77.3677672496
 21
248.3619762643
 31
0.0
  0
LINE
  5
8E
330
1F
100
AcDbEntity
  8
0
  6
Continuous
 62
     7
370
    25
100
AcDbLine
 10
-25.7677672496
 20
248.3619762643
 30
0.0
 11
-25.7677672496
 21
250.8619762643
 31
0.0
  0
LINE
  5
8F
330
1F
100
AcDbEntity
  8
0
  6
Continuous
 62
     7
370
    25
100
AcDbLine
 10
-69.3873886035
 20
232.9103264019
 30
0.0
 11
-65.3649303663
 21
232.0771029099
 31
0.0
  0
LINE
  5
90
330
1F
100
AcDbEntity
  8
0
  6
Continuous
 62
     7
370
    25
100
AcDbLine
 10
-37.7706041329
 20
232.0771029099
 30
0.0
 11
-33.5577140924
 21
232.9497729898
 31
0.0
  0
ARC
  5
91
330
1F
100
AcDbEntity
  8
0
  6
Continuous
 62
     7
370
    25
100
AcDbCircle
 10
-65.5677672496
 20
231.0978903698
 30
0.0
 40
1.000000000000004
100
AcDbArc
 50
0.0
 51
78.2970985198
  0
ARC
  5
92
330
1F
100
AcDbEntity
  8
0
  6
Continuous
 62
     7
370
    25
100
AcDbCircle
 10
-37.5677672496
 20
231.0978903698
 30
0.0
 40
1.000000000000014
100
AcDbArc
 50
101.7029014802
 51
180.0
  0
LINE
  5
93
330
1F
100
AcDbEntity
  8
0
  6
Continuous
 62
     7
370
    25
100
AcDbLine
 10
-64.5677672496
 20
231.0978903698
 30
0.0
 11
-64.5677672496
 21
227.1619762643
 31
0.0
  0
LINE
  5
94
330
1F
100
AcDbEntity
  8
0
  6
Continuous
 62
     7
370
    25
100
AcDbLine
 10
-38.5677672496
 20
227.1619762643
 30
0.0
 11
-38.5677672496
 21
231.0978903698
 31
0.0
  0
SPLINE
  5
95
330
1F
100
AcDbEntity
  8
0
  6
Continuous
 62
     7
370
    25
100
AcDbSpline
210
0.0
220
0.0
230
1.0
 70
     8
 71
     3
 72
    12
 73
     8
 74
     0
 42
0.00000001
 43
0.00000001
 40
0.0
 40
0.0
 40
0.0
 40
0.0
 40
0.0566097830232007
 40
0.1918936113675569
 40
0.3862454124935976
 40
0.6619627093660274
 40
1.0
 40
1.0
 40
1.0
 40
1.0
 10
-32.83132242727874
 20
246.3619762643438
 30
0.0
 10
-32.82925955399737
 20
246.3985133543668
 30
0.0
 10
-32.8222669074508
 20
246.5223653421146
 30
0.0
 10
-32.72197827845355
 20
246.7583340987692
 30
0.0
 10
-32.45333034815057
 20
247.0479019513861
 30
0.0
 10
-31.9843222530482
 20
247.3051500064154
 30
0.0
 10
-31.58728545395822
 20
247.3417939170176
 30
0.0
 10
-31.3686097054125
 20
247.3619762643439
 30
0.0
  0
LINE
  5
96
330
1F
100
AcDbEntity
  8
0
  6
Continuous
 62
     7
370
    25
100
AcDbLine
 10
-32.8313224273
 20
233.9146869625
 30
0.0
 11
-32.8313224273
 21
246.3619762643
 31
0.0
  0
LINE
  5
97
330
1F
100
AcDbEntity
  8
0
  6
Continuous
 62
     7
370
    25
100
AcDbLine
 10
-33.8845433396
 20
232.8896798818
 30
0.0
 11
-33.8036825762
 21
232.9049060201
 31
0.0
  0
SPLINE
  5
98
330
1F
100
AcDbEntity
  8
0
  6
Continuous
 62
     7
370
    25
100
AcDbSpline
210
0.0
220
0.0
230
1.0
 70
     8
 71
     3
 72
    16
 73
    12
 74
     0
 42
0.00000001
 43
0.00000001
 40
0.0
 40
0.0
 40
0.0
 40
0.0
 40
0.0816802095575718
 40
0.1377948324234907
 40
0.1655871203208938
 40
0.2186074287549573
 40
0.3000426746317527
 40
0.422218540139814
 40
0.6032166429768551
 40
0.8418455350636641
 40
1.0
 40
1.0
 40
1.0
 40
1.0
 10
-33.67073654269734
 20
232.9269185312236
 30
0.0
 10
-33.65346425315888
 20
232.9305085429505
 30
0.0
 10
-33.62432583327218
 20
232.93656490675
 30
0.0
 10
-33.59567463893099
 20
232.9432539175389
 30
0.0
 10
-33.54324041164472
 20
232.9573697739376
 30
0.0
 10
-33.46422201151864
 20
232.9833790799346
 30
0.0
 10
-33.3446647357794
 20
233.037353207645
 30
0.0
 10
-33.17756061543145
 20
233.1463077469552
 30
0.0
 10
-32.98663744294911
 20
233.3513610651169
 30
0.0
 10
-32.84665275520568
 20
233.6272684275936
 30
0.0
 10
-32.84569366972331
 20
233.832953020361
 30
0.0
 10
-32.84531138642286
 20
233.9149371463052
 30
0.0
  0
LINE
  5
99
330
1F
100
AcDbEntity
  8
0
  6
Continuous
 62
     7
370
    25
100
AcDbLine
 10
-69.459518961
 20
232.9255650358
 30
0.0
 11
-69.3704538053
 21
232.9070352563
 31
0.0
  0
SPLINE
  5
9A
330
1F
100
AcDbEntity
  8
0
  6
Continuous
 62
     7
370
    25
100
AcDbSpline
210
0.0
220
0.0
230
1.0
 70
     8
 71
     3
 72
    19
 73
    15
 74
     0
 42
0.00000001
 43
0.00000001
 40
0.0
 40
0.0
 40
0.0
 40
0.0
 40
0.0202304595980146
 40
0.2258285753675894
 40
0.3934222233959483
 40
0.5351273996759991
 40
0.6530591297182715
 40
0.7463787804930628
 40
0.811554577795445
 40
0.8426498525346182
 40
0.8647642966474405
 40
0.896406435229536
 40
0.9691251614029222
 40
1.0
 40
1.0
 40
1.0
 40
1.0
 10
-70.29895455075092
 20
233.9153697948467
 30
0.0
 10
-70.30068600579969
 20
233.9049099336806
 30
0.0
 10
-70.32001389230142
 20
233.7881485949559
 30
0.0
 10
-70.25573636848054
 20
233.580316695751
 30
0.0
 10
-70.13540331796888
 20
233.3403067239336
 30
0.0
 10
-69.98348709740584
 20
233.1724131283596
 30
0.0
 10
-69.83404457584375
 20
233.0621342314588
 30
0.0
 10
-69.7055507125639
 20
232.9967154811864
 30
0.0
 10
-69.61121584201726
 20
232.9629409642315
 30
0.0
 10
-69.56036953463321
 20
232.9486684768872
 30
0.0
 10
-69.5357341790743
 20
232.942423075591
 30
0.0
 10
-69.50969645740518
 20
232.936306011156
 30
0.0
 10
-69.49459794963391
 20
232.9328259670679
 30
0.0
 10
-69.46757332981221
 20
232.9272321938439
 30
0.0
 10
-69.45951896102021
 20
232.9255650357938
 30
0.0
  0
LINE
  5
9B
330
1F
100
AcDbEntity
  8
0
  6
Continuous
 62
     7
370
    25
100
AcDbLine
 10
-70.304212072
 20
246.3619762643
 30
0.0
 11
-70.304212072
 21
233.9146869625
 31
0.0
  0
SPLINE
  5
9C
330
1F
100
AcDbEntity
  8
0
  6
Continuous
 62
     7
370
    25
100
AcDbSpline
210
0.0
220
0.0
230
1.0
 70
     8
 71
     3
 72
    12
 73
     8
 74
     0
 42
0.00000001
 43
0.00000001
 40
0.0
 40
0.0
 40
0.0
 40
0.0
 40
0.1504796672482036
 40
0.5021884440834932
 40
0.7384085835496645
 40
0.8953160249745674
 40
1.0
 40
1.0
 40
1.0
 40
1.0
 10
-71.76692479385203
 20
247.3619762643431
 30
0.0
 10
-71.6701324454316
 20
247.3576915757223
 30
0.0
 10
-71.34711206838432
 20
247.3433924936522
 30
0.0
 10
-70.8819328272032
 20
247.1854539534129
 30
0.0
 10
-70.5043708049403
 20
246.8804858585613
 30
0.0
 10
-70.32909323910721
 20
246.5987932028463
 30
0.0
 10
-70.31132327721049
 20
246.4296601411551
 30
0.0
 10
-70.30421207198573
 20
246.3619762643432
 30
0.0
  0
ARC
  5
9D
330
1F
100
AcDbEntity
  8
0
  6
Continuous
 62
     7
370
    25
100
AcDbCircle
 10
128.1322327504
 20
250.8619762643
 30
0.0
 40
0.5000000000000142
100
AcDbArc
 50
90.0
 51
180.0
  0
ARC
  5
9E
330
1F
100
AcDbEntity
  8
0
  6
Continuous
 62
     7
370
    25
100
AcDbCircle
 10
178.7322327504
 20
250.8619762643
 30
0.0
 40
0.5000000000000568
100
AcDbArc
 50
0.0
 51
90.0
  0
LINE
  5
9F
330
1F
100
AcDbEntity
  8
0
  6
Continuous
 62
     7
370
    25
100
AcDbLine
 10
127.6322327504
 20
250.8619762643
 30
0.0
 11
127.6322327504
 21
248.3619762643
 31
0.0
  0
LINE
  5
A0
330
1F
100
AcDbEntity
  8
0
  6
Continuous
 62
     7
370
    25
100
AcDbLine
 10
179.2322327504
 20
248.3619762643
 30
0.0
 11
179.2322327504
 21
250.8619762643
 31
0.0
  0
ARC
  5
A1
330
1F
100
AcDbEntity
  8
0
  6
Continuous
 62
     7
370
    25
100
AcDbCircle
 10
178.2322327504
 20
248.3619762643
 30
0.0
 40
1.0
100
AcDbArc
 50
270.0
 51
0.0
  0
ARC
  5
A2
330
1F
100
AcDbEntity
  8
0
  6
Continuous
 62
     7
370
    25
100
AcDbCircle
 10
128.6322327504
 20
248.3619762643
 30
0.0
 40
1.000000000000014
100
AcDbArc
 50
180.0
 51
270.0
  0
LINE
  5
A3
330
1F
100
AcDbEntity
  8
0
  6
Continuous
 62
     7
370
    25
100
AcDbLine
 10
135.4901312127
 20
232.9356972971
 30
0.0
 11
139.6350696337
 21
232.0771029099
 31
0.0
  0
LINE
  5
A4
330
1F
100
AcDbEntity
  8
0
  6
Continuous
 62
     7
370
    25
100
AcDbLine
 10
167.2293958671
 20
232.0771029099
 30
0.0
 11
171.374334288
 21
232.9356972971
 31
0.0
  0
ARC
  5
A5
330
1F
100
AcDbEntity
  8
0
  6
Continuous
 62
     7
370
    25
100
AcDbCircle
 10
139.4322327504
 20
231.0978903698
 30
0.0
 40
1.00000000000001
100
AcDbArc
 50
0.0
 51
78.2970985198
  0
ARC
  5
A6
330
1F
100
AcDbEntity
  8
0
  6
Continuous
 62
     7
370
    25
100
AcDbCircle
 10
167.4322327504
 20
231.0978903698
 30
0.0
 40
1.00000000000001
100
AcDbArc
 50
101.7029014802
 51
180.0
  0
LINE
  5
A7
330
1F
100
AcDbEntity
  8
0
  6
Continuous
 62
     7
370
    25
100
AcDbLine
 10
140.4322327504
 20
231.0978903698
 30
0.0
 11
140.4322327504
 21
226.6095319725
 31
0.0
  0
LINE
  5
A8
330
1F
100
AcDbEntity
  8
0
  6
Continuous
 62
     7
370
    25
100
AcDbLine
 10
166.4322327504
 20
226.670235396
 30
0.0
 11
166.4322327504
 21
231.0978903698
 31
0.0
  0
SPLINE
  5
A9
330
1F
100
AcDbEntity
  8
0
  6
Continuous
 62
     7
370
    25
100
AcDbSpline
210
0.0
220
0.0
230
1.0
 70
     8
 71
     3
 72
    12
 73
     8
 74
     0
 42
0.00000001
 43
0.00000001
 40
0.0
 40
0.0
 40
0.0
 40
0.0
 40
0.0565776078946115
 40
0.1927698728562043
 40
0.387936083015791
 40
0.66403046697095
 40
0.9999999999999999
 40
0.9999999999999999
 40
0.9999999999999999
 40
0.9999999999999999
 10
172.1753807265432
 20
246.3619762643473
 30
0.0
 10
172.1774418880477
 20
246.3984643273917
 30
0.0
 10
172.1844646282436
 20
246.5227855833723
 30
0.0
 10
172.2856082653928
 20
246.7597128928691
 30
0.0
 10
172.5562161116423
 20
247.0497614699292
 30
0.0
 10
173.0257356390827
 20
247.305689022735
 30
0.0
 10
173.421977950966
 20
247.342028868736
 30
0.0
 10
173.6394803078209
 20
247.3619762643473
 30
0.0
  0
LINE
  5
AA
330
1F
100
AcDbEntity
  8
0
  6
Continuous
 62
     7
370
    25
100
AcDbLine
 10
172.1753807265
 20
233.9155325089
 30
0.0
 11
172.1753807265
 21
246.3619762643
 31
0.0
  0
LINE
  5
AB
330
1F
100
AcDbEntity
  8
0
  6
Continuous
 62
     7
370
    25
100
AcDbLine
 10
171.1456104134
 20
232.8908463667
 30
0.0
 11
171.2255515578
 21
232.90657155
 31
0.0
  0
SPLINE
  5
AC
330
1F
100
AcDbEntity
  8
0
  6
Continuous
 62
     7
370
    25
100
AcDbSpline
210
0.0
220
0.0
230
1.0
 70
     8
 71
     3
 72
    21
 73
    17
 74
     0
 42
0.00000001
 43
0.00000001
 40
0.0
 40
0.0
 40
0.0
 40
0.0
 40
0.0077062925166432
 40
0.0702103931912759
 40
0.1043473977217748
 40
0.1192276098950622
 40
0.125855044224911
 40
0.130646819616314
 40
0.1371460580218945
 40
0.1597510275649978
 40
0.1972793147585925
 40
0.320926167335489
 40
0.4452680287055574
 40
0.6310187682370192
 40
0.8576692111857361
 40
0.9999999999999999
 40
0.9999999999999999
 40
0.9999999999999999
 40
0.9999999999999999
 10
171.343451287286
 20
232.9295938150979
 30
0.0
 10
171.3450248467817
 20
232.9299037514566
 30
0.0
 10
171.3593612128964
 20
232.932727515745
 30
0.0
 10
171.3612456151244
 20
232.9330962316779
 30
0.0
 10
171.3683371764643
 20
232.9344995237986
 30
0.0
 10
171.3719315318639
 20
232.9352163351507
 30
0.0
 10
171.3763136445825
 20
232.9361059273822
 30
0.0
 10
171.3821677051839
 20
232.9373208515567
 30
0.0
 10
171.3982658813423
 20
232.9407794613217
 30
0.0
 10
171.4325461972948
 20
232.9489493597302
 30
0.0
 10
171.5241503980811
 20
232.9754472497946
 30
0.0
 10
171.6620125310172
 20
233.0349228956076
 30
0.0
 10
171.8498684426109
 20
233.1635792789482
 30
0.0
 10
172.0353146985958
 20
233.3758154427971
 30
0.0
 10
172.1643284535097
 20
233.6474439664838
 30
0.0
 10
172.1613174509402
 20
233.8412906453206
 30
0.0
 10
172.1601559870664
 20
233.9160650466526
 30
0.0
  0
SPLINE
  5
AD
330
1F
100
AcDbEntity
  8
0
  6
Continuous
 62
     7
370
    25
100
AcDbSpline
210
0.0
220
0.0
230
1.0
 70
     8
 71
     3
 72
    21
 73
    17
 74
     0
 42
0.00000001
 43
0.00000001
 40
0.0
 40
0.0
 40
0.0
 40
0.0
 40
0.2197999439676611
 40
0.4049956833503145
 40
0.5613983026514358
 40
0.6920265017035021
 40
0.7962984491848436
 40
0.8723452109556167
 40
0.9191630782357838
 40
0.9338074047122938
 40
0.9393539001832943
 40
0.9435414402281931
 40
0.9490025418624128
 40
0.9592278768750113
 40
0.9885077436139206
 40
1.0
 40
1.0
 40
1.0
 40
1.0
 10
134.6911990178935
 20
233.9155620920241
 30
0.0
 10
134.7001949921118
 20
233.808585997023
 30
0.0
 10
134.716770659331
 20
233.6114755887353
 30
0.0
 10
134.8430837170352
 20
233.36472898309
 30
0.0
 10
134.9912575369731
 20
233.189095950726
 30
0.0
 10
135.1422931535092
 20
233.0726569336219
 30
0.0
 10
135.2755984728024
 20
233.0020090340118
 30
0.0
 10
135.3791571967002
 20
232.9635625544376
 30
0.0
 10
135.4428023912668
 20
232.9461256121075
 30
0.0
 10
135.474954460078
 20
232.9388785333016
 30
0.0
 10
135.4845378216046
 20
232.9368542541128
 30
0.0
 10
135.4884714482232
 20
232.9360419676626
 30
0.0
 10
135.4915936594881
 20
232.9354066603655
 30
0.0
 10
135.4955449118177
 20
232.9346154886042
 30
0.0
 10
135.4954100025787
 20
232.9346378805364
 30
0.0
 10
135.5014875189506
 20
232.9334420360922
 30
0.0
 10
135.5032005613674
 20
232.9331049687555
 30
0.0
  0
LINE
  5
AE
330
1F
100
AcDbEntity
  8
0
  6
Continuous
 62
     7
370
    25
100
AcDbLine
 10
134.6890847742
 20
246.3619762643
 30
0.0
 11
134.6890847742
 21
233.9155325089
 31
0.0
  0
SPLINE
  5
AF
330
1F
100
AcDbEntity
  8
0
  6
Continuous
 62
     7
370
    25
100
AcDbSpline
210
0.0
220
0.0
230
1.0
 70
     8
 71
     3
 72
    12
 73
     8
 74
     0
 42
0.00000001
 43
0.00000001
 40
0.0
 40
0.0
 40
0.0
 40
0.0
 40
0.1505332491701244
 40
0.5019526335369242
 40
0.7380327738150841
 40
0.8950809731961674
 40
0.9999999999999999
 40
0.9999999999999999
 40
0.9999999999999999
 40
0.9999999999999999
 10
133.2249851929145
 20
247.3619762643467
 30
0.0
 10
133.3218933756395
 20
247.3576885428434
 30
0.0
 10
133.6450333981811
 20
247.343391149329
 30
0.0
 10
134.1103889885299
 20
247.1855593926042
 30
0.0
 10
134.4883491064775
 20
246.880805038014
 30
0.0
 10
134.6641063276669
 20
246.5990153491303
 30
0.0
 10
134.6819416493704
 20
246.4297626964831
 30
0.0
 10
134.6890847741922
 20
246.3619762643467
 30
0.0
  0
LINE
  5
B0
330
1F
100
AcDbEntity
  8
0
  6
Continuous
 62
     7
370
    25
100
AcDbLine
 10
135.9322327504
 20
211.2619762643
 30
0.0
 11
135.9322327504
 21
209.5407420404
 31
0.0
  0
LINE
  5
B1
330
1F
100
AcDbEntity
  8
0
  6
Continuous
 62
     7
370
    25
100
AcDbLine
 10
170.9322327504
 20
200.7859935837
 30
0.0
 11
170.9322327504
 21
211.2619762643
 31
0.0
  0
LINE
  5
B2
330
1F
100
AcDbEntity
  8
0
  6
Continuous
 62
     7
370
    25
100
AcDbLine
 10
-69.0677672496
 20
211.2619762643
 30
0.0
 11
-69.0677672496
 21
201.4382876495
 31
0.0
  0
LINE
  5
B3
330
1F
100
AcDbEntity
  8
0
  6
Continuous
 62
     7
370
    25
100
AcDbLine
 10
-34.0677672496
 20
209.5407420404
 30
0.0
 11
-34.0677672496
 21
211.2619762643
 31
0.0
  0
LINE
  5
B4
330
1F
100
AcDbEntity
  8
0
  6
Continuous
 62
     7
370
    25
100
AcDbLine
 10
169.2322327504
 20
211.7600703232
 30
0.0
 11
169.2322327504
 21
212.7548564364
 31
0.0
  0
LWPOLYLINE
  5
B5
330
1F
100
AcDbEntity
  8
0
  6
Continuous
 62
     7
370
    25
100
AcDbPolyline
 90
        3
 70
   128
 43
0.0
 10
143.4010444768
 20
180.0223367354
 10
145.5847625641
 20
178.7201345673
 10
146.879757378
 20
178.1349905155
  0
LWPOLYLINE
  5
B6
330
1F
100
AcDbEntity
  8
0
  6
Continuous
 62
     7
370
    25
100
AcDbPolyline
 90
        3
 70
   128
 43
0.0
 10
-65.2473728627
 20
183.4478390895
 10
-64.6412881117
 20
182.7287027668
 10
-62.9362538697
 20
181.0575592546
  0
ARC
  5
B7
330
1F
100
AcDbEntity
  8
0
  6
Continuous
 62
     7
370
    25
100
AcDbCircle
 10
50.9322327504
 20
193.4119762643
 30
0.0
 40
7.900000000000034
100
AcDbArc
 50
0.0
 51
90.0
  0
ARC
  5
B8
330
1F
100
AcDbEntity
  8
0
  6
Continuous
 62
     7
370
    25
100
AcDbCircle
 10
50.9322327504
 20
193.4119762643
 30
0.0
 40
7.900000000000034
100
AcDbArc
 50
90.0
 51
180.0
  0
ARC
  5
B9
330
1F
100
AcDbEntity
  8
0
  6
Continuous
 62
     7
370
    25
100
AcDbCircle
 10
50.979414944
 20
-19.5178900014
 30
0.0
 40
7.852911808525745
100
AcDbArc
 50
269.6557510264
 51
359.7196557284
  0
ARC
  5
BA
330
1F
100
AcDbEntity
  8
0
  6
Continuous
 62
     7
370
    25
100
AcDbCircle
 10
50.8850505567
 20
-19.5178900014
 30
0.0
 40
7.852911808525863
100
AcDbArc
 50
180.2803442717
 51
270.3442489736
  0
SPLINE
  5
BB
330
1F
100
AcDbEntity
  8
0
  6
Continuous
 62
     7
370
    25
100
AcDbSpline
210
0.0
220
0.0
230
1.0
 70
     8
 71
     3
 72
     9
 73
     5
 74
     0
 42
0.00000001
 43
0.00000001
 40
0.0
 40
0.0
 40
0.0
 40
0.0
 40
0.3733283679054891
 40
0.9999999999999999
 40
0.9999999999999999
 40
0.9999999999999999
 40
0.9999999999999999
 10
61.65705069238312
 20
-19.10381752078348
 30
0.0
 10
61.64850006535025
 20
-19.1383194753814
 30
0.0
 10
61.6255962954578
 20
-19.23073665436896
 30
0.0
 10
61.59816001073818
 20
-19.34903086817884
 30
0.0
 10
61.58096646941438
 20
-19.42316249621427
 30
0.0
  0
SPLINE
  5
BC
330
1F
100
AcDbEntity
  8
0
  6
Continuous
 62
     7
370
    25
100
AcDbSpline
210
0.0
220
0.0
230
1.0
 70
     8
 71
     3
 72
     9
 73
     5
 74
     0
 42
0.00000001
 43
0.00000001
 40
0.0
 40
0.0
 40
0.0
 40
0.0
 40
0.8169784353419383
 40
1.0
 40
1.0
 40
1.0
 40
1.0
 10
61.58096646941061
 20
-19.42316249621377
 30
0.0
 10
61.53312047516954
 20
-20.14850342832052
 30
0.0
 10
61.47455590091486
 20
-21.03633706104445
 30
0.0
 10
61.29093911731989
 20
-21.9189430042802
 30
0.0
 10
61.25733328628888
 20
-22.08047892498776
 30
0.0
  0
SPLINE
  5
BD
330
1F
100
AcDbEntity
  8
0
  6
Continuous
 62
     7
370
    25
100
AcDbSpline
210
0.0
220
0.0
230
1.0
 70
     8
 71
     3
 72
    19
 73
    15
 74
     0
 42
0.00000001
 43
0.00000001
 40
0.0
 40
0.0
 40
0.0
 40
0.0
 40
0.0309875197273646
 40
0.1220346502357657
 40
0.213078132595815
 40
0.3044553685839399
 40
0.3960144663038104
 40
0.4877063042634188
 40
0.579706550115965
 40
0.6717020630513011
 40
0.7640557667699958
 40
0.85641253624849
 40
0.9489597756151736
 40
1.0
 40
1.0
 40
1.0
 40
1.0
 10
61.25733485454074
 20
-22.08047166814102
 30
0.0
 10
61.162652816627
 20
-22.46792673192265
 30
0.0
 10
60.78977723697223
 20
-23.99379726324207
 30
0.0
 10
59.44652978983597
 20
-26.46426487218044
 30
0.0
 10
56.80519294951505
 20
-28.90257222597685
 30
0.0
 10
53.48254199283129
 20
-30.34482662439551
 30
0.0
 10
49.86085141299915
 20
-30.61910529784727
 30
0.0
 10
46.34371212578223
 20
-29.69559669354598
 30
0.0
 10
43.32912651288237
 20
-27.66976726009711
 30
0.0
 10
41.16036347799448
 20
-24.76920617466703
 30
0.0
 10
40.07101573618152
 20
-21.30793926356582
 30
0.0
 10
40.24417305599662
 20
-17.71865085450168
 30
0.0
 10
41.27537380554017
 20
-14.75549516961026
 30
0.0
 10
42.57150449728872
 20
-13.41761600860596
 30
0.0
 10
43.03223275037207
 20
-12.94204766306005
 30
0.0
  0
LINE
  5
BE
330
1F
100
AcDbEntity
  8
0
  6
Continuous
 62
     7
370
    25
100
AcDbLine
 10
58.8322327504
 20
-12.9225892852
 30
0.0
 11
59.9489576497
 21
-14.1164579506
 31
0.0
  0
ARC
  5
BF
330
1F
100
AcDbEntity
  8
0
  6
Continuous
 62
     7
370
    25
100
AcDbCircle
 10
51.1426516899
 20
-19.9968215567
 30
0.0
 40
10.5891312579841
100
AcDbArc
 50
348.3951793204
 51
33.7328054928
  0
SPLINE
  5
C0
330
1F
100
AcDbEntity
  8
0
  6
Continuous
 62
     7
370
    25
100
AcDbSpline
210
0.0
220
0.0
230
1.0
 70
     8
 71
     3
 72
     9
 73
     5
 74
     0
 42
0.00000001
 43
0.00000001
 40
0.0
 40
0.0
 40
0.0
 40
0.0
 40
0.6275173949570053
 40
1.0
 40
1.0
 40
1.0
 40
1.0
 10
61.51532340091912
 20
-22.12693478706566
 30
0.0
 10
61.61787854379416
 20
-21.49814547567651
 30
0.0
 10
61.78130850398214
 20
-20.49611857340665
 30
0.0
 10
61.69077343188581
 20
-19.48167872002792
 30
0.0
 10
61.65705069238367
 20
-19.10381752078204
 30
0.0
  0
LINE
  5
C1
330
1F
100
AcDbEntity
  8
0
  6
Continuous
 62
     7
370
    25
100
AcDbLine
 10
49.5904550485
 20
-30.6233564212
 30
0.0
 11
50.4161245494
 21
-30.6974308844
 31
0.0
  0
LINE
  5
C2
330
1F
100
AcDbEntity
  8
0
  6
Continuous
 62
     7
370
    25
100
AcDbLine
 10
47.4545960815
 20
-30.0276887451
 30
0.0
 11
47.9375878771
 21
-30.1666168521
 31
0.0
  0
LINE
  5
C3
330
1F
100
AcDbEntity
  8
0
  6
Continuous
 62
     7
370
    25
100
AcDbLine
 10
61.6570506924
 20
-19.1038175208
 30
0.0
 11
61.5742183463
 21
-19.4877450073
 31
0.0
  0
LINE
  5
C4
330
1F
100
AcDbEntity
  8
0
  6
Continuous
 62
     7
370
    25
100
AcDbLine
 10
43.8961456898
 20
196.8810906633
 30
0.0
 11
43.4686652357
 21
196.0014086257
 31
0.0
  0
ARC
  5
C5
330
1F
100
AcDbEntity
  8
0
  6
Continuous
 62
     7
370
    25
100
AcDbCircle
 10
50.9700579005
 20
-19.9966786293
 30
0.0
 40
11.51156068270987
100
AcDbArc
 50
133.5946937535
 51
356.3477284926
  0
ARC
  5
C6
330
1F
100
AcDbEntity
  8
0
  6
Continuous
 62
     7
370
    25
100
AcDbCircle
 10
51.1115274064
 20
-20.0060131947
 30
0.0
 40
11.36978388018398
100
AcDbArc
 50
356.3492597238
 51
47.2301808293
  0
ARC
  5
C7
330
1F
100
AcDbEntity
  8
0
  6
Continuous
 62
     7
370
    25
100
AcDbCircle
 10
50.9676869746
 20
-19.9835817725
 30
0.0
 40
10.76480237216175
100
AcDbArc
 50
137.4906209186
 51
356.2790753317
  0
ARC
  5
C8
330
1F
100
AcDbEntity
  8
0
  6
Continuous
 62
     7
370
    25
100
AcDbCircle
 10
51.1139995945
 20
-20.0010358801
 30
0.0
 40
10.61766842219308
100
AcDbArc
 50
356.3218251123
 51
43.3708999106
  0
LINE
  5
C9
330
1F
100
AcDbEntity
  8
0
  6
Continuous
 62
     7
370
    25
100
AcDbLine
 10
62.4582389338
 20
-22.6474177061
 30
0.0
 11
62.4822327504
 21
-21.9113876277
 31
0.0
  0
ARC
  5
CA
330
1F
100
AcDbEntity
  8
0
  6
Continuous
 62
     7
370
    25
100
AcDbCircle
 10
50.9351472344
 20
-21.8119008734
 30
0.0
 40
11.5533428361426
100
AcDbArc
 50
180.4933846131
 51
355.852852733
  0
ARC
  5
CB
330
1F
100
AcDbEntity
  8
0
  6
Continuous
 62
     7
370
    25
100
AcDbCircle
 10
50.9322327504
 20
-22.2558044
 30
0.0
 40
11.11119944789679
100
AcDbArc
 50
251.3894551427
 51
288.6105448573
  0
ARC
  5
CC
330
1F
100
AcDbEntity
  8
0
  6
Continuous
 62
     7
370
    25
100
AcDbCircle
 10
50.9322327504
 20
193.4119762643
 30
0.0
 40
9.92500000000005
100
AcDbArc
 50
322.7469493593
 51
182.3675813795
  0
ARC
  5
CD
330
1F
100
AcDbEntity
  8
0
  6
Continuous
 62
     7
370
    25
100
AcDbCircle
 10
50.9322327504
 20
193.4119762643
 30
0.0
 40
9.925000000000008
100
AcDbArc
 50
182.3675813795
 51
217.2530506407
  0
ARC
  5
CE
330
1F
100
AcDbEntity
  8
0
  6
Continuous
 62
     7
370
    25
100
AcDbCircle
 10
50.9322327504
 20
193.4119762643
 30
0.0
 40
9.725
100
AcDbArc
 50
182.3675813795
 51
215.6748758017
  0
ARC
  5
CF
330
1F
100
AcDbEntity
  8
0
  6
Continuous
 62
     7
370
    25
100
AcDbCircle
 10
50.9322327504
 20
193.4119762643
 30
0.0
 40
9.725000000000023
100
AcDbArc
 50
324.3251241983
 51
182.3675813795
  0
ARC
  5
D0
330
1F
100
AcDbEntity
  8
0
  6
Continuous
 62
     7
370
    25
100
AcDbCircle
 10
50.9322327504
 20
193.4119762643
 30
0.0
 40
14.22500000000005
100
AcDbArc
 50
303.7355336397
 51
182.3675813795
  0
ARC
  5
D1
330
1F
100
AcDbEntity
  8
0
  6
Continuous
 62
     7
370
    25
100
AcDbCircle
 10
50.9322327504
 20
193.4119762643
 30
0.0
 40
14.22500000000002
100
AcDbArc
 50
182.3675813795
 51
236.2644663603
  0
LINE
  5
D2
330
1F
100
AcDbEntity
  8
0
  6
Continuous
 62
     7
370
    25
100
AcDbLine
 10
64.8276851171
 20
197.4402492447
 30
0.0
 11
64.5947075732
 21
197.3727093676
 31
0.0
  0
SPLINE
  5
D3
330
1F
100
AcDbEntity
  8
0
  6
Continuous
 62
     7
370
    25
100
AcDbSpline
210
0.0
220
0.0
230
1.0
 70
     8
 71
     3
 72
    11
 73
     7
 74
     0
 42
0.00000001
 43
0.00000001
 40
0.0
 40
0.0
 40
0.0
 40
0.0
 40
0.1446702591042674
 40
0.3907520209323804
 40
0.5962314811354869
 40
1.0
 40
1.0
 40
1.0
 40
1.0
 10
65.11279320920025
 20
190.5445236047744
 30
0.0
 10
65.1371755246767
 20
190.8771023142649
 30
0.0
 10
65.20303176290007
 20
191.7753920087544
 30
0.0
 10
65.21692688783496
 20
193.1513366077072
 30
0.0
 10
65.14762356180812
 20
195.1239269540431
 30
0.0
 10
64.95520630972449
 20
196.5170085843596
 30
0.0
 10
64.82768511712797
 20
197.4402492447408
 30
0.0
  0
LINE
  5
D4
330
1F
100
AcDbEntity
  8
0
  6
Continuous
 62
     7
370
    25
100
AcDbLine
 10
64.8750354119
 20
190.5926006346
 30
0.0
 11
65.1127932092
 21
190.5445236048
 31
0.0
  0
LINE
  5
D5
330
1F
100
AcDbEntity
  8
0
  6
Continuous
 62
     7
370
    25
100
AcDbLine
 10
54.3913721993
 20
207.4599275012
 30
0.0
 11
54.3333746767
 21
207.2243930911
 31
0.0
  0
SPLINE
  5
D6
330
1F
100
AcDbEntity
  8
0
  6
Continuous
 62
     7
370
    25
100
AcDbSpline
210
0.0
220
0.0
230
1.0
 70
     8
 71
     3
 72
    11
 73
     7
 74
     0
 42
0.00000001
 43
0.00000001
 40
0.0
 40
0.0
 40
0.0
 40
0.0
 40
0.1446702591042531
 40
0.3907520209323602
 40
0.5962314811354578
 40
1.0
 40
1.0
 40
1.0
 40
1.0
 10
60.50579982712204
 20
204.2589755318093
 30
0.0
 10
60.22996937368361
 20
204.4463805911602
 30
0.0
 10
59.48495579740962
 20
204.9525586137042
 30
0.0
 10
58.30030038298398
 20
205.6525644443628
 30
0.0
 10
56.55733536878363
 20
206.5788411766246
 30
0.0
 10
55.2546826613424
 20
207.1087437633522
 30
0.0
 10
54.39137219934722
 20
207.4599275012333
 30
0.0
  0
LINE
  5
D7
330
1F
100
AcDbEntity
  8
0
  6
Continuous
 62
     7
370
    25
100
AcDbLine
 10
60.5057998271
 20
204.2589755318
 30
0.0
 11
60.3452849993
 21
204.0771097543
 31
0.0
  0
LINE
  5
D8
330
1F
100
AcDbEntity
  8
0
  6
Continuous
 62
     7
370
    25
100
AcDbLine
 10
41.5191805014
 20
182.7468427744
 30
0.0
 11
41.3586656736
 21
182.5649769969
 31
0.0
  0
LINE
  5
D9
330
1F
100
AcDbEntity
  8
0
  6
Continuous
 62
     7
370
    25
100
AcDbLine
 10
40.4959198326
 20
203.4316545208
 30
0.0
 11
40.6708998539
 21
203.2636599878
 31
0.0
  0
SPLINE
  5
DA
330
1F
100
AcDbEntity
  8
0
  6
Continuous
 62
     7
370
    25
100
AcDbSpline
210
0.0
220
0.0
230
1.0
 70
     8
 71
     3
 72
    11
 73
     7
 74
     0
 42
0.00000001
 43
0.00000001
 40
0.0
 40
0.0
 40
0.0
 40
0.0
 40
0.1446702591042595
 40
0.3907520209323626
 40
0.5962314811354683
 40
1.0
 40
1.0
 40
1.0
 40
1.0
 10
46.32523936829039
 20
207.1264281913799
 30
0.0
 10
46.02502659937549
 20
206.9812545412404
 30
0.0
 10
45.21415678487797
 20
206.589142869295
 30
0.0
 10
44.01560624551762
 20
205.9132041010008
 30
0.0
 10
42.34194455734428
 20
204.866890486927
 30
0.0
 10
41.23170910198645
 20
204.0037114433377
 30
0.0
 10
40.49591983258791
 20
203.4316545208376
 30
0.0
  0
LINE
  5
DB
330
1F
100
AcDbEntity
  8
0
  6
Continuous
 62
     7
370
    25
100
AcDbLine
 10
46.3252393683
 20
207.1264281914
 30
0.0
 11
46.4024823378
 21
206.8964853841
 31
0.0
  0
LINE
  5
DC
330
1F
100
AcDbEntity
  8
0
  6
Continuous
 62
     7
370
    25
100
AcDbLine
 10
61.1935656468
 20
183.5602925408
 30
0.0
 11
61.3685456681
 21
183.3922980079
 31
0.0
  0
LINE
  5
DD
330
1F
100
AcDbEntity
  8
0
  6
Continuous
 62
     7
370
    25
100
AcDbLine
 10
37.2697579275
 20
189.4512431611
 30
0.0
 11
37.0367803836
 21
189.3837032839
 31
0.0
  0
SPLINE
  5
DE
330
1F
100
AcDbEntity
  8
0
  6
Continuous
 62
     7
370
    25
100
AcDbSpline
210
0.0
220
0.0
230
1.0
 70
     8
 71
     3
 72
    11
 73
     7
 74
     0
 42
0.00000001
 43
0.00000001
 40
0.0
 40
0.0
 40
0.0
 40
0.0
 40
0.1446702591042646
 40
0.3907520209323738
 40
0.5962314811354771
 40
1.0
 40
1.0
 40
1.0
 40
1.0
 10
36.75167229153689
 20
196.2794289239162
 30
0.0
 10
36.72728997606048
 20
195.9468502144256
 30
0.0
 10
36.66143373783711
 20
195.0485605199359
 30
0.0
 10
36.64753861290234
 20
193.6726159209834
 30
0.0
 10
36.71684193892913
 20
191.7000255746473
 30
0.0
 10
36.90925919101271
 20
190.3069439443308
 30
0.0
 10
37.03678038360928
 20
189.3837032839497
 30
0.0
  0
LINE
  5
DF
330
1F
100
AcDbEntity
  8
0
  6
Continuous
 62
     7
370
    25
100
AcDbLine
 10
36.7516722915
 20
196.2794289239
 30
0.0
 11
36.9894300888
 21
196.2313518941
 31
0.0
  0
SPLINE
  5
E0
330
1F
100
AcDbEntity
  8
0
  6
Continuous
 62
     7
370
    25
100
AcDbSpline
210
0.0
220
0.0
230
1.0
 70
     8
 71
     3
 72
     9
 73
     5
 74
     0
 42
0.00000001
 43
0.00000001
 40
0.0
 40
0.0
 40
0.0
 40
0.0
 40
0.5862283062032723
 40
1.0
 40
1.0
 40
1.0
 40
1.0
 10
61.36854566814939
 20
183.392298007853
 30
0.0
 10
61.62435756673442
 20
183.6051394705979
 30
0.0
 10
62.06072663298065
 20
183.9682087057279
 30
0.0
 10
62.48366113304096
 20
184.3485983291382
 30
0.0
 10
62.65865945749591
 20
184.5059927879192
 30
0.0
  0
SPLINE
  5
E1
330
1F
100
AcDbEntity
  8
0
  6
Continuous
 62
     7
370
    25
100
AcDbSpline
210
0.0
220
0.0
230
1.0
 70
     8
 71
     3
 72
     9
 73
     5
 74
     0
 42
0.00000001
 43
0.00000001
 40
0.0
 40
0.0
 40
0.0
 40
0.0
 40
0.5863847898283513
 40
1.0
 40
1.0
 40
1.0
 40
1.0
 10
64.93265110417681
 20
188.8497497335435
 30
0.0
 10
64.97396574055762
 20
189.1807414341389
 30
0.0
 10
65.04442226858755
 20
189.745203040812
 30
0.0
 10
65.09278828794044
 20
190.3106472707628
 30
0.0
 10
65.11279320920025
 20
190.5445236047744
 30
0.0
  0
ARC
  5
E2
330
1F
100
AcDbEntity
  8
0
  6
Continuous
 62
     7
370
    25
100
AcDbCircle
 10
50.9322327504
 20
193.4119762643
 30
0.0
 40
14.72500000000006
100
AcDbArc
 50
322.7840658168
 51
341.9510969422
  0
SPLINE
  5
E3
330
1F
100
AcDbEntity
  8
0
  6
Continuous
 62
     7
370
    25
100
AcDbSpline
210
0.0
220
0.0
230
1.0
 70
     8
 71
     3
 72
     9
 73
     5
 74
     0
 42
0.00000001
 43
0.00000001
 40
0.0
 40
0.0
 40
0.0
 40
0.0
 40
0.5862283062032939
 40
0.9999999999999999
 40
0.9999999999999999
 40
0.9999999999999999
 40
0.9999999999999999
 10
64.82768511712797
 20
197.4402492447408
 30
0.0
 10
64.77126495270466
 20
197.7682095788782
 30
0.0
 10
64.67502230487234
 20
198.3276508932382
 30
0.0
 10
64.5570624776934
 20
198.8841177261324
 30
0.0
 10
64.50825404020158
 20
199.1143679501208
 30
0.0
  0
SPLINE
  5
E4
330
1F
100
AcDbEntity
  8
0
  6
Continuous
 62
     7
370
    25
100
AcDbSpline
210
0.0
220
0.0
230
1.0
 70
     8
 71
     3
 72
     9
 73
     5
 74
     0
 42
0.00000001
 43
0.00000001
 40
0.0
 40
0.0
 40
0.0
 40
0.0
 40
0.5863847898283571
 40
1.0
 40
1.0
 40
1.0
 40
1.0
 10
61.88344600076637
 20
203.2555809569522
 30
0.0
 10
61.61745609779942
 20
203.4568563319038
 30
0.0
 10
61.1638462709744
 20
203.8001042783768
 30
0.0
 10
60.69834021309003
 20
204.1247125947918
 30
0.0
 10
60.50579982712204
 20
204.2589755318093
 30
0.0
  0
ARC
  5
E5
330
1F
100
AcDbEntity
  8
0
  6
Continuous
 62
     7
370
    25
100
AcDbCircle
 10
50.9322327504
 20
193.4119762643
 30
0.0
 40
14.72500000000004
100
AcDbArc
 50
22.7840658168
 51
41.9510969422
  0
SPLINE
  5
E6
330
1F
100
AcDbEntity
  8
0
  6
Continuous
 62
     7
370
    25
100
AcDbSpline
210
0.0
220
0.0
230
1.0
 70
     8
 71
     3
 72
     9
 73
     5
 74
     0
 42
0.00000001
 43
0.00000001
 40
0.0
 40
0.0
 40
0.0
 40
0.0
 40
0.5862283062032656
 40
1.0
 40
1.0
 40
1.0
 40
1.0
 10
54.39137219934722
 20
207.4599275012333
 30
0.0
 10
54.07914013633894
 20
207.5750463726258
 30
0.0
 10
53.5465284222604
 20
207.7714184518555
 30
0.0
 10
53.00563409502121
 20
207.9474956613396
 30
0.0
 10
52.78182733307432
 20
208.0203514265467
 30
0.0
  0
SPLINE
  5
E7
330
1F
100
AcDbEntity
  8
0
  6
Continuous
 62
     7
370
    25
100
AcDbSpline
210
0.0
220
0.0
230
1.0
 70
     8
 71
     3
 72
     9
 73
     5
 74
     0
 42
0.00000001
 43
0.00000001
 40
0.0
 40
0.0
 40
0.0
 40
0.0
 40
0.5863847898283416
 40
1.0
 40
1.0
 40
1.0
 40
1.0
 10
47.8830276469582
 20
207.8178074877539
 30
0.0
 10
47.57572310761046
 20
207.6880911621103
 30
0.0
 10
47.05165675275544
 20
207.4668775019099
 30
0.0
 10
46.5377846755182
 20
207.226041588374
 30
0.0
 10
46.32523936829039
 20
207.1264281913799
 30
0.0
  0
ARC
  5
E8
330
1F
100
AcDbEntity
  8
0
  6
Continuous
 62
     7
370
    25
100
AcDbCircle
 10
50.9322327504
 20
193.4119762643
 30
0.0
 40
14.72500000000002
100
AcDbArc
 50
82.7840658168
 51
101.9510969422
  0
SPLINE
  5
E9
330
1F
100
AcDbEntity
  8
0
  6
Continuous
 62
     7
370
    25
100
AcDbSpline
210
0.0
220
0.0
230
1.0
 70
     8
 71
     3
 72
     9
 73
     5
 74
     0
 42
0.00000001
 43
0.00000001
 40
0.0
 40
0.0
 40
0.0
 40
0.0
 40
0.5862283062032427
 40
1.0
 40
1.0
 40
1.0
 40
1.0
 10
40.49591983258791
 20
203.4316545208376
 30
0.0
 10
40.24010793400287
 20
203.2188130580926
 30
0.0
 10
39.80373886775649
 20
202.8557438229625
 30
0.0
 10
39.38080436769623
 20
202.4753541995522
 30
0.0
 10
39.20580604324128
 20
202.3179597407712
 30
0.0
  0
SPLINE
  5
EA
330
1F
100
AcDbEntity
  8
0
  6
Continuous
 62
     7
370
    25
100
AcDbSpline
210
0.0
220
0.0
230
1.0
 70
     8
 71
     3
 72
     9
 73
     5
 74
     0
 42
0.00000001
 43
0.00000001
 40
0.0
 40
0.0
 40
0.0
 40
0.0
 40
0.5863847898283496
 40
0.9999999999999999
 40
0.9999999999999999
 40
0.9999999999999999
 40
0.9999999999999999
 10
36.93181439656043
 20
197.974202795147
 30
0.0
 10
36.89049976017952
 20
197.6432110945516
 30
0.0
 10
36.82004323214957
 20
197.0787494878784
 30
0.0
 10
36.7716772127967
 20
196.5133052579276
 30
0.0
 10
36.75167229153695
 20
196.2794289239162
 30
0.0
  0
ARC
  5
EB
330
1F
100
AcDbEntity
  8
0
  6
Continuous
 62
     7
370
    25
100
AcDbCircle
 10
50.9322327504
 20
193.4119762643
 30
0.0
 40
14.725
100
AcDbArc
 50
142.7840658168
 51
161.9510969422
  0
SPLINE
  5
EC
330
1F
100
AcDbEntity
  8
0
  6
Continuous
 62
     7
370
    25
100
AcDbSpline
210
0.0
220
0.0
230
1.0
 70
     8
 71
     3
 72
     9
 73
     5
 74
     0
 42
0.00000001
 43
0.00000001
 40
0.0
 40
0.0
 40
0.0
 40
0.0
 40
0.5863847898283571
 40
1.0
 40
1.0
 40
1.0
 40
1.0
 10
39.98101949997082
 20
183.5683715717383
 30
0.0
 10
40.24700940293766
 20
183.3670961967868
 30
0.0
 10
40.70061922976273
 20
183.0238482503137
 30
0.0
 10
41.16612528764716
 20
182.6992399338988
 30
0.0
 10
41.35866567361521
 20
182.5649769968813
 30
0.0
  0
ARC
  5
ED
330
1F
100
AcDbEntity
  8
0
  6
Continuous
 62
     7
370
    25
100
AcDbCircle
 10
50.9322327504
 20
193.4119762643
 30
0.0
 40
14.72500000000002
100
AcDbArc
 50
202.7840658168
 51
221.9510969422
  0
SPLINE
  5
EE
330
1F
100
AcDbEntity
  8
0
  6
Continuous
 62
     7
370
    25
100
AcDbSpline
210
0.0
220
0.0
230
1.0
 70
     8
 71
     3
 72
     9
 73
     5
 74
     0
 42
0.00000001
 43
0.00000001
 40
0.0
 40
0.0
 40
0.0
 40
0.0
 40
0.5862283062032675
 40
1.0
 40
1.0
 40
1.0
 40
1.0
 10
37.03678038360922
 20
189.3837032839496
 30
0.0
 10
37.09320054803247
 20
189.0557429498121
 30
0.0
 10
37.18944319586473
 20
188.4963016354519
 30
0.0
 10
37.30740302304373
 20
187.939834802558
 30
0.0
 10
37.35621146053561
 20
187.7095845785697
 30
0.0
  0
SPLINE
  5
EF
330
1F
100
AcDbEntity
  8
0
  6
Continuous
 62
     7
370
    25
100
AcDbSpline
210
0.0
220
0.0
230
1.0
 70
    24
 71
     3
 72
    10
 73
     6
 74
     0
 42
0.00000001
 43
0.00000001
 40
0.0
 40
0.0
 40
0.0
 40
0.0
 40
0.6588579034619917
 40
0.8981530991960591
 40
1.0
 40
1.0
 40
1.0
 40
1.0
 10
61.45052063936077
 20
183.1482686141335
 30
0.0
 10
60.87689465467797
 20
182.7846896111358
 30
0.0
 10
60.09492944910779
 20
182.2890598150463
 30
0.0
 10
59.22015668217964
 20
181.7346061833387
 30
0.0
 10
58.92141972891543
 20
181.545258966639
 30
0.0
 10
58.83223275036806
 20
181.4887299501605
 30
0.0
  0
ARC
  5
F0
330
1F
100
AcDbEntity
  8
0
  6
Continuous
 62
     7
370
    25
100
AcDbCircle
 10
61.0613731751
 20
183.1533285303
 30
0.0
 40
0.3891803587990348
100
AcDbArc
 50
359.2550497405
 51
37.8816701894
  0
LINE
  5
F1
330
1F
100
AcDbEntity
  8
0
  6
Continuous
 62
     7
370
    25
100
AcDbLine
 10
43.0322327504
 20
181.4066654526
 30
0.0
 11
41.2971151496
 21
182.3150134517
 31
0.0
  0
ARC
  5
F2
330
1F
100
AcDbEntity
  8
0
  6
Continuous
 62
     7
370
    25
100
AcDbCircle
 10
41.6845167229
 20
182.3521802738
 30
0.0
 40
0.3891803587959599
100
AcDbArc
 50
146.8534925694
 51
185.4801130186
  0
ARC
  5
F3
330
1F
100
AcDbEntity
  8
0
  6
Continuous
 62
     7
370
    25
100
AcDbCircle
 10
36.9834129918
 20
189.7692072051
 30
0.0
 40
0.3891803588373939
100
AcDbArc
 50
239.2550497424
 51
277.8816701874
  0
SPLINE
  5
F4
330
1F
100
AcDbEntity
  8
0
  6
Continuous
 62
     7
370
    25
100
AcDbSpline
210
0.0
220
0.0
230
1.0
 70
    24
 71
     3
 72
    12
 73
     8
 74
     0
 42
0.00000001
 43
0.00000001
 40
0.0
 40
0.0
 40
0.0
 40
0.0
 40
0.3013828945620851
 40
0.4108442493795522
 40
0.6247185195336474
 40
0.6986171054378659
 40
1.0
 40
1.0
 40
1.0
 40
1.0
 10
36.78445724377236
 20
189.4347255732658
 30
0.0
 10
36.75640194640115
 20
190.1132809661115
 30
0.0
 10
36.71815704996676
 20
191.0382856231977
 30
0.0
 10
36.65972356834726
 20
192.4515785764357
 30
0.0
 10
36.62249825890365
 20
193.3519231402072
 30
0.0
 10
36.56741050030307
 20
194.6842952474665
 30
0.0
 10
36.53247689818892
 20
195.5292117633159
 30
0.0
 10
36.5044222494236
 20
196.2077514687489
 30
0.0
  0
ARC
  5
F5
330
1F
100
AcDbEntity
  8
0
  6
Continuous
 62
     7
370
    25
100
AcDbCircle
 10
36.7303104482
 20
195.8908352758
 30
0.0
 40
0.3891803587961285
100
AcDbArc
 50
86.8534925694
 51
125.4801130186
  0
ARC
  5
F6
330
1F
100
AcDbEntity
  8
0
  6
Continuous
 62
     7
370
    25
100
AcDbCircle
 10
54.7519120842
 20
207.3133930577
 30
0.0
 40
0.3891803588377802
100
AcDbArc
 50
119.2550497425
 51
157.8816701874
  0
SPLINE
  5
F7
330
1F
100
AcDbEntity
  8
0
  6
Continuous
 62
     7
370
    25
100
AcDbSpline
210
0.0
220
0.0
230
1.0
 70
    24
 71
     3
 72
    12
 73
     8
 74
     0
 42
0.00000001
 43
0.00000001
 40
0.0
 40
0.0
 40
0.0
 40
0.0
 40
0.3013828945621531
 40
0.4108442493795583
 40
0.6247185195336382
 40
0.6986171054378614
 40
1.0
 40
1.0
 40
1.0
 40
1.0
 10
54.56172036797272
 20
207.6529346056366
 30
0.0
 10
55.16339422473774
 20
207.3379535094479
 30
0.0
 10
55.98359420461082
 20
206.9085722327821
 30
0.0
 10
57.23675854591373
 20
206.2525306356772
 30
0.0
 10
58.035092465021
 20
205.8345964174333
 30
0.0
 10
59.21650443650147
 20
205.2161177621893
 30
0.0
 10
59.96569040436137
 20
204.8239128911411
 30
0.0
 10
60.56735035112534
 20
204.5089390769497
 30
0.0
  0
ARC
  5
F8
330
1F
100
AcDbEntity
  8
0
  6
Continuous
 62
     7
370
    25
100
AcDbCircle
 10
60.1799487778
 20
204.4717722548
 30
0.0
 40
0.3891803587964391
100
AcDbArc
 50
326.8534925694
 51
5.4801130186
  0
ARC
  5
F9
330
1F
100
AcDbEntity
  8
0
  6
Continuous
 62
     7
370
    25
100
AcDbCircle
 10
40.8030923257
 20
203.6706239984
 30
0.0
 40
0.3891803588374998
100
AcDbArc
 50
179.2550497425
 51
217.8816701874
  0
SPLINE
  5
FA
330
1F
100
AcDbEntity
  8
0
  6
Continuous
 62
     7
370
    25
100
AcDbSpline
210
0.0
220
0.0
230
1.0
 70
    24
 71
     3
 72
    12
 73
     8
 74
     0
 42
0.00000001
 43
0.00000001
 40
0.0
 40
0.0
 40
0.0
 40
0.0
 40
0.3013828945621598
 40
0.4108442493795855
 40
0.6247185195336551
 40
0.6986171054378626
 40
1.0
 40
1.0
 40
1.0
 40
1.0
 10
40.41394486137648
 20
203.675683914557
 30
0.0
 10
40.98756342077023
 20
204.0392582112143
 30
0.0
 10
41.76951850420882
 20
204.5348815916349
 30
0.0
 10
42.96424936389246
 20
205.2921329477677
 30
0.0
 10
43.72535797355617
 20
205.7745432932953
 30
0.0
 10
44.85168218643595
 20
206.4884367453106
 30
0.0
 10
45.56593455218164
 20
206.9411483901117
 30
0.0
 10
46.13953985018035
 20
207.3047142813533
 30
0.0
  0
ARC
  5
FB
330
1F
100
AcDbEntity
  8
0
  6
Continuous
 62
     7
370
    25
100
AcDbCircle
 10
45.9780264756
 20
206.9506312663
 30
0.0
 40
0.3891803587976708
100
AcDbArc
 50
26.8534925694
 51
65.4801130185
  0
SPLINE
  5
FC
330
1F
100
AcDbEntity
  8
0
  6
Continuous
 62
     7
370
    25
100
AcDbSpline
210
0.0
220
0.0
230
1.0
 70
    24
 71
     3
 72
    12
 73
     8
 74
     0
 42
0.00000001
 43
0.00000001
 40
0.0
 40
0.0
 40
0.0
 40
0.0
 40
0.3013828945621506
 40
0.4108442493795524
 40
0.6247185195336314
 40
0.69861710543785
 40
0.9999999999999999
 40
0.9999999999999999
 40
0.9999999999999999
 40
0.9999999999999999
 10
65.08000825696483
 20
197.3892269554246
 30
0.0
 10
65.1080635543361
 20
196.7106715625788
 30
0.0
 10
65.14630845077032
 20
195.7856669054924
 30
0.0
 10
65.20474193239009
 20
194.3723739522549
 30
0.0
 10
65.24196724183336
 20
193.472029388483
 30
0.0
 10
65.29705500043428
 20
192.1396572812242
 30
0.0
 10
65.33198860254826
 20
191.2947407653746
 30
0.0
 10
65.36004325131353
 20
190.6162010599415
 30
0.0
  0
ARC
  5
FD
330
1F
100
AcDbEntity
  8
0
  6
Continuous
 62
     7
370
    25
100
AcDbCircle
 10
65.1341550525
 20
190.9331172528
 30
0.0
 40
0.3891803587960581
100
AcDbArc
 50
266.8534925694
 51
305.4801130186
  0
ARC
  5
FE
330
1F
100
AcDbEntity
  8
0
  6
Continuous
 62
     7
370
    25
100
AcDbCircle
 10
64.8810525089
 20
197.0547453237
 30
0.0
 40
0.3891803587977125
100
AcDbArc
 50
59.2550497404
 51
97.8816701894
  0
LINE
  5
FF
330
1F
100
AcDbEntity
  8
0
  6
Continuous
 62
     7
370
    25
100
AcDbLine
 10
60.5673503511
 20
204.5089390769
 30
0.0
 11
62.1153446934
 21
203.6985516065
 31
0.0
  0
LINE
  5
100
330
1F
100
AcDbEntity
  8
0
  6
Continuous
 62
     7
370
    25
100
AcDbLine
 10
62.1153446934
 20
203.6985516065
 30
0.0
 11
61.8834460008
 21
203.255580957
 31
0.0
  0
LINE
  5
101
330
1F
100
AcDbEntity
  8
0
  6
Continuous
 62
     7
370
    25
100
AcDbLine
 10
65.3600432513
 20
190.6162010599
 30
0.0
 11
65.4322242861
 21
188.8704048994
 31
0.0
  0
LINE
  5
102
330
1F
100
AcDbEntity
  8
0
  6
Continuous
 62
     7
370
    25
100
AcDbLine
 10
65.4322242861
 20
188.8704048994
 30
0.0
 11
64.9326511042
 21
188.8497497335
 31
0.0
  0
LINE
  5
103
330
1F
100
AcDbEntity
  8
0
  6
Continuous
 62
     7
370
    25
100
AcDbLine
 10
46.1395398502
 20
207.3047142814
 30
0.0
 11
47.6153531576
 21
208.2401229714
 31
0.0
  0
LINE
  5
104
330
1F
100
AcDbEntity
  8
0
  6
Continuous
 62
     7
370
    25
100
AcDbLine
 10
47.6153531576
 20
208.2401229714
 30
0.0
 11
47.883027647
 21
207.8178074878
 31
0.0
  0
LINE
  5
105
330
1F
100
AcDbEntity
  8
0
  6
Continuous
 62
     7
370
    25
100
AcDbLine
 10
36.5044222494
 20
196.2077514687
 30
0.0
 11
36.4322412146
 21
197.9535476293
 31
0.0
  0
LINE
  5
106
330
1F
100
AcDbEntity
  8
0
  6
Continuous
 62
     7
370
    25
100
AcDbLine
 10
36.9318143966
 20
197.9742027951
 30
0.0
 11
36.4322412146
 21
197.9535476293
 31
0.0
  0
LINE
  5
107
330
1F
100
AcDbEntity
  8
0
  6
Continuous
 62
     7
370
    25
100
AcDbLine
 10
41.2971151496
 20
182.3150134517
 30
0.0
 11
39.7491208073
 21
183.1254009222
 31
0.0
  0
LINE
  5
108
330
1F
100
AcDbEntity
  8
0
  6
Continuous
 62
     7
370
    25
100
AcDbLine
 10
39.7491208073
 20
183.1254009222
 30
0.0
 11
39.9810195
 21
183.5683715717
 31
0.0
  0
LINE
  5
109
330
1F
100
AcDbEntity
  8
0
  6
Continuous
 62
     7
370
    25
100
AcDbLine
 10
65.0078272222
 20
199.135023116
 30
0.0
 11
65.080008257
 21
197.3892269554
 31
0.0
  0
LINE
  5
10A
330
1F
100
AcDbEntity
  8
0
  6
Continuous
 62
     7
370
    25
100
AcDbLine
 10
64.5082540402
 20
199.1143679501
 30
0.0
 11
65.0078272222
 21
199.135023116
 31
0.0
  0
LINE
  5
10B
330
1F
100
AcDbEntity
  8
0
  6
Continuous
 62
     7
370
    25
100
AcDbLine
 10
52.7818273331
 20
208.0203514265
 30
0.0
 11
53.0137260257
 21
208.4633220761
 31
0.0
  0
LINE
  5
10C
330
1F
100
AcDbEntity
  8
0
  6
Continuous
 62
     7
370
    25
100
AcDbLine
 10
53.0137260257
 20
208.4633220761
 30
0.0
 11
54.561720368
 21
207.6529346056
 31
0.0
  0
LINE
  5
10D
330
1F
100
AcDbEntity
  8
0
  6
Continuous
 62
     7
370
    25
100
AcDbLine
 10
62.9263339468
 20
184.0836773042
 30
0.0
 11
61.4505206394
 21
183.1482686141
 31
0.0
  0
LINE
  5
10E
330
1F
100
AcDbEntity
  8
0
  6
Continuous
 62
     7
370
    25
100
AcDbLine
 10
62.6586594575
 20
184.5059927879
 30
0.0
 11
62.9263339468
 21
184.0836773042
 31
0.0
  0
LINE
  5
10F
330
1F
100
AcDbEntity
  8
0
  6
Continuous
 62
     7
370
    25
100
AcDbLine
 10
39.2058060432
 20
202.3179597408
 30
0.0
 11
38.9381315539
 21
202.7402752245
 31
0.0
  0
LINE
  5
110
330
1F
100
AcDbEntity
  8
0
  6
Continuous
 62
     7
370
    25
100
AcDbLine
 10
38.9381315539
 20
202.7402752245
 30
0.0
 11
40.4139448614
 21
203.6756839146
 31
0.0
  0
LINE
  5
111
330
1F
100
AcDbEntity
  8
0
  6
Continuous
 62
     7
370
    25
100
AcDbLine
 10
37.3562114605
 20
187.7095845786
 30
0.0
 11
36.8566382786
 21
187.6889294127
 31
0.0
  0
LINE
  5
112
330
1F
100
AcDbEntity
  8
0
  6
Continuous
 62
     7
370
    25
100
AcDbLine
 10
36.8566382786
 20
187.6889294127
 30
0.0
 11
36.7844572438
 21
189.4347255733
 31
0.0
  0
ARC
  5
113
330
1F
100
AcDbEntity
  8
0
  6
Continuous
 62
     7
370
    25
100
AcDbCircle
 10
64.4288999492
 20
201.0336541981
 30
0.0
 40
0.4999999999999614
100
AcDbArc
 50
2.3675813795
 51
29.453771138
  0
LINE
  5
114
330
1F
100
AcDbEntity
  8
0
  6
Continuous
 62
     7
370
    25
100
AcDbLine
 10
64.4288999492
 20
201.0336541981
 30
0.0
 11
64.9284731311
 21
201.0543093639
 31
0.0
  0
LINE
  5
115
330
1F
100
AcDbEntity
  8
0
  6
Continuous
 62
     7
370
    25
100
AcDbLine
 10
64.8642763104
 20
201.2795147766
 30
0.0
 11
64.4288999492
 21
201.0336541981
 31
0.0
  0
LINE
  5
116
330
1F
100
AcDbEntity
  8
0
  6
Continuous
 62
     7
370
    25
100
AcDbLine
 10
64.5082540402
 20
199.1143679501
 30
0.0
 11
64.4288999492
 21
201.0336541981
 31
0.0
  0
LINE
  5
117
330
1F
100
AcDbEntity
  8
0
  6
Continuous
 62
     7
370
    25
100
AcDbLine
 10
64.9284731311
 20
201.0543093639
 30
0.0
 11
65.0078272222
 21
199.135023116
 31
0.0
  0
ARC
  5
118
330
1F
100
AcDbEntity
  8
0
  6
Continuous
 62
     7
370
    25
100
AcDbCircle
 10
63.5852736941
 20
202.3646604917
 30
0.0
 40
0.5000000000000147
100
AcDbArc
 50
35.2813916209
 51
62.3675813795
  0
LINE
  5
119
330
1F
100
AcDbEntity
  8
0
  6
Continuous
 62
     7
370
    25
100
AcDbLine
 10
63.5852736941
 20
202.3646604917
 30
0.0
 11
63.9934363052
 21
202.6534567571
 31
0.0
  0
LINE
  5
11A
330
1F
100
AcDbEntity
  8
0
  6
Continuous
 62
     7
370
    25
100
AcDbLine
 10
63.8171723868
 20
202.8076311413
 30
0.0
 11
63.5852736941
 21
202.3646604917
 31
0.0
  0
ARC
  5
11B
330
1F
100
AcDbEntity
  8
0
  6
Continuous
 62
     7
370
    25
100
AcDbCircle
 10
50.9322327504
 20
193.4119762643
 30
0.0
 40
16.00000000000002
100
AcDbArc
 50
29.453771138
 51
35.2813916209
  0
ARC
  5
11C
330
1F
100
AcDbEntity
  8
0
  6
Continuous
 62
     7
370
    25
100
AcDbCircle
 10
50.9322327504
 20
193.4119762643
 30
0.0
 40
15.50000000000006
100
AcDbArc
 50
29.453771138
 51
35.2813916209
  0
LINE
  5
11D
330
1F
100
AcDbEntity
  8
0
  6
Continuous
 62
     7
370
    25
100
AcDbLine
 10
63.5852736941
 20
202.3646604917
 30
0.0
 11
61.8834460008
 21
203.255580957
 31
0.0
  0
LINE
  5
11E
330
1F
100
AcDbEntity
  8
0
  6
Continuous
 62
     7
370
    25
100
AcDbLine
 10
62.1153446934
 20
203.6985516065
 30
0.0
 11
63.8171723868
 21
202.8076311413
 31
0.0
  0
ARC
  5
11F
330
1F
100
AcDbEntity
  8
0
  6
Continuous
 62
     7
370
    25
100
AcDbCircle
 10
64.2811330598
 20
185.5343585706
 30
0.0
 40
0.5000000000000043
100
AcDbArc
 50
302.3675813795
 51
329.4537711381
  0
LINE
  5
120
330
1F
100
AcDbEntity
  8
0
  6
Continuous
 62
     7
370
    25
100
AcDbLine
 10
64.2811330598
 20
185.5343585706
 30
0.0
 11
64.5488075491
 21
185.1120430869
 31
0.0
  0
LINE
  5
121
330
1F
100
AcDbEntity
  8
0
  6
Continuous
 62
     7
370
    25
100
AcDbLine
 10
64.7117427472
 20
185.2802418708
 30
0.0
 11
64.2811330598
 21
185.5343585706
 31
0.0
  0
LINE
  5
122
330
1F
100
AcDbEntity
  8
0
  6
Continuous
 62
     7
370
    25
100
AcDbLine
 10
65.4322242861
 20
188.8704048994
 30
0.0
 11
65.5115783772
 21
186.9511186515
 31
0.0
  0
LINE
  5
123
330
1F
100
AcDbEntity
  8
0
  6
Continuous
 62
     7
370
    25
100
AcDbLine
 10
65.5115783772
 20
186.9511186515
 30
0.0
 11
65.0120051952
 21
186.9304634856
 31
0.0
  0
LINE
  5
124
330
1F
100
AcDbEntity
  8
0
  6
Continuous
 62
     7
370
    25
100
AcDbLine
 10
65.0120051952
 20
186.9304634856
 30
0.0
 11
64.9326511042
 21
188.8497497335
 31
0.0
  0
LINE
  5
125
330
1F
100
AcDbEntity
  8
0
  6
Continuous
 62
     7
370
    25
100
AcDbLine
 10
62.6586594575
 20
184.5059927879
 30
0.0
 11
64.2811330598
 21
185.5343585706
 31
0.0
  0
ARC
  5
126
330
1F
100
AcDbEntity
  8
0
  6
Continuous
 62
     7
370
    25
100
AcDbCircle
 10
50.9322327504
 20
193.4119762643
 30
0.0
 40
15.50000000000005
100
AcDbArc
 50
329.453771138
 51
335.2813916209
  0
LINE
  5
127
330
1F
100
AcDbEntity
  8
0
  6
Continuous
 62
     7
370
    25
100
AcDbLine
 10
52.7818273331
 20
208.0203514265
 30
0.0
 11
51.0799996397
 21
208.9112718918
 31
0.0
  0
LINE
  5
128
330
1F
100
AcDbEntity
  8
0
  6
Continuous
 62
     7
370
    25
100
AcDbLine
 10
49.5055012493
 20
208.8461732705
 30
0.0
 11
47.883027647
 21
207.8178074878
 31
0.0
  0
ARC
  5
129
330
1F
100
AcDbEntity
  8
0
  6
Continuous
 62
     7
370
    25
100
AcDbCircle
 10
50.9322327504
 20
193.4119762643
 30
0.0
 40
15.50000000000002
100
AcDbArc
 50
89.453771138
 51
95.2813916209
  0
LINE
  5
12A
330
1F
100
AcDbEntity
  8
0
  6
Continuous
 62
     7
370
    25
100
AcDbLine
 10
51.0799996397
 20
208.9112718918
 30
0.0
 11
51.3118983323
 21
209.3542425413
 31
0.0
  0
LINE
  5
12B
330
1F
100
AcDbEntity
  8
0
  6
Continuous
 62
     7
370
    25
100
AcDbLine
 10
51.3118983323
 20
209.3542425413
 30
0.0
 11
53.0137260257
 21
208.4633220761
 31
0.0
  0
LINE
  5
12C
330
1F
100
AcDbEntity
  8
0
  6
Continuous
 62
     7
370
    25
100
AcDbLine
 10
65.4661914031
 20
186.7213824282
 30
0.0
 11
65.0120051952
 21
186.9304634856
 31
0.0
  0
ARC
  5
12D
330
1F
100
AcDbEntity
  8
0
  6
Continuous
 62
     7
370
    25
100
AcDbCircle
 10
65.0120051952
 20
186.9304634856
 30
0.0
 40
0.4999999999999649
100
AcDbArc
 50
335.2813916209
 51
2.3675813795
  0
ARC
  5
12E
330
1F
100
AcDbEntity
  8
0
  6
Continuous
 62
     7
370
    25
100
AcDbCircle
 10
50.9322327504
 20
193.4119762643
 30
0.0
 40
16.00000000000003
100
AcDbArc
 50
329.453771138
 51
335.2813916209
  0
LINE
  5
12F
330
1F
100
AcDbEntity
  8
0
  6
Continuous
 62
     7
370
    25
100
AcDbLine
 10
64.5488075491
 20
185.1120430869
 30
0.0
 11
62.9263339468
 21
184.0836773042
 31
0.0
  0
ARC
  5
130
330
1F
100
AcDbEntity
  8
0
  6
Continuous
 62
     7
370
    25
100
AcDbCircle
 10
51.0799996397
 20
208.9112718918
 30
0.0
 40
0.5000000000000573
100
AcDbArc
 50
62.3675813795
 51
89.453771138
  0
LINE
  5
131
330
1F
100
AcDbEntity
  8
0
  6
Continuous
 62
     7
370
    25
100
AcDbLine
 10
51.0799996397
 20
208.9112718918
 30
0.0
 11
51.0847663135
 21
209.4112491701
 31
0.0
  0
LINE
  5
132
330
1F
100
AcDbEntity
  8
0
  6
Continuous
 62
     7
370
    25
100
AcDbLine
 10
47.6153531576
 20
208.2401229714
 30
0.0
 11
49.23782676
 21
209.2684887542
 31
0.0
  0
LINE
  5
133
330
1F
100
AcDbEntity
  8
0
  6
Continuous
 62
     7
370
    25
100
AcDbLine
 10
49.23782676
 20
209.2684887542
 30
0.0
 11
49.5055012493
 21
208.8461732705
 31
0.0
  0
ARC
  5
134
330
1F
100
AcDbEntity
  8
0
  6
Continuous
 62
     7
370
    25
100
AcDbCircle
 10
49.5055012493
 20
208.8461732705
 30
0.0
 40
0.5000000000000258
100
AcDbArc
 50
95.2813916209
 51
122.3675813795
  0
LINE
  5
135
330
1F
100
AcDbEntity
  8
0
  6
Continuous
 62
     7
370
    25
100
AcDbLine
 10
49.5055012493
 20
208.8461732705
 30
0.0
 11
49.4594776525
 21
209.3440505932
 31
0.0
  0
ARC
  5
136
330
1F
100
AcDbEntity
  8
0
  6
Continuous
 62
     7
370
    25
100
AcDbCircle
 10
50.9322327504
 20
193.4119762643
 30
0.0
 40
16.00000000000005
100
AcDbArc
 50
89.453771138
 51
95.2813916209
  0
LINE
  5
137
330
1F
100
AcDbEntity
  8
0
  6
Continuous
 62
     7
370
    25
100
AcDbLine
 10
39.2058060432
 20
202.3179597408
 30
0.0
 11
37.5833324409
 21
201.2895939581
 31
0.0
  0
LINE
  5
138
330
1F
100
AcDbEntity
  8
0
  6
Continuous
 62
     7
370
    25
100
AcDbLine
 10
37.5833324409
 20
201.2895939581
 30
0.0
 11
37.3156579516
 21
201.7119094417
 31
0.0
  0
LINE
  5
139
330
1F
100
AcDbEntity
  8
0
  6
Continuous
 62
     7
370
    25
100
AcDbLine
 10
37.3156579516
 20
201.7119094417
 30
0.0
 11
38.9381315539
 21
202.7402752245
 31
0.0
  0
LINE
  5
13A
330
1F
100
AcDbEntity
  8
0
  6
Continuous
 62
     7
370
    25
100
AcDbLine
 10
36.8524603055
 20
199.8934890431
 30
0.0
 11
36.9318143966
 21
197.9742027951
 31
0.0
  0
ARC
  5
13B
330
1F
100
AcDbEntity
  8
0
  6
Continuous
 62
     7
370
    25
100
AcDbCircle
 10
50.9322327504
 20
193.4119762643
 30
0.0
 40
15.5
100
AcDbArc
 50
149.453771138
 51
155.2813916209
  0
LINE
  5
13C
330
1F
100
AcDbEntity
  8
0
  6
Continuous
 62
     7
370
    25
100
AcDbLine
 10
38.2791918066
 20
184.459292037
 30
0.0
 11
39.9810195
 21
183.5683715717
 31
0.0
  0
ARC
  5
13D
330
1F
100
AcDbEntity
  8
0
  6
Continuous
 62
     7
370
    25
100
AcDbCircle
 10
50.9322327504
 20
193.4119762643
 30
0.0
 40
15.50000000000005
100
AcDbArc
 50
209.453771138
 51
215.2813916209
  0
LINE
  5
13E
330
1F
100
AcDbEntity
  8
0
  6
Continuous
 62
     7
370
    25
100
AcDbLine
 10
37.3562114605
 20
187.7095845786
 30
0.0
 11
37.4355655516
 21
185.7902983306
 31
0.0
  0
LINE
  5
13F
330
1F
100
AcDbEntity
  8
0
  6
Continuous
 62
     7
370
    25
100
AcDbLine
 10
39.7491208073
 20
183.1254009222
 30
0.0
 11
38.047293114
 21
184.0163213874
 31
0.0
  0
LINE
  5
140
330
1F
100
AcDbEntity
  8
0
  6
Continuous
 62
     7
370
    25
100
AcDbLine
 10
38.047293114
 20
184.0163213874
 30
0.0
 11
38.2791918066
 21
184.459292037
 31
0.0
  0
LINE
  5
141
330
1F
100
AcDbEntity
  8
0
  6
Continuous
 62
     7
370
    25
100
AcDbLine
 10
36.8524603055
 20
199.8934890431
 30
0.0
 11
36.3982740976
 21
200.1025701005
 31
0.0
  0
ARC
  5
142
330
1F
100
AcDbEntity
  8
0
  6
Continuous
 62
     7
370
    25
100
AcDbCircle
 10
50.9322327504
 20
193.4119762643
 30
0.0
 40
16.00000000000002
100
AcDbArc
 50
149.453771138
 51
155.2813916209
  0
LINE
  5
143
330
1F
100
AcDbEntity
  8
0
  6
Continuous
 62
     7
370
    25
100
AcDbLine
 10
37.5833324409
 20
201.2895939581
 30
0.0
 11
37.1527227535
 21
201.5437106579
 31
0.0
  0
LINE
  5
144
330
1F
100
AcDbEntity
  8
0
  6
Continuous
 62
     7
370
    25
100
AcDbLine
 10
36.4322412146
 20
197.9535476293
 30
0.0
 11
36.3528871236
 21
199.8728338772
 31
0.0
  0
LINE
  5
145
330
1F
100
AcDbEntity
  8
0
  6
Continuous
 62
     7
370
    25
100
AcDbLine
 10
36.8524603055
 20
199.8934890431
 30
0.0
 11
36.3528871236
 21
199.8728338772
 31
0.0
  0
ARC
  5
146
330
1F
100
AcDbEntity
  8
0
  6
Continuous
 62
     7
370
    25
100
AcDbCircle
 10
36.8524603055
 20
199.8934890431
 30
0.0
 40
0.500000000000017
100
AcDbArc
 50
155.2813916209
 51
182.3675813795
  0
LINE
  5
147
330
1F
100
AcDbEntity
  8
0
  6
Continuous
 62
     7
370
    25
100
AcDbLine
 10
37.8710291955
 20
184.1704957716
 30
0.0
 11
38.2791918066
 21
184.459292037
 31
0.0
  0
ARC
  5
148
330
1F
100
AcDbEntity
  8
0
  6
Continuous
 62
     7
370
    25
100
AcDbCircle
 10
50.9322327504
 20
193.4119762643
 30
0.0
 40
16.0
100
AcDbArc
 50
209.453771138
 51
215.2813916209
  0
LINE
  5
149
330
1F
100
AcDbEntity
  8
0
  6
Continuous
 62
     7
370
    25
100
AcDbLine
 10
37.4355655516
 20
185.7902983306
 30
0.0
 11
37.0001891903
 21
185.5444377521
 31
0.0
  0
LINE
  5
14A
330
1F
100
AcDbEntity
  8
0
  6
Continuous
 62
     7
370
    25
100
AcDbLine
 10
37.4355655516
 20
185.7902983306
 30
0.0
 11
36.9359923696
 21
185.7696431648
 31
0.0
  0
LINE
  5
14B
330
1F
100
AcDbEntity
  8
0
  6
Continuous
 62
     7
370
    25
100
AcDbLine
 10
36.9359923696
 20
185.7696431648
 30
0.0
 11
36.8566382786
 21
187.6889294127
 31
0.0
  0
ARC
  5
14C
330
1F
100
AcDbEntity
  8
0
  6
Continuous
 62
     7
370
    25
100
AcDbCircle
 10
37.5833324409
 20
201.2895939581
 30
0.0
 40
0.5000000000000004
100
AcDbArc
 50
122.3675813795
 51
149.453771138
  0
ARC
  5
14D
330
1F
100
AcDbEntity
  8
0
  6
Continuous
 62
     7
370
    25
100
AcDbCircle
 10
37.4355655516
 20
185.7902983306
 30
0.0
 40
0.4999999999999674
100
AcDbArc
 50
182.3675813795
 51
209.453771138
  0
ARC
  5
14E
330
1F
100
AcDbEntity
  8
0
  6
Continuous
 62
     7
370
    25
100
AcDbCircle
 10
38.2791918066
 20
184.459292037
 30
0.0
 40
0.4999999999999518
100
AcDbArc
 50
215.2813916209
 51
242.3675813795
  0
ARC
  5
14F
330
1F
100
AcDbEntity
  8
0
  6
Continuous
 62
     7
370
    25
100
AcDbCircle
 10
50.9322327504
 20
193.4119762643
 30
0.0
 40
9.575000000000031
100
AcDbArc
 50
325.5951096848
 51
119.4063269879
  0
ARC
  5
150
330
1F
100
AcDbEntity
  8
0
  6
Continuous
 62
     7
370
    25
100
AcDbCircle
 10
50.9322327504
 20
193.4119762643
 30
0.0
 40
9.574999999999957
100
AcDbArc
 50
119.4063269879
 51
214.4048903152
  0
ARC
  5
151
330
1F
100
AcDbEntity
  8
0
  6
Continuous
 62
     7
370
    25
100
AcDbCircle
 10
50.9322327504
 20
193.4119762643
 30
0.0
 40
8.250000000000012
100
AcDbArc
 50
343.2508741362
 51
119.4063269879
  0
ARC
  5
152
330
1F
100
AcDbEntity
  8
0
  6
Continuous
 62
     7
370
    25
100
AcDbCircle
 10
50.9322327504
 20
193.4119762643
 30
0.0
 40
8.249999999999963
100
AcDbArc
 50
119.4063269879
 51
196.7491258638
  0
ARC
  5
153
330
1F
100
AcDbEntity
  8
0
  6
Continuous
 62
     7
370
    25
100
AcDbCircle
 10
50.9322327504
 20
193.4119762643
 30
0.0
 40
8.050000000000047
100
AcDbArc
 50
29.4063269879
 51
191.0780164461
  0
ARC
  5
154
330
1F
100
AcDbEntity
  8
0
  6
Continuous
 62
     7
370
    25
100
AcDbCircle
 10
50.9322327504
 20
193.4119762643
 30
0.0
 40
8.050000000000047
100
AcDbArc
 50
348.9219835539
 51
29.4063269879
  0
CIRCLE
  5
155
330
1F
100
AcDbEntity
  8
0
  6
Continuous
 62
     7
370
    25
100
AcDbCircle
 10
153.4322327504
 20
193.4119762643
 30
0.0
 40
5.074569253689162
  0
CIRCLE
  5
156
330
1F
100
AcDbEntity
  8
0
  6
Continuous
 62
     7
370
    25
100
AcDbCircle
 10
153.4322327504
 20
193.4119762643
 30
0.0
 40
5.328914336627577
  0
CIRCLE
  5
157
330
1F
100
AcDbEntity
  8
0
  6
Continuous
 62
     7
370
    25
100
AcDbCircle
 10
153.4322327504
 20
193.4119762643
 30
0.0
 40
5.925127771161385
  0
CIRCLE
  5
158
330
1F
100
AcDbEntity
  8
0
  6
Continuous
 62
     7
370
    25
100
AcDbCircle
 10
153.4322327504
 20
193.4119762643
 30
0.0
 40
7.149999999999977
  0
LINE
  5
159
330
1F
100
AcDbEntity
  8
0
  6
Continuous
 62
     7
370
    25
100
AcDbLine
 10
151.3721702799
 20
191.7160568625
 30
0.0
 11
150.8373355109
 21
192.790278334
 31
0.0
  0
LINE
  5
15A
330
1F
100
AcDbEntity
  8
0
  6
Continuous
 62
     7
370
    25
100
AcDbLine
 10
152.4911509794
 20
192.2731764135
 30
0.0
 11
151.3721702799
 21
191.7160568625
 31
0.0
  0
SPLINE
  5
15B
330
1F
100
AcDbEntity
  8
0
  6
Continuous
 62
     7
370
    25
100
AcDbSpline
210
0.0
220
0.0
230
1.0
 70
     8
 71
     3
 72
    12
 73
     8
 74
     0
 42
0.00000001
 43
0.00000001
 40
0.0
 40
0.0
 40
0.0
 40
0.0
 40
0.2133534395475693
 40
0.426791931363469
 40
0.6383539739091532
 40
0.8490950351927761
 40
1.0
 40
1.0
 40
1.0
 40
1.0
 10
153.4968111297115
 20
191.936059724389
 30
0.0
 10
153.4523459207698
 20
192.0071912443426
 30
0.0
 10
153.3633977770561
 20
192.1494826404699
 30
0.0
 10
153.1495871881666
 20
192.2930757272694
 30
0.0
 10
152.9064741898455
 20
192.3609179578433
 30
0.0
 10
152.6763128445129
 20
192.3498360842976
 30
0.0
 10
152.5456662280921
 20
192.2957465092006
 30
0.0
 10
152.4911509793936
 20
192.2731764134783
 30
0.0
  0
LINE
  5
15C
330
1F
100
AcDbEntity
  8
0
  6
Continuous
 62
     7
370
    25
100
AcDbLine
 10
154.0539306807
 20
190.8170790249
 30
0.0
 11
153.4968111297
 21
191.9360597244
 31
0.0
  0
LINE
  5
15D
330
1F
100
AcDbEntity
  8
0
  6
Continuous
 62
     7
370
    25
100
AcDbLine
 10
155.1281521523
 20
191.3519137939
 30
0.0
 11
154.0539306807
 21
190.8170790249
 31
0.0
  0
LINE
  5
15E
330
1F
100
AcDbEntity
  8
0
  6
Continuous
 62
     7
370
    25
100
AcDbLine
 10
154.5710326012
 20
192.4708944934
 30
0.0
 11
155.1281521523
 21
191.3519137939
 31
0.0
  0
SPLINE
  5
15F
330
1F
100
AcDbEntity
  8
0
  6
Continuous
 62
     7
370
    25
100
AcDbSpline
210
0.0
220
0.0
230
1.0
 70
     8
 71
     3
 72
    12
 73
     8
 74
     0
 42
0.00000001
 43
0.00000001
 40
0.0
 40
0.0
 40
0.0
 40
0.0
 40
0.2133534395476346
 40
0.4267919313634416
 40
0.6383539739091509
 40
0.8490950351927764
 40
1.0
 40
1.0
 40
1.0
 40
1.0
 10
154.9081492903266
 20
193.4765546436897
 30
0.0
 10
154.8370177703729
 20
193.432089434748
 30
0.0
 10
154.6947263742454
 20
193.3431412910344
 30
0.0
 10
154.5511332874463
 20
193.1293307021447
 30
0.0
 10
154.4832910568722
 20
192.8862177038239
 30
0.0
 10
154.494372930418
 20
192.656056358491
 30
0.0
 10
154.548462505515
 20
192.5254097420702
 30
0.0
 10
154.5710326012372
 20
192.4708944933718
 30
0.0
  0
LINE
  5
160
330
1F
100
AcDbEntity
  8
0
  6
Continuous
 62
     7
370
    25
100
AcDbLine
 10
156.0271299898
 20
194.0336741947
 30
0.0
 11
154.9081492903
 21
193.4765546437
 31
0.0
  0
LINE
  5
161
330
1F
100
AcDbEntity
  8
0
  6
Continuous
 62
     7
370
    25
100
AcDbLine
 10
155.4922952208
 20
195.1078956662
 30
0.0
 11
156.0271299898
 21
194.0336741947
 31
0.0
  0
LINE
  5
162
330
1F
100
AcDbEntity
  8
0
  6
Continuous
 62
     7
370
    25
100
AcDbLine
 10
154.3733145213
 20
194.5507761152
 30
0.0
 11
155.4922952208
 21
195.1078956662
 31
0.0
  0
SPLINE
  5
163
330
1F
100
AcDbEntity
  8
0
  6
Continuous
 62
     7
370
    25
100
AcDbSpline
210
0.0
220
0.0
230
1.0
 70
     8
 71
     3
 72
    12
 73
     8
 74
     0
 42
0.00000001
 43
0.00000001
 40
0.0
 40
0.0
 40
0.0
 40
0.0
 40
0.2133534395475993
 40
0.4267919313634626
 40
0.6383539739091492
 40
0.8490950351927744
 40
1.0
 40
1.0
 40
1.0
 40
1.0
 10
153.3676543710259
 20
194.887892804305
 30
0.0
 10
153.4121195799676
 20
194.8167612843513
 30
0.0
 10
153.5010677236814
 20
194.674469888224
 30
0.0
 10
153.7148783125708
 20
194.5308768014246
 30
0.0
 10
153.9579913108916
 20
194.4630345708506
 30
0.0
 10
154.1881526562246
 20
194.4741164443966
 30
0.0
 10
154.3187992726452
 20
194.5282060194933
 30
0.0
 10
154.3733145213437
 20
194.5507761152155
 30
0.0
  0
LINE
  5
164
330
1F
100
AcDbEntity
  8
0
  6
Continuous
 62
     7
370
    25
100
AcDbLine
 10
152.81053482
 20
196.0068735038
 30
0.0
 11
153.367654371
 21
194.8878928043
 31
0.0
  0
LINE
  5
165
330
1F
100
AcDbEntity
  8
0
  6
Continuous
 62
     7
370
    25
100
AcDbLine
 10
151.7363133485
 20
195.4720387348
 30
0.0
 11
152.81053482
 21
196.0068735038
 31
0.0
  0
LINE
  5
166
330
1F
100
AcDbEntity
  8
0
  6
Continuous
 62
     7
370
    25
100
AcDbLine
 10
152.2934328995
 20
194.3530580353
 30
0.0
 11
151.7363133485
 21
195.4720387348
 31
0.0
  0
SPLINE
  5
167
330
1F
100
AcDbEntity
  8
0
  6
Continuous
 62
     7
370
    25
100
AcDbSpline
210
0.0
220
0.0
230
1.0
 70
     8
 71
     3
 72
    12
 73
     8
 74
     0
 42
0.00000001
 43
0.00000001
 40
0.0
 40
0.0
 40
0.0
 40
0.0
 40
0.2133534395476346
 40
0.4267919313634416
 40
0.6383539739091509
 40
0.8490950351927764
 40
1.0
 40
1.0
 40
1.0
 40
1.0
 10
151.9563162104107
 20
193.3473978850041
 30
0.0
 10
152.0274477303643
 20
193.3918630939459
 30
0.0
 10
152.1697391264917
 20
193.4808112376595
 30
0.0
 10
152.3133322132908
 20
193.6946218265492
 30
0.0
 10
152.3811744438651
 20
193.93773482487
 30
0.0
 10
152.3700925703191
 20
194.1678961702027
 30
0.0
 10
152.3160029952222
 20
194.2985427866235
 30
0.0
 10
152.2934328995
 20
194.353058035322
 30
0.0
  0
LINE
  5
168
330
1F
100
AcDbEntity
  8
0
  6
Continuous
 62
     7
370
    25
100
AcDbLine
 10
150.8373355109
 20
192.790278334
 30
0.0
 11
151.9563162104
 21
193.347397885
 31
0.0
  0
CIRCLE
  5
169
330
1F
100
AcDbEntity
  8
0
  6
Continuous
 62
     7
370
    25
100
AcDbCircle
 10
153.4322327504
 20
193.4119762643
 30
0.0
 40
4.197433366238966
  0
CIRCLE
  5
16A
330
1F
100
AcDbEntity
  8
0
  6
Continuous
 62
     7
370
    25
100
AcDbCircle
 10
153.4322327504
 20
193.4119762643
 30
0.0
 40
4.4999999999999
  0
LINE
  5
16B
330
1F
100
AcDbEntity
  8
0
  6
Continuous
 62
     7
370
    25
100
AcDbLine
 10
-53.6278297201
 20
191.7160568625
 30
0.0
 11
-54.1626644891
 21
192.790278334
 31
0.0
  0
LINE
  5
16C
330
1F
100
AcDbEntity
  8
0
  6
Continuous
 62
     7
370
    25
100
AcDbLine
 10
-52.5088490206
 20
192.2731764135
 30
0.0
 11
-53.6278297201
 21
191.7160568625
 31
0.0
  0
LINE
  5
16D
330
1F
100
AcDbEntity
  8
0
  6
Continuous
 62
     7
370
    25
100
AcDbLine
 10
-50.9460693193
 20
190.8170790249
 30
0.0
 11
-51.5031888703
 21
191.9360597244
 31
0.0
  0
LINE
  5
16E
330
1F
100
AcDbEntity
  8
0
  6
Continuous
 62
     7
370
    25
100
AcDbLine
 10
-49.8718478477
 20
191.3519137939
 30
0.0
 11
-50.9460693193
 21
190.8170790249
 31
0.0
  0
LINE
  5
16F
330
1F
100
AcDbEntity
  8
0
  6
Continuous
 62
     7
370
    25
100
AcDbLine
 10
-50.4289673988
 20
192.4708944934
 30
0.0
 11
-49.8718478477
 21
191.3519137939
 31
0.0
  0
LINE
  5
170
330
1F
100
AcDbEntity
  8
0
  6
Continuous
 62
     7
370
    25
100
AcDbLine
 10
-48.9728700102
 20
194.0336741947
 30
0.0
 11
-50.0918507097
 21
193.4765546437
 31
0.0
  0
LINE
  5
171
330
1F
100
AcDbEntity
  8
0
  6
Continuous
 62
     7
370
    25
100
AcDbLine
 10
-49.5077047792
 20
195.1078956662
 30
0.0
 11
-48.9728700102
 21
194.0336741947
 31
0.0
  0
LINE
  5
172
330
1F
100
AcDbEntity
  8
0
  6
Continuous
 62
     7
370
    25
100
AcDbLine
 10
-50.6266854787
 20
194.5507761152
 30
0.0
 11
-49.5077047792
 21
195.1078956662
 31
0.0
  0
LINE
  5
173
330
1F
100
AcDbEntity
  8
0
  6
Continuous
 62
     7
370
    25
100
AcDbLine
 10
-52.18946518
 20
196.0068735038
 30
0.0
 11
-51.632345629
 21
194.8878928043
 31
0.0
  0
LINE
  5
174
330
1F
100
AcDbEntity
  8
0
  6
Continuous
 62
     7
370
    25
100
AcDbLine
 10
-53.2636866515
 20
195.4720387348
 30
0.0
 11
-52.18946518
 21
196.0068735038
 31
0.0
  0
LINE
  5
175
330
1F
100
AcDbEntity
  8
0
  6
Continuous
 62
     7
370
    25
100
AcDbLine
 10
-52.7065671005
 20
194.3530580353
 30
0.0
 11
-53.2636866515
 21
195.4720387348
 31
0.0
  0
SPLINE
  5
176
330
1F
100
AcDbEntity
  8
0
  6
Continuous
 62
     7
370
    25
100
AcDbSpline
210
0.0
220
0.0
230
1.0
 70
     8
 71
     3
 72
    12
 73
     8
 74
     0
 42
0.00000001
 43
0.00000001
 40
0.0
 40
0.0
 40
0.0
 40
0.0
 40
0.2133534395476331
 40
0.4267919313634521
 40
0.6383539739091598
 40
0.8490950351927853
 40
1.0
 40
1.0
 40
1.0
 40
1.0
 10
-53.04368378958943
 20
193.3473978850006
 30
0.0
 10
-52.97255226963576
 20
193.3918630939423
 30
0.0
 10
-52.83026087350828
 20
193.4808112376559
 30
0.0
 10
-52.68666778670922
 20
193.6946218265456
 30
0.0
 10
-52.61882555613498
 20
193.9377348248664
 30
0.0
 10
-52.62990742968105
 20
194.1678961701991
 30
0.0
 10
-52.68399700477788
 20
194.2985427866198
 30
0.0
 10
-52.70656710050009
 20
194.3530580353184
 30
0.0
  0
LINE
  5
177
330
1F
100
AcDbEntity
  8
0
  6
Continuous
 62
     7
370
    25
100
AcDbLine
 10
-54.1626644891
 20
192.790278334
 30
0.0
 11
-53.0436837896
 21
193.347397885
 31
0.0
  0
CIRCLE
  5
178
330
1F
100
AcDbEntity
  8
0
  6
Continuous
 62
     7
370
    25
100
AcDbCircle
 10
-51.5677672496
 20
193.4119762643
 30
0.0
 40
4.197433366238976
  0
SPLINE
  5
179
330
1F
100
AcDbEntity
  8
0
  6
Continuous
 62
     7
370
    25
100
AcDbSpline
210
0.0
220
0.0
230
1.0
 70
     8
 71
     3
 72
    12
 73
     8
 74
     0
 42
0.00000001
 43
0.00000001
 40
0.0
 40
0.0
 40
0.0
 40
0.0
 40
0.2133534395476331
 40
0.4267919313634521
 40
0.6383539739091598
 40
0.8490950351927853
 40
1.0
 40
1.0
 40
1.0
 40
1.0
 10
-50.09185070967351
 20
193.4765546436862
 30
0.0
 10
-50.16298222962715
 20
193.4320894347447
 30
0.0
 10
-50.30527362575462
 20
193.3431412910308
 30
0.0
 10
-50.44886671255372
 20
193.1293307021412
 30
0.0
 10
-50.51670894312799
 20
192.8862177038202
 30
0.0
 10
-50.50562706958195
 20
192.6560563584875
 30
0.0
 10
-50.45153749448508
 20
192.5254097420667
 30
0.0
 10
-50.42896739876282
 20
192.4708944933683
 30
0.0
  0
SPLINE
  5
17A
330
1F
100
AcDbEntity
  8
0
  6
Continuous
 62
     7
370
    25
100
AcDbSpline
210
0.0
220
0.0
230
1.0
 70
     8
 71
     3
 72
    12
 73
     8
 74
     0
 42
0.00000001
 43
0.00000001
 40
0.0
 40
0.0
 40
0.0
 40
0.0
 40
0.21335343954758
 40
0.4267919313634571
 40
0.6383539739091382
 40
0.8490950351927343
 40
1.0
 40
1.0
 40
1.0
 40
1.0
 10
-51.63234562897431
 20
194.8878928043013
 30
0.0
 10
-51.58788042003265
 20
194.8167612843478
 30
0.0
 10
-51.49893227631888
 20
194.6744698882202
 30
0.0
 10
-51.2851216874293
 20
194.530876801421
 30
0.0
 10
-51.04200868910841
 20
194.463034570847
 30
0.0
 10
-50.81184734377561
 20
194.4741164443928
 30
0.0
 10
-50.68120072735486
 20
194.5282060194898
 30
0.0
 10
-50.62668547865637
 20
194.550776115212
 30
0.0
  0
SPLINE
  5
17B
330
1F
100
AcDbEntity
  8
0
  6
Continuous
 62
     7
370
    25
100
AcDbSpline
210
0.0
220
0.0
230
1.0
 70
     8
 71
     3
 72
    12
 73
     8
 74
     0
 42
0.00000001
 43
0.00000001
 40
0.0
 40
0.0
 40
0.0
 40
0.0
 40
0.21335343954758
 40
0.4267919313634571
 40
0.6383539739091382
 40
0.8490950351927343
 40
1.0
 40
1.0
 40
1.0
 40
1.0
 10
-51.50318887028862
 20
191.9360597243854
 30
0.0
 10
-51.54765407923031
 20
192.0071912443391
 30
0.0
 10
-51.63660222294406
 20
192.1494826404666
 30
0.0
 10
-51.85041281183361
 20
192.2930757272657
 30
0.0
 10
-52.09352581015447
 20
192.3609179578397
 30
0.0
 10
-52.32368715548724
 20
192.3498360842941
 30
0.0
 10
-52.45433377190803
 20
192.2957465091969
 30
0.0
 10
-52.50884902060654
 20
192.2731764134747
 30
0.0
  0
CIRCLE
  5
17C
330
1F
100
AcDbEntity
  8
0
  6
Continuous
 62
     7
370
    25
100
AcDbCircle
 10
-51.5677672496
 20
193.4119762643
 30
0.0
 40
4.500000000000008
  0
CIRCLE
  5
17D
330
1F
100
AcDbEntity
  8
0
  6
Continuous
 62
     7
370
    25
100
AcDbCircle
 10
-51.5677672496
 20
193.4119762643
 30
0.0
 40
5.328914336627593
  0
CIRCLE
  5
17E
330
1F
100
AcDbEntity
  8
0
  6
Continuous
 62
     7
370
    25
100
AcDbCircle
 10
-51.5677672496
 20
193.4119762643
 30
0.0
 40
5.074569253689154
  0
CIRCLE
  5
17F
330
1F
100
AcDbEntity
  8
0
  6
Continuous
 62
     7
370
    25
100
AcDbCircle
 10
-51.5677672496
 20
193.4119762643
 30
0.0
 40
5.925127771161401
  0
CIRCLE
  5
180
330
1F
100
AcDbEntity
  8
0
  6
Continuous
 62
     7
370
    25
100
AcDbCircle
 10
-51.5677672496
 20
193.4119762643
 30
0.0
 40
7.149999999999988
  0
SPLINE
  5
181
330
1F
100
AcDbEntity
  8
0
  6
Continuous
 62
     7
370
    25
100
AcDbSpline
210
0.0
220
0.0
230
1.0
 70
     8
 71
     3
 72
    11
 73
     7
 74
     0
 42
0.00000001
 43
0.00000001
 40
0.0
 40
0.0
 40
0.0
 40
0.0
 40
0.2200386424382388
 40
0.6637869905998197
 40
0.8890365590789775
 40
1.0
 40
1.0
 40
1.0
 40
1.0
 10
160.3000187062345
 20
198.9593325512176
 30
0.0
 10
160.4952236758881
 20
198.6876042124551
 30
0.0
 10
161.0840953300697
 20
197.8678857564189
 30
0.0
 10
161.5649227982842
 20
196.5878445560013
 30
0.0
 10
161.7772280546176
 20
195.413481383186
 30
0.0
 10
161.7393600174484
 20
194.9031855550711
 30
0.0
 10
161.7268620843294
 20
194.7347679763573
 30
0.0
  0
SPLINE
  5
182
330
1F
100
AcDbEntity
  8
0
  6
Continuous
 62
     7
370
    25
100
AcDbSpline
210
0.0
220
0.0
230
1.0
 70
     8
 71
     3
 72
     9
 73
     5
 74
     0
 42
0.00000001
 43
0.00000001
 40
0.0
 40
0.0
 40
0.0
 40
0.0
 40
0.9209630919902975
 40
1.0
 40
1.0
 40
1.0
 40
1.0
 10
161.9283769300447
 20
198.5841053545643
 30
0.0
 10
161.4161543052972
 20
198.6581783992539
 30
0.0
 10
160.8599728152873
 20
198.7386083810133
 30
0.0
 10
160.3410340237629
 20
198.9431650264496
 30
0.0
 10
160.3000187062345
 20
198.9593325512177
 30
0.0
  0
SPLINE
  5
183
330
1F
100
AcDbEntity
  8
0
  6
Continuous
 62
     7
370
    25
100
AcDbSpline
210
0.0
220
0.0
230
1.0
 70
     8
 71
     3
 72
    10
 73
     6
 74
     0
 42
0.00000001
 43
0.00000001
 40
0.0
 40
0.0
 40
0.0
 40
0.0
 40
0.2596150688488837
 40
0.6297606444810656
 40
1.0
 40
1.0
 40
1.0
 40
1.0
 10
208.9898775006028
 20
194.4095220567211
 30
0.0
 10
204.9244259864279
 20
194.8460701810183
 30
0.0
 10
195.0626665091166
 20
195.9050257698571
 30
0.0
 10
179.3697066620107
 20
197.2587211082276
 30
0.0
 10
167.7426444162327
 20
198.1422733011252
 30
0.0
 10
161.9283769300447
 20
198.5841053545643
 30
0.0
  0
SPLINE
  5
184
330
1F
100
AcDbEntity
  8
0
  6
Continuous
 62
     7
370
    25
100
AcDbSpline
210
0.0
220
0.0
230
1.0
 70
     8
 71
     3
 72
    11
 73
     7
 74
     0
 42
0.00000001
 43
0.00000001
 40
0.0
 40
0.0
 40
0.0
 40
0.0
 40
0.0614641195414043
 40
0.4999988937835358
 40
0.9375097801832714
 40
0.9999999999999999
 40
0.9999999999999999
 40
0.9999999999999999
 40
0.9999999999999999
 10
208.7975553355831
 20
188.6867204155881
 30
0.0
 10
208.8131294271787
 20
188.8027197442228
 30
0.0
 10
208.9398216929681
 20
189.7463521663531
 30
0.0
 10
209.0838419364084
 20
191.5397709801351
 30
0.0
 10
209.0607494304391
 20
193.3407607632038
 30
0.0
 10
208.997751048637
 20
194.2907875534986
 30
0.0
 10
208.9898775006028
 20
194.4095220567211
 30
0.0
  0
SPLINE
  5
185
330
1F
100
AcDbEntity
  8
0
  6
Continuous
 62
     7
370
    25
100
AcDbSpline
210
0.0
220
0.0
230
1.0
 70
     8
 71
     3
 72
    10
 73
     6
 74
     0
 42
0.00000001
 43
0.00000001
 40
0.0
 40
0.0
 40
0.0
 40
0.0
 40
0.259461854077887
 40
0.6296073956705974
 40
1.0
 40
1.0
 40
1.0
 40
1.0
 10
161.5619677420271
 20
187.6811129599991
 30
0.0
 10
165.6481543627771
 20
187.7112701669007
 30
0.0
 10
175.5636516741551
 20
187.7844493267641
 30
0.0
 10
191.3124983786454
 20
188.0424164474602
 30
0.0
 10
202.9679068343947
 20
188.4719046634087
 30
0.0
 10
208.7975553355832
 20
188.6867204155882
 30
0.0
  0
SPLINE
  5
186
330
1F
100
AcDbEntity
  8
0
  6
Continuous
 62
     7
370
    25
100
AcDbSpline
210
0.0
220
0.0
230
1.0
 70
     8
 71
     3
 72
     9
 73
     5
 74
     0
 42
0.00000001
 43
0.00000001
 40
0.0
 40
0.0
 40
0.0
 40
0.0
 40
0.0790369080192365
 40
1.0
 40
1.0
 40
1.0
 40
1.0
 10
159.9120919080672
 20
187.4160550669436
 30
0.0
 10
159.9541001214671
 20
187.429432478371
 30
0.0
 10
160.4856013460561
 20
187.5986877258573
 30
0.0
 10
161.0459277783881
 20
187.6415960120632
 30
0.0
 10
161.5619677420271
 20
187.6811129599991
 30
0.0
  0
SPLINE
  5
187
330
1F
100
AcDbEntity
  8
0
  6
Continuous
 62
     7
370
    25
100
AcDbSpline
210
0.0
220
0.0
230
1.0
 70
     8
 71
     3
 72
    11
 73
     7
 74
     0
 42
0.00000001
 43
0.00000001
 40
0.0
 40
0.0
 40
0.0
 40
0.0
 40
0.0728838064943162
 40
0.4140719411595867
 40
0.9209668754550528
 40
1.0
 40
1.0
 40
1.0
 40
1.0
 10
161.619339630417
 20
191.5352944490888
 30
0.0
 10
161.6233408252072
 20
191.4246511989441
 30
0.0
 10
161.6460726578785
 20
190.7960579960467
 30
0.0
 10
161.2553242971487
 20
189.4254168270439
 30
0.0
 10
160.5733422542029
 20
188.177687282314
 30
0.0
 10
159.9906839857214
 20
187.5065779053272
 30
0.0
 10
159.9120919080673
 20
187.4160550669437
 30
0.0
  0
SPLINE
  5
188
330
1F
100
AcDbEntity
  8
0
  6
Continuous
 62
     7
370
    25
100
AcDbSpline
210
0.0
220
0.0
230
1.0
 70
     8
 71
     3
 72
    10
 73
     6
 74
     0
 42
0.00000001
 43
0.00000001
 40
0.0
 40
0.0
 40
0.0
 40
0.0
 40
0.3880207377811508
 40
0.979063776650665
 40
1.0
 40
1.0
 40
1.0
 40
1.0
 10
161.7268620843294
 20
194.7347679763573
 30
0.0
 10
161.6397899026784
 20
194.3266223556619
 30
0.0
 10
161.4200871633458
 20
193.2967789635109
 30
0.0
 10
161.4790032937162
 20
192.2004122210203
 30
0.0
 10
161.614697442074
 20
191.5572958924793
 30
0.0
 10
161.619339630417
 20
191.5352944490888
 30
0.0
  0
ARC
  5
189
330
1F
100
AcDbEntity
  8
0
  6
Continuous
 62
     7
370
    25
100
AcDbCircle
 10
153.4322327504
 20
193.4119762643
 30
0.0
 40
8.399443654264592
100
AcDbArc
 50
9.0609834605
 51
347.0894674746
  0
SPLINE
  5
18A
330
1F
100
AcDbEntity
  8
0
  6
Continuous
 62
     7
370
    25
100
AcDbSpline
210
0.0
220
0.0
230
1.0
 70
     8
 71
     3
 72
     9
 73
     5
 74
     0
 42
0.00000001
 43
0.00000001
 40
0.0
 40
0.0
 40
0.0
 40
0.0
 40
0.6817923421274276
 40
1.0
 40
1.0
 40
1.0
 40
1.0
 10
159.9120919080672
 20
187.4160550669436
 30
0.0
 10
159.7635300318109
 20
187.2310301156904
 30
0.0
 10
159.5456310219852
 20
186.9596499023608
 30
0.0
 10
159.3085119961721
 20
186.7345827395291
 30
0.0
 10
159.233058906331
 20
186.6629646447805
 30
0.0
  0
ARC
  5
18B
330
1F
100
AcDbEntity
  8
0
  6
Continuous
 62
     7
370
    25
100
AcDbCircle
 10
153.4322327504
 20
193.4119762643
 30
0.0
 40
8.899367501836307
100
AcDbArc
 50
45.4711446636
 51
310.6793062714
  0
LINE
  5
18C
330
1F
100
AcDbEntity
  8
0
  6
Continuous
 62
     7
370
    25
100
AcDbLine
 10
159.6730778084
 20
199.7563119186
 30
0.0
 11
160.3000187062
 21
198.9593325512
 31
0.0
  0
SPLINE
  5
18D
330
1F
100
AcDbEntity
  8
0
  6
Continuous
 62
     7
370
    25
100
AcDbSpline
210
0.0
220
0.0
230
1.0
 70
     8
 71
     3
 72
    10
 73
     6
 74
     0
 42
0.00000001
 43
0.00000001
 40
0.0
 40
0.0
 40
0.0
 40
0.0
 40
0.3702896688583038
 40
0.7405318123903294
 40
0.9999999999999999
 40
0.9999999999999999
 40
0.9999999999999999
 40
0.9999999999999999
 10
208.7941938263502
 20
188.24372379413
 30
0.0
 10
202.9666593770832
 20
188.1191938682164
 30
0.0
 10
191.3123384213069
 20
187.8701499993504
 30
0.0
 10
175.5731435509101
 20
187.5293609958978
 30
0.0
 10
165.6631231082184
 20
187.3133492911537
 30
0.0
 10
161.5797614159018
 20
187.2243430246837
 30
0.0
  0
ARC
  5
18E
330
1F
100
AcDbEntity
  8
0
  6
Continuous
 62
     7
370
    25
100
AcDbCircle
 10
168.8160840112
 20
187.7349687043
 30
0.0
 40
7.254316183339947
100
AcDbArc
 50
180.4253654123
 51
184.0363431988
  0
ARC
  5
18F
330
1F
100
AcDbEntity
  8
0
  6
Continuous
 62
     7
370
    25
100
AcDbCircle
 10
204.5397951569
 20
188.4975177243
 30
0.0
 40
4.261961918864967
100
AcDbArc
 50
356.5860960061
 51
2.544386774
  0
SPLINE
  5
190
330
1F
100
AcDbEntity
  8
0
  6
Continuous
 62
     7
370
    25
100
AcDbSpline
210
0.0
220
0.0
230
1.0
 70
     8
 71
     3
 72
    10
 73
     6
 74
     0
 42
0.00000001
 43
0.00000001
 40
0.0
 40
0.0
 40
0.0
 40
0.0
 40
0.3702717503651152
 40
0.7405122151371748
 40
1.0
 40
1.0
 40
1.0
 40
1.0
 10
161.976796514942
 20
199.0386501075164
 30
0.0
 10
167.7823521657301
 20
198.5208363233787
 30
0.0
 10
179.392972935011
 20
197.4852525070538
 30
0.0
 10
195.0740624021418
 20
196.0889642139919
 30
0.0
 10
204.9477021678562
 20
195.2127857076601
 30
0.0
 10
209.0162649373114
 20
194.8517448620505
 30
0.0
  0
ARC
  5
191
330
1F
100
AcDbEntity
  8
0
  6
Continuous
 62
     7
370
    25
100
AcDbCircle
 10
204.7544262118
 20
194.8841501254
 30
0.0
 40
4.261961921816074
100
AcDbArc
 50
353.6060641635
 51
359.5643549273
  0
ARC
  5
192
330
1F
100
AcDbEntity
  8
0
  6
Continuous
 62
     7
370
    25
100
AcDbCircle
 10
169.1625106301
 20
198.0433531955
 30
0.0
 40
7.254316183339851
100
AcDbArc
 50
172.1141077361
 51
175.7250855227
  0
SPLINE
  5
193
330
1F
100
AcDbEntity
  8
0
  6
Continuous
 62
     7
370
    25
100
AcDbSpline
210
0.0
220
0.0
230
1.0
 70
     8
 71
     3
 72
    12
 73
     8
 74
     0
 42
0.00000001
 43
0.00000001
 40
0.0
 40
0.0
 40
0.0
 40
0.0
 40
0.1224290494151416
 40
0.3423522449770543
 40
0.5614228816909421
 40
0.7807229538533651
 40
1.0
 40
1.0
 40
1.0
 40
1.0
 10
210.9207955124247
 20
194.2338942058586
 30
0.0
 10
210.9118757387074
 20
194.2365539824073
 30
0.0
 10
210.8869330917506
 20
194.2439916001698
 30
0.0
 10
210.6716385236202
 20
194.2682444224053
 30
0.0
 10
210.2368431792136
 20
194.3083816593032
 30
0.0
 10
209.6542396036584
 20
194.3575296731421
 30
0.0
 10
209.2113237836865
 20
194.3921918688022
 30
0.0
 10
208.9898775006028
 20
194.4095220567211
 30
0.0
  0
SPLINE
  5
194
330
1F
100
AcDbEntity
  8
0
  6
Continuous
 62
     7
370
    25
100
AcDbSpline
210
0.0
220
0.0
230
1.0
 70
     8
 71
     3
 72
    11
 73
     7
 74
     0
 42
0.00000001
 43
0.00000001
 40
0.0
 40
0.0
 40
0.0
 40
0.0
 40
0.0800485240044348
 40
0.500000585353877
 40
0.9209248322279565
 40
0.9999999999999999
 40
0.9999999999999999
 40
0.9999999999999999
 40
0.9999999999999999
 10
210.9207955124247
 20
194.2338942058586
 30
0.0
 10
210.9155974690578
 20
194.0877419080523
 30
0.0
 10
210.8831293535181
 20
193.1748426964463
 30
0.0
 10
210.8249836519186
 20
191.4814306215447
 30
0.0
 10
210.7693698270691
 20
189.7897172019609
 30
0.0
 10
210.7404772393874
 20
188.8767091196665
 30
0.0
 10
210.7359078616013
 20
188.7323164160554
 30
0.0
  0
SPLINE
  5
195
330
1F
100
AcDbEntity
  8
0
  6
Continuous
 62
     7
370
    25
100
AcDbSpline
210
0.0
220
0.0
230
1.0
 70
     8
 71
     3
 72
    12
 73
     8
 74
     0
 42
0.00000001
 43
0.00000001
 40
0.0
 40
0.0
 40
0.0
 40
0.0
 40
0.1130367476169351
 40
0.3328594693548084
 40
0.5544127937945095
 40
0.7774207483513299
 40
1.0
 40
1.0
 40
1.0
 40
1.0
 10
208.7975553355831
 20
188.6867204155881
 30
0.0
 10
208.9117302639759
 20
188.6879014961355
 30
0.0
 10
209.2479413358587
 20
188.691379425681
 30
0.0
 10
209.7825674377803
 20
188.6990192744659
 30
0.0
 10
210.299737900613
 20
188.7095300902439
 30
0.0
 10
210.6572186029349
 20
188.7209715952858
 30
0.0
 10
210.7096949380089
 20
188.7285372354525
 30
0.0
 10
210.7359078616013
 20
188.7323164160554
 30
0.0
  0
SPLINE
  5
196
330
1F
100
AcDbEntity
  8
0
  6
Continuous
 62
     7
370
    25
100
AcDbSpline
210
0.0
220
0.0
230
1.0
 70
     8
 71
     3
 72
     9
 73
     5
 74
     0
 42
0.00000001
 43
0.00000001
 40
0.0
 40
0.0
 40
0.0
 40
0.0
 40
0.500010612381547
 40
1.0
 40
1.0
 40
1.0
 40
1.0
 10
159.1882559206632
 20
200.2046804585534
 30
0.0
 10
159.6080670363067
 20
199.9025691286528
 30
0.0
 10
160.4476714471891
 20
199.2983592930619
 30
0.0
 10
161.4670953713683
 20
199.125218611075
 30
0.0
 10
161.976796514942
 20
199.0386501075164
 30
0.0
  0
SPLINE
  5
197
330
1F
100
AcDbEntity
  8
0
  6
Continuous
 62
     7
370
    25
100
AcDbSpline
210
0.0
220
0.0
230
1.0
 70
     8
 71
     3
 72
     9
 73
     5
 74
     0
 42
0.00000001
 43
0.00000001
 40
0.0
 40
0.0
 40
0.0
 40
0.0
 40
0.983870232645926
 40
1.0
 40
1.0
 40
1.0
 40
1.0
 10
159.673077808429
 20
199.7563119186155
 30
0.0
 10
159.5166925589265
 20
199.9064816231587
 30
0.0
 10
159.3577434980507
 20
200.0591132401752
 30
0.0
 10
159.1909463203349
 20
200.2023697641496
 30
0.0
 10
159.1882559206632
 20
200.2046804585534
 30
0.0
  0
SPLINE
  5
198
330
1F
100
AcDbEntity
  8
0
  6
Continuous
 62
     7
370
    25
100
AcDbSpline
210
0.0
220
0.0
230
1.0
 70
     8
 71
     3
 72
     9
 73
     5
 74
     0
 42
0.00000001
 43
0.00000001
 40
0.0
 40
0.0
 40
0.0
 40
0.0
 40
0.5055561057107385
 40
0.9999999999999999
 40
0.9999999999999999
 40
0.9999999999999999
 40
0.9999999999999999
 10
161.5797614159018
 20
187.2243430246837
 30
0.0
 10
161.0596210469708
 20
187.1711270939261
 30
0.0
 10
160.0307730851806
 20
187.0658649278548
 30
0.0
 10
159.1531595310013
 20
186.518699635101
 30
0.0
 10
158.719228867592
 20
186.248157096932
 30
0.0
  0
SPLINE
  5
199
330
1F
100
AcDbEntity
  8
0
  6
Continuous
 62
     7
370
    25
100
AcDbSpline
210
0.0
220
0.0
230
1.0
 70
     8
 71
     3
 72
     9
 73
     5
 74
     0
 42
0.00000001
 43
0.00000001
 40
0.0
 40
0.0
 40
0.0
 40
0.0
 40
0.0161297673533045
 40
1.0
 40
1.0
 40
1.0
 40
1.0
 10
158.719228867592
 20
186.2481570969319
 30
0.0
 10
158.7220683296906
 20
186.2502819531648
 30
0.0
 10
158.8981069566926
 20
186.3820170356651
 30
0.0
 10
159.0669445873636
 20
186.5236329561484
 30
0.0
 10
159.2330589063311
 20
186.6629646447806
 30
0.0
  0
SPLINE
  5
19A
330
1F
100
AcDbEntity
  8
0
  6
Continuous
 62
     7
370
    25
100
AcDbSpline
210
0.0
220
0.0
230
1.0
 70
     8
 71
     3
 72
    12
 73
     8
 74
     0
 42
0.00000001
 43
0.00000001
 40
0.0
 40
0.0
 40
0.0
 40
0.0
 40
0.223031534415035
 40
0.4461337558340201
 40
0.6675099896776863
 40
0.8870667292264853
 40
1.0
 40
1.0
 40
1.0
 40
1.0
 10
210.2470545481181
 20
188.2493001004525
 30
0.0
 10
210.2275952715904
 20
188.2518453690567
 30
0.0
 10
210.1886705511652
 20
188.2569367129555
 30
0.0
 10
209.9209991552247
 20
188.2589854013518
 30
0.0
 10
209.533165133617
 20
188.2564214433386
 30
0.0
 10
209.1320196263599
 20
188.2505542613509
 30
0.0
 10
208.87984667425
 20
188.2454556007887
 30
0.0
 10
208.7941938263501
 20
188.2437237941299
 30
0.0
  0
ARC
  5
19B
330
1F
100
AcDbEntity
  8
0
  6
Continuous
 62
     7
370
    25
100
AcDbCircle
 10
210.2360957324
 20
188.7492799297
 30
0.0
 40
0.5000999153468252
100
AcDbArc
 50
271.2556373922
 51
358.0561400058
  0
SPLINE
  5
19C
330
1F
100
AcDbEntity
  8
0
  6
Continuous
 62
     7
370
    25
100
AcDbSpline
210
0.0
220
0.0
230
1.0
 70
     8
 71
     3
 72
    12
 73
     8
 74
     0
 42
0.00000001
 43
0.00000001
 40
0.0
 40
0.0
 40
0.0
 40
0.0
 40
0.2190444340109387
 40
0.4380981679380302
 40
0.6571027493691947
 40
0.8772791087290103
 40
1.0
 40
1.0
 40
1.0
 40
1.0
 10
209.0162649373114
 20
194.8517448620505
 30
0.0
 10
209.1822922466181
 20
194.8373315020764
 30
0.0
 10
209.5143539142126
 20
194.8085041701837
 30
0.0
 10
209.9516095678249
 20
194.7742801191031
 30
0.0
 10
210.2780111848479
 20
194.751998803685
 30
0.0
 10
210.4397024884629
 20
194.7447400601915
 30
0.0
 10
210.4586810122008
 20
194.7476126722541
 30
0.0
 10
210.4654733132293
 20
194.7486407630655
 30
0.0
  0
ARC
  5
19D
330
1F
100
AcDbEntity
  8
0
  6
Continuous
 62
     7
370
    25
100
AcDbCircle
 10
210.4209721929
 20
194.2505247368
 30
0.0
 40
0.5000999153470796
100
AcDbArc
 50
358.0943109298
 51
84.8948135427
  0
LINE
  5
19E
330
1F
100
AcDbEntity
  8
0
  6
Continuous
 62
     7
370
    25
100
AcDbLine
 10
161.5797614159
 20
187.2243430247
 30
0.0
 11
161.6043379213
 21
187.1521865784
 31
0.0
  0
LINE
  5
19F
330
1F
100
AcDbEntity
  8
0
  6
Continuous
 62
     7
370
    25
100
AcDbLine
 10
210.2515931866
 20
188.2447066149
 30
0.0
 11
210.2470545481
 21
188.2493001005
 31
0.0
  0
ELLIPSE
  5
1A0
330
1F
100
AcDbEntity
  8
0
  6
Continuous
 62
     7
370
    25
100
AcDbEllipse
 10
208.7498702641
 20
188.2118344884
 30
0.0
 11
1.501936455350346
 21
0.03244489684951191
 31
0.0
210
0.0
220
0.0
230
1.0
 40
0.0174284859
 41
5.396717970286148
 42
6.299675703197183
  0
LINE
  5
1A1
330
1F
100
AcDbEntity
  8
0
  6
Continuous
 62
     7
370
    25
100
AcDbLine
 10
206.2286632612
 20
188.0876854773
 30
0.0
 11
209.699762387
 21
188.2120619631
 31
0.0
  0
LINE
  5
1A2
330
1F
100
AcDbEntity
  8
0
  6
Continuous
 62
     7
370
    25
100
AcDbLine
 10
206.2286665659
 20
188.0877838131
 30
0.0
 11
206.2286632612
 21
188.0876854773
 31
0.0
  0
ELLIPSE
  5
1A3
330
1F
100
AcDbEntity
  8
0
  6
Continuous
 62
     7
370
    25
100
AcDbEllipse
 10
196.7734397423
 20
188.0757068157
 30
0.0
 11
14.51871906838676
 21
0.313634002878274
 31
0.0
210
0.0
220
0.0
230
1.0
 40
0.0174284859
 41
4.685109492442204
 42
5.421234828998222
  0
ELLIPSE
  5
1A4
330
1F
100
AcDbEntity
  8
0
  6
Continuous
 62
     7
370
    25
100
AcDbEllipse
 10
195.421257667
 20
187.1703286316
 30
0.0
 11
35.74873264482383
 21
0.7722456825846677
 31
0.0
210
0.0
220
0.0
230
1.0
 40
0.0174284859
 41
1.543516838852424
 42
2.025717338717941
  0
ELLIPSE
  5
1A5
330
1F
100
AcDbEntity
  8
0
  6
Continuous
 62
     7
370
    25
100
AcDbEllipse
 10
176.3992538767
 20
187.4369814293
 30
0.0
 11
7.509682276751789
 21
0.1622244842474174
 31
0.0
210
0.0
220
0.0
230
1.0
 40
0.0174284859
 41
4.976419334597823
 42
5.167309992307992
  0
LINE
  5
1A6
330
1F
100
AcDbEntity
  8
0
  6
Continuous
 62
     7
370
    25
100
AcDbLine
 10
178.3472541756
 20
187.5039355188
 30
0.0
 11
178.3618101465
 21
187.3529709017
 31
0.0
  0
SPLINE
  5
1A7
330
1F
100
AcDbEntity
  8
0
  6
Continuous
 62
     7
370
    25
100
AcDbSpline
210
0.0
220
0.0
230
1.0
 70
     8
 71
     3
 72
    10
 73
     6
 74
     0
 42
0.00000001
 43
0.00000001
 40
0.0
 40
0.0
 40
0.0
 40
0.0
 40
0.0186368637457477
 40
0.3939469944632952
 40
1.0
 40
1.0
 40
1.0
 40
1.0
 10
178.1635702403999
 20
187.5096218136654
 30
0.0
 10
178.1660280091275
 20
187.5096270171798
 30
0.0
 10
178.2179804522273
 20
187.5097370093355
 30
0.0
 10
178.3220106365632
 20
187.5089224344987
 30
0.0
 10
178.3376165498375
 20
187.5058394526077
 30
0.0
 10
178.3472541755997
 20
187.5039355188119
 30
0.0
  0
LINE
  5
1A8
330
1F
100
AcDbEntity
  8
0
  6
Continuous
 62
     7
370
    25
100
AcDbLine
 10
161.6043379213
 20
187.1521865784
 30
0.0
 11
178.1635702404
 21
187.5096218137
 31
0.0
  0
LINE
  5
1A9
330
1F
100
AcDbEntity
  8
0
  6
Continuous
 62
     7
370
    25
100
AcDbLine
 10
178.5066447575
 20
197.6567567589
 30
0.0
 11
162.0127367596
 21
199.1247659006
 31
0.0
  0
SPLINE
  5
1AA
330
1F
100
AcDbEntity
  8
0
  6
Continuous
 62
     7
370
    25
100
AcDbSpline
210
0.0
220
0.0
230
1.0
 70
     8
 71
     3
 72
    11
 73
     7
 74
     0
 42
0.00000001
 43
0.00000001
 40
0.0
 40
0.0
 40
0.0
 40
0.0
 40
0.4177469294494799
 40
0.8392770662410579
 40
0.9817832068818988
 40
1.0
 40
1.0
 40
1.0
 40
1.0
 10
178.6902012247028
 20
197.6492378988756
 30
0.0
 10
178.6855304314408
 20
197.6483110642558
 30
0.0
 10
178.676146545194
 20
197.6464490013998
 30
0.0
 10
178.6007330535014
 20
197.6501862250708
 30
0.0
 10
178.5305954731255
 20
197.6550152113799
 30
0.0
 10
178.5090830378755
 20
197.6565794622715
 30
0.0
 10
178.5066447574556
 20
197.6567567589037
 30
0.0
  0
LINE
  5
1AB
330
1F
100
AcDbEntity
  8
0
  6
Continuous
 62
     7
370
    25
100
AcDbLine
 10
178.7123456234
 20
197.7836199215
 30
0.0
 11
178.6902012247
 21
197.6492378989
 31
0.0
  0
ELLIPSE
  5
1AC
330
1F
100
AcDbEntity
  8
0
  6
Continuous
 62
     7
370
    25
100
AcDbEllipse
 10
176.7485771132
 20
197.8315586261
 30
0.0
 11
7.481847567972777
 21
-0.6660342713921636
 31
0.0
210
0.0
220
0.0
230
1.0
 40
0.0174284859
 41
1.115875314871558
 42
1.306765972581819
  0
ELLIPSE
  5
1AD
330
1F
100
AcDbEntity
  8
0
  6
Continuous
 62
     7
370
    25
100
AcDbEllipse
 10
195.7455653213
 20
196.8205339308
 30
0.0
 11
35.61622962729032
 21
-3.170557717734454
 31
0.0
210
0.0
220
0.0
230
1.0
 40
0.0174284859
 41
4.257467968461735
 42
4.739668468327169
  0
ELLIPSE
  5
1AE
330
1F
100
AcDbEntity
  8
0
  6
Continuous
 62
     7
370
    25
100
AcDbEllipse
 10
197.0339124133
 20
195.8264173424
 30
0.0
 11
14.46490529808068
 21
-1.28766625802487
 31
0.0
210
0.0
220
0.0
230
1.0
 40
0.0174284859
 41
0.8619504781818543
 42
1.598075814737373
  0
LINE
  5
1AF
330
1F
100
AcDbEntity
  8
0
  6
Continuous
 62
     7
370
    25
100
AcDbLine
 10
206.466998677
 20
195.1796725541
 30
0.0
 11
206.4669953723
 21
195.1795742184
 31
0.0
  0
LINE
  5
1B0
330
1F
100
AcDbEntity
  8
0
  6
Continuous
 62
     7
370
    25
100
AcDbLine
 10
209.9219160108
 20
194.8225383102
 30
0.0
 11
206.466998677
 21
195.1796725541
 31
0.0
  0
ELLIPSE
  5
1B1
330
1F
100
AcDbEntity
  8
0
  6
Continuous
 62
     7
370
    25
100
AcDbEllipse
 10
208.9741823236
 20
194.8865379592
 30
0.0
 11
1.496369513594544
 21
-0.1332068542783986
 31
0.0
210
0.0
220
0.0
230
1.0
 40
0.0174284859
 41
6.266694911156462
 42
7.16965264407126
  0
LINE
  5
1B2
330
1F
100
AcDbEntity
  8
0
  6
Continuous
 62
     7
370
    25
100
AcDbLine
 10
210.4654733132
 20
194.7486407631
 30
0.0
 11
210.4703101033
 21
194.7529191752
 31
0.0
  0
LINE
  5
1B3
330
1F
100
AcDbEntity
  8
0
  6
Continuous
 62
     7
370
    25
100
AcDbLine
 10
162.0127367596
 20
199.1247659006
 30
0.0
 11
161.9767965149
 21
199.0386501075
 31
0.0
  0
SPLINE
  5
1B4
330
1F
100
AcDbEntity
  8
0
  6
Continuous
 62
     7
370
    25
100
AcDbSpline
210
0.0
220
0.0
230
1.0
 70
     8
 71
     3
 72
     9
 73
     5
 74
     0
 42
0.00000001
 43
0.00000001
 40
0.0
 40
0.0
 40
0.0
 40
0.0
 40
0.5001021276704672
 40
1.0
 40
1.0
 40
1.0
 40
1.0
 10
158.7502225904914
 20
186.1813869808128
 30
0.0
 10
159.1885519803653
 20
186.4533437406972
 30
0.0
 10
160.0650317344422
 20
186.9971461859121
 30
0.0
 10
161.0913057329855
 20
187.1005134853153
 30
0.0
 10
161.6043379212848
 20
187.1521865783555
 30
0.0
  0
LINE
  5
1B5
330
1F
100
AcDbEntity
  8
0
  6
Continuous
 62
     7
370
    25
100
AcDbLine
 10
158.7502225905
 20
186.1813869808
 30
0.0
 11
158.7192288676
 21
186.2481570969
 31
0.0
  0
SPLINE
  5
1B6
330
1F
100
AcDbEntity
  8
0
  6
Continuous
 62
     7
370
    25
100
AcDbSpline
210
0.0
220
0.0
230
1.0
 70
     8
 71
     3
 72
     9
 73
     5
 74
     0
 42
0.00000001
 43
0.00000001
 40
0.0
 40
0.0
 40
0.0
 40
0.0
 40
0.4007227371565357
 40
0.9999999999999999
 40
0.9999999999999999
 40
0.9999999999999999
 40
0.9999999999999999
 10
162.0127367596363
 20
199.1247659006382
 30
0.0
 10
161.6059070934484
 20
199.1868725282833
 30
0.0
 10
160.5906673067702
 20
199.341859061081
 30
0.0
 10
159.7408941180161
 20
199.9308402622161
 30
0.0
 10
159.2316443674216
 20
200.2838033042984
 30
0.0
  0
LINE
  5
1B7
330
1F
100
AcDbEntity
  8
0
  6
Continuous
 62
     7
370
    25
100
AcDbLine
 10
159.1882559207
 20
200.2046804586
 30
0.0
 11
159.2316443674
 21
200.2838033043
 31
0.0
  0
ARC
  5
1B8
330
1F
100
AcDbEntity
  8
0
  6
Continuous
 62
     7
370
    25
100
AcDbCircle
 10
153.4322327504
 20
193.4119762643
 30
0.0
 40
8.975658044222056
100
AcDbArc
 50
243.2401108622
 51
306.3339234504
  0
LWPOLYLINE
  5
1B9
330
1F
100
AcDbEntity
  8
0
  6
Continuous
 62
     7
370
    25
100
AcDbPolyline
 90
        3
 70
   128
 43
0.0
 10
149.2220220141
 20
185.2981483654
 10
149.3287698138
 20
185.3608507802
 10
149.3909197318
 20
185.3976000308
  0
ARC
  5
1BA
330
1F
100
AcDbEntity
  8
0
  6
Continuous
 62
     7
370
    25
100
AcDbCircle
 10
153.4322327504
 20
193.4119762643
 30
0.0
 40
9.141120151092148
100
AcDbArc
 50
113.5749418851
 51
242.5755048964
  0
LWPOLYLINE
  5
1BB
330
1F
100
AcDbEntity
  8
0
  6
Continuous
 62
     7
370
    25
100
AcDbPolyline
 90
        3
 70
   128
 43
0.0
 10
149.9221629321
 20
201.6905384488
 10
149.8785546695
 20
201.7204298949
 10
149.7762573533
 20
201.7901575418
  0
ARC
  5
1BC
330
1F
100
AcDbEntity
  8
0
  6
Continuous
 62
     7
370
    25
100
AcDbCircle
 10
153.4322327504
 20
193.4119762643
 30
0.0
 40
8.99195095466078
100
AcDbArc
 50
49.8376326145
 51
112.9767066341
  0
LINE
  5
1BD
330
1F
100
AcDbEntity
  8
0
  6
Continuous
 62
     7
370
    25
100
AcDbLine
 10
210.9256323025
 20
194.238172618
 30
0.0
 11
210.9207955124
 21
194.2338942059
 31
0.0
  0
LINE
  5
1BE
330
1F
100
AcDbEntity
  8
0
  6
Continuous
 62
     7
370
    25
100
AcDbLine
 10
210.7404465001
 20
188.7277229305
 30
0.0
 11
210.9256323025
 21
194.238172618
 31
0.0
  0
LINE
  5
1BF
330
1F
100
AcDbEntity
  8
0
  6
Continuous
 62
     7
370
    25
100
AcDbLine
 10
210.7359078616
 20
188.7323164161
 30
0.0
 11
210.7404465001
 21
188.7277229305
 31
0.0
  0
ARC
  5
1C0
330
1F
100
AcDbEntity
  8
0
  6
Continuous
 62
     7
370
    25
100
AcDbCircle
 10
210.425808983
 20
194.2548031489
 30
0.0
 40
0.5000999153469775
100
AcDbArc
 50
358.0943109292
 51
84.8948135428
  0
ARC
  5
1C1
330
1F
100
AcDbEntity
  8
0
  6
Continuous
 62
     7
370
    25
100
AcDbCircle
 10
210.2406343709
 20
188.7446864442
 30
0.0
 40
0.5000999153467831
100
AcDbArc
 50
271.2556373922
 51
358.0561400058
  0
LINE
  5
1C2
330
1F
100
AcDbEntity
  8
0
  6
Continuous
 62
     7
370
    25
100
AcDbLine
 10
209.699762387
 20
188.2120619631
 30
0.0
 11
209.7068784352
 21
188.2121900629
 31
0.0
  0
LINE
  5
1C3
330
1F
100
AcDbEntity
  8
0
  6
Continuous
 62
     7
370
    25
100
AcDbLine
 10
209.9219160108
 20
194.8225383102
 30
0.0
 11
209.9290074035
 21
194.8219327509
 31
0.0
  0
SPLINE
  5
1C4
330
1F
100
AcDbEntity
  8
0
  6
Continuous
 62
     7
370
    25
100
AcDbSpline
210
0.0
220
0.0
230
1.0
 70
     8
 71
     3
 72
    11
 73
     7
 74
     0
 42
0.00000001
 43
0.00000001
 40
0.0
 40
0.0
 40
0.0
 40
0.0
 40
0.1345990676765969
 40
0.4126978815969503
 40
0.6969472592954602
 40
0.9999999999999999
 40
0.9999999999999999
 40
0.9999999999999999
 40
0.9999999999999999
 10
149.3901144724998
 20
185.3968200201557
 30
0.0
 10
149.8127669914698
 20
185.1916245893001
 30
0.0
 10
151.1086734360049
 20
184.5624692683214
 30
0.0
 10
153.4622359851514
 20
183.8605554618081
 30
0.0
 10
156.5015567150434
 20
183.3816999197965
 30
0.0
 10
158.6904388094439
 20
183.2809830500731
 30
0.0
 10
159.8199200372504
 20
183.2290123139759
 30
0.0
  0
ARC
  5
1C5
330
1F
100
AcDbEntity
  8
0
  6
Continuous
 62
     7
370
    25
100
AcDbCircle
 10
155.3507420294
 20
183.9993787875
 30
0.0
 40
4.535087272517329
100
AcDbArc
 50
327.1036881082
 51
350.2198521658
  0
SPLINE
  5
1C6
330
1F
100
AcDbEntity
  8
0
  6
Continuous
 62
     7
370
    25
100
AcDbSpline
210
0.0
220
0.0
230
1.0
 70
     8
 71
     3
 72
    12
 73
     8
 74
     0
 42
0.00000001
 43
0.00000001
 40
0.0
 40
0.0
 40
0.0
 40
0.0
 40
0.1662426524176539
 40
0.3368059756191313
 40
0.6054181071254604
 40
0.8801435087136209
 40
0.9999999999999999
 40
0.9999999999999999
 40
0.9999999999999999
 40
0.9999999999999999
 10
159.1586499474337
 20
181.536280361301
 30
0.0
 10
158.5265505481766
 20
181.7130958325895
 30
0.0
 10
157.2459233940801
 20
182.071322235055
 30
0.0
 10
155.0852365904853
 20
182.8072742851624
 30
0.0
 10
152.7532178611099
 20
183.7383208047872
 30
0.0
 10
150.8170909338953
 20
184.6464912287418
 30
0.0
 10
149.7220095759875
 20
185.2214545877453
 30
0.0
 10
149.3893723931816
 20
185.396102973981
 30
0.0
  0
LINE
  5
1C7
330
1F
100
AcDbEntity
  8
0
  6
Continuous
 62
     7
370
    25
100
AcDbLine
 10
149.3893723932
 20
185.396102974
 30
0.0
 11
149.3901144725
 21
185.3968200202
 31
0.0
  0
LINE
  5
1C8
330
1F
100
AcDbEntity
  8
0
  6
Continuous
 62
     7
370
    25
100
AcDbLine
 10
159.1586499474
 20
181.5362803613
 30
0.0
 11
159.1404673871
 21
181.4673786582
 31
0.0
  0
ARC
  5
1C9
330
1F
100
AcDbEntity
  8
0
  6
Continuous
 62
     7
370
    25
100
AcDbCircle
 10
171.4338482699
 20
228.0523954764
 30
0.0
 40
48.17977797259055
100
AcDbArc
 50
242.5470733798
 51
255.2171445356
  0
LWPOLYLINE
  5
1CA
330
1F
100
AcDbEntity
  8
0
  6
Continuous
 62
     7
370
    25
100
AcDbPolyline
 90
        3
 70
   128
 43
0.0
 10
149.3893723932
 20
185.396102974
 10
149.3287577291
 20
185.3605951214
 10
149.2220219627
 20
185.2981468272
  0
LINE
  5
1CB
330
1F
100
AcDbEntity
  8
0
  6
Continuous
 62
     7
370
    25
100
AcDbLine
 10
158.7502225905
 20
186.1813869808
 30
0.0
 11
160.8532426139
 21
183.3220219761
 31
0.0
  0
ARC
  5
1CC
330
1F
100
AcDbEntity
  8
0
  6
Continuous
 62
     7
370
    25
100
AcDbCircle
 10
153.4322327504
 20
193.4119762643
 30
0.0
 40
12.52511736202727
100
AcDbArc
 50
305.9335323377
 51
306.3339234504
  0
LINE
  5
1CD
330
1F
100
AcDbEntity
  8
0
  6
Continuous
 62
     7
370
    25
100
AcDbLine
 10
159.8199200373
 20
183.229012314
 30
0.0
 11
160.7825519436
 21
183.2704096846
 31
0.0
  0
LINE
  5
1CE
330
1F
100
AcDbEntity
  8
0
  6
Continuous
 62
     7
370
    25
100
AcDbLine
 10
149.3909197318
 20
185.3976000308
 30
0.0
 11
149.3901144725
 21
185.3968200202
 31
0.0
  0
ARC
  5
1CF
330
1F
100
AcDbEntity
  8
0
  6
Continuous
 62
     7
370
    25
100
AcDbCircle
 10
171.1625681585
 20
187.5365471687
 30
0.0
 40
6.834138728216011
100
AcDbArc
 50
209.9523325978
 51
225.0240262103
  0
SPLINE
  5
1D0
330
1F
100
AcDbEntity
  8
0
  6
Continuous
 62
     7
370
    25
100
AcDbSpline
210
0.0
220
0.0
230
1.0
 70
     8
 71
     3
 72
    16
 73
    12
 74
     0
 42
0.00000001
 43
0.00000001
 40
0.0
 40
0.0
 40
0.0
 40
0.0
 40
0.2861254310575668
 40
0.7591203623085425
 40
0.8520758313858462
 40
0.9266344548631257
 40
0.9604862301433723
 40
0.983533543656923
 40
0.9930756629548356
 40
0.9972242292023621
 40
1.0
 40
1.0
 40
1.0
 40
1.0
 10
165.2411896139422
 20
184.1244029324986
 30
0.0
 10
166.4864470619407
 20
184.6129209917193
 30
0.0
 10
169.7902438674116
 20
185.9090099298445
 30
0.0
 10
173.6198682669713
 20
186.7986970298408
 30
0.0
 10
176.4348248402941
 20
187.2663342062784
 30
0.0
 10
177.3046589870521
 20
187.3916920401459
 30
0.0
 10
177.832921786104
 20
187.4625097228339
 30
0.0
 10
178.0677657893308
 20
187.4937489479397
 30
0.0
 10
178.1458530948061
 20
187.505452775903
 30
0.0
 10
178.1620510826799
 20
187.5086442679693
 30
0.0
 10
178.1631355201159
 20
187.5093420804046
 30
0.0
 10
178.1635702403999
 20
187.5096218136654
 30
0.0
  0
SPLINE
  5
1D1
330
1F
100
AcDbEntity
  8
0
  6
Continuous
 62
     7
370
    25
100
AcDbSpline
210
0.0
220
0.0
230
1.0
 70
     8
 71
     3
 72
    10
 73
     6
 74
     0
 42
0.00000001
 43
0.00000001
 40
0.0
 40
0.0
 40
0.0
 40
0.0
 40
0.5975855365574059
 40
0.9790563563181979
 40
1.0
 40
1.0
 40
1.0
 40
1.0
 10
178.2732269341396
 20
187.4968046086072
 30
0.0
 10
178.2758702452045
 20
187.500457185394
 30
0.0
 10
178.2802009231435
 20
187.5064413973626
 30
0.0
 10
178.205884405404
 20
187.5093156716792
 30
0.0
 10
178.1656635339489
 20
187.509606668736
 30
0.0
 10
178.1635702403999
 20
187.5096218136654
 30
0.0
  0
SPLINE
  5
1D2
330
1F
100
AcDbEntity
  8
0
  6
Continuous
 62
     7
370
    25
100
AcDbSpline
210
0.0
220
0.0
230
1.0
 70
     8
 71
     3
 72
    14
 73
    10
 74
     0
 42
0.00000001
 43
0.00000001
 40
0.0
 40
0.0
 40
0.0
 40
0.0
 40
0.0129036569231474
 40
0.0519665716781133
 40
0.1318891824261219
 40
0.2280032005552178
 40
0.4679440229400844
 40
0.7079115564493597
 40
0.9999999999999999
 40
0.9999999999999999
 40
0.9999999999999999
 40
0.9999999999999999
 10
178.2732269341396
 20
187.4968046086072
 30
0.0
 10
178.2395137493348
 20
187.4900881810677
 30
0.0
 10
178.1037414915098
 20
187.4630392820443
 30
0.0
 10
177.6612771505195
 20
187.3754690243316
 30
0.0
 10
176.8435094235326
 20
187.2004353975094
 30
0.0
 10
175.1752781686394
 20
186.7891841246807
 30
0.0
 10
172.8041828263979
 20
186.0309380253546
 30
0.0
 10
169.6123314636138
 20
184.6924483708881
 30
0.0
 10
167.4946792774259
 20
183.4074787834386
 30
0.0
 10
166.3321291742146
 20
182.7020553261514
 30
0.0
  0
LINE
  5
1D3
330
1F
100
AcDbEntity
  8
0
  6
Continuous
 62
     7
370
    25
100
AcDbLine
 10
163.7837295074
 20
183.64894319
 30
0.0
 11
161.6809360598
 21
183.6035538594
 31
0.0
  0
LINE
  5
1D4
330
1F
100
AcDbEntity
  8
0
  6
Continuous
 62
     7
370
    25
100
AcDbLine
 10
161.6043379213
 20
187.1521865784
 30
0.0
 11
161.6809360598
 21
183.6035538594
 31
0.0
  0
LINE
  5
1D5
330
1F
100
AcDbEntity
  8
0
  6
Continuous
 62
     7
370
    25
100
AcDbLine
 10
163.7837295074
 20
183.64894319
 30
0.0
 11
165.2411896139
 21
184.1244029325
 31
0.0
  0
LWPOLYLINE
  5
1D6
330
1F
100
AcDbEntity
  8
0
  6
Continuous
 62
     7
370
    25
100
AcDbPolyline
 90
        4
 70
   128
 43
0.0
 10
178.2876678332
 20
187.3451384289
 10
178.2860074779
 20
187.3625621734
 10
178.2793695687
 20
187.4322571921
 10
178.2732269341
 20
187.4968046086
  0
LINE
  5
1D7
330
1F
100
AcDbEntity
  8
0
  6
Continuous
 62
     7
370
    25
100
AcDbLine
 10
176.4861257496
 20
186.9759115997
 30
0.0
 11
178.2876678332
 21
187.3451384289
 31
0.0
  0
ARC
  5
1D8
330
1F
100
AcDbEntity
  8
0
  6
Continuous
 62
     7
370
    25
100
AcDbCircle
 10
183.6451477894
 20
156.2924535091
 30
0.0
 40
31.50755777528332
100
AcDbArc
 50
103.1332227153
 51
123.2471548844
  0
LINE
  5
1D9
330
1F
100
AcDbEntity
  8
0
  6
Continuous
 62
     7
370
    25
100
AcDbLine
 10
166.3321291742
 20
182.7020553262
 30
0.0
 11
166.3710756231
 21
182.642645686
 31
0.0
  0
SPLINE
  5
1DA
330
1F
100
AcDbEntity
  8
0
  6
Continuous
 62
     7
370
    25
100
AcDbSpline
210
0.0
220
0.0
230
1.0
 70
     8
 71
     3
 72
     9
 73
     5
 74
     0
 42
0.00000001
 43
0.00000001
 40
0.0
 40
0.0
 40
0.0
 40
0.0
 40
0.4998978730610189
 40
1.0
 40
1.0
 40
1.0
 40
1.0
 10
161.6809360598022
 20
183.6035538594157
 30
0.0
 10
161.5321541414301
 20
183.588576258938
 30
0.0
 10
161.2345295137012
 20
183.5586149382662
 30
0.0
 10
160.9803555524877
 20
183.4008970350054
 30
0.0
 10
160.8532426138722
 20
183.3220219761284
 30
0.0
  0
ARC
  5
1DB
330
1F
100
AcDbEntity
  8
0
  6
Continuous
 62
     7
370
    25
100
AcDbCircle
 10
178.3580573081
 20
187.0039758819
 30
0.0
 40
0.5000763403733103
100
AcDbArc
 50
91.2378551073
 51
99.7665890292
  0
ARC
  5
1DC
330
1F
100
AcDbEntity
  8
0
  6
Continuous
 62
     7
370
    25
100
AcDbCircle
 10
169.0675868916
 20
157.6411430985
 30
0.0
 40
48.10950076354641
100
AcDbArc
 50
100.9333063994
 51
101.1818887889
  0
SPLINE
  5
1DD
330
1F
100
AcDbEntity
  8
0
  6
Continuous
 62
     7
370
    25
100
AcDbSpline
210
0.0
220
0.0
230
1.0
 70
     8
 71
     3
 72
    12
 73
     8
 74
     0
 42
0.00000001
 43
0.00000001
 40
0.0
 40
0.0
 40
0.0
 40
0.0
 40
0.0460732444350166
 40
0.2494607408078302
 40
0.4779405209378878
 40
0.7057893369168763
 40
1.0
 40
1.0
 40
1.0
 40
1.0
 10
149.9209721836575
 20
201.6918535285166
 30
0.0
 10
150.0513363914621
 20
201.7500131541074
 30
0.0
 10
150.757185355488
 20
202.0649148603561
 30
0.0
 10
152.1364495760603
 20
202.6374541826725
 30
0.0
 10
154.1723993617568
 20
203.3772139899437
 30
0.0
 10
156.6954847162778
 20
204.1649926666882
 30
0.0
 10
158.6413692127954
 20
204.5950149512262
 30
0.0
 10
159.7379874928276
 20
204.8373573404531
 30
0.0
  0
LWPOLYLINE
  5
1DE
330
1F
100
AcDbEntity
  8
0
  6
Continuous
 62
     7
370
    25
100
AcDbPolyline
 90
        3
 70
   128
 43
0.0
 10
149.9209721837
 20
201.6918535285
 10
149.8785597761
 20
201.7206857882
 10
149.7762574053
 20
201.79015908
  0
ARC
  5
1DF
330
1F
100
AcDbEntity
  8
0
  6
Continuous
 62
     7
370
    25
100
AcDbCircle
 10
169.0675868916
 20
157.6411430985
 30
0.0
 40
48.17977797259057
100
AcDbArc
 50
100.9333063994
 51
113.6033767663
  0
LINE
  5
1E0
330
1F
100
AcDbEntity
  8
0
  6
Continuous
 62
     7
370
    25
100
AcDbLine
 10
159.942839263
 20
204.8773902444
 30
0.0
 11
159.9295100497
 21
204.9463918254
 31
0.0
  0
LINE
  5
1E1
330
1F
100
AcDbEntity
  8
0
  6
Continuous
 62
     7
370
    25
100
AcDbLine
 10
160.1257769443
 20
202.8756231598
 30
0.0
 11
159.7379874928
 21
204.8373573405
 31
0.0
  0
SPLINE
  5
1E2
330
1F
100
AcDbEntity
  8
0
  6
Continuous
 62
     7
370
    25
100
AcDbSpline
210
0.0
220
0.0
230
1.0
 70
     8
 71
     3
 72
    13
 73
     9
 74
     0
 42
0.00000001
 43
0.00000001
 40
0.0
 40
0.0
 40
0.0
 40
0.0
 40
0.2574896950994386
 40
0.4890886589321009
 40
0.7206004760683454
 40
0.9447506334961244
 40
0.9460032291293291
 40
1.0
 40
1.0
 40
1.0
 40
1.0
 10
160.1257769442907
 20
202.8756231598434
 30
0.0
 10
159.2085122860236
 20
202.9345278338801
 30
0.0
 10
157.4662144382421
 20
203.0464142843972
 30
0.0
 10
154.9675293900632
 20
202.9657288127686
 30
0.0
 10
152.6393019746617
 20
202.6303645541395
 30
0.0
 10
151.1462479835312
 20
202.1807013655974
 30
0.0
 10
150.2629082965926
 20
201.8359330133682
 30
0.0
 10
150.0903050885313
 20
201.7627085623672
 30
0.0
 10
149.9216150841568
 20
201.6911442322575
 30
0.0
  0
LINE
  5
1E3
330
1F
100
AcDbEntity
  8
0
  6
Continuous
 62
     7
370
    25
100
AcDbLine
 10
149.9216150842
 20
201.6911442323
 30
0.0
 11
149.9209721837
 21
201.6918535285
 31
0.0
  0
LINE
  5
1E4
330
1F
100
AcDbEntity
  8
0
  6
Continuous
 62
     7
370
    25
100
AcDbLine
 10
166.1837232039
 20
201.3634152753
 30
0.0
 11
167.3679862282
 21
202.9747199465
 31
0.0
  0
SPLINE
  5
1E5
330
1F
100
AcDbEntity
  8
0
  6
Continuous
 62
     7
370
    25
100
AcDbSpline
210
0.0
220
0.0
230
1.0
 70
     8
 71
     3
 72
    14
 73
    10
 74
     0
 42
0.00000001
 43
0.00000001
 40
0.0
 40
0.0
 40
0.0
 40
0.0
 40
0.2256458607195969
 40
0.4518169308148938
 40
0.8157761447763445
 40
0.8946140573305364
 40
0.9637846180221658
 40
0.9940799143125663
 40
1.0
 40
1.0
 40
1.0
 40
1.0
 10
167.3679862281623
 20
202.9747199464812
 30
0.0
 10
168.1949506986902
 20
202.4015973278819
 30
0.0
 10
169.8508044678459
 20
201.2540181004568
 30
0.0
 10
172.9766532493464
 20
199.582645074816
 30
0.0
 10
175.614402686832
 20
198.5400830395543
 30
0.0
 10
177.5463166057776
 20
197.9534160484409
 30
0.0
 10
178.1848108967048
 20
197.7764902283661
 30
0.0
 10
178.5100392333627
 20
197.6899677973792
 30
0.0
 10
178.6018015296868
 20
197.6653510831862
 30
0.0
 10
178.6168018038092
 20
197.6613270180125
 30
0.0
  0
SPLINE
  5
1E6
330
1F
100
AcDbEntity
  8
0
  6
Continuous
 62
     7
370
    25
100
AcDbSpline
210
0.0
220
0.0
230
1.0
 70
     8
 71
     3
 72
    11
 73
     7
 74
     0
 42
0.00000001
 43
0.00000001
 40
0.0
 40
0.0
 40
0.0
 40
0.0
 40
0.0195561212296432
 40
0.1681891996745257
 40
0.5898876540792964
 40
1.0
 40
1.0
 40
1.0
 40
1.0
 10
178.5066447574556
 20
197.6567567589037
 30
0.0
 10
178.508600413586
 20
197.6566328900225
 30
0.0
 10
178.525419712032
 20
197.6555675761104
 30
0.0
 10
178.5772625638781
 20
197.6529784346506
 30
0.0
 10
178.6265895628474
 20
197.6534112149282
 30
0.0
 10
178.6200339529423
 20
197.6587130329343
 30
0.0
 10
178.6168018038092
 20
197.6613270180125
 30
0.0
  0
SPLINE
  5
1E7
330
1F
100
AcDbEntity
  8
0
  6
Continuous
 62
     7
370
    25
100
AcDbSpline
210
0.0
220
0.0
230
1.0
 70
     8
 71
     3
 72
    17
 73
    13
 74
     0
 42
0.00000001
 43
0.00000001
 40
0.0
 40
0.0
 40
0.0
 40
0.0
 40
0.0068263121770693
 40
0.0088448507297277
 40
0.0223990310416118
 40
0.030959302839753
 40
0.0563218912149139
 40
0.1198824177066697
 40
0.1957460556357049
 40
0.5558621944880042
 40
0.7780336097977195
 40
1.0
 40
1.0
 40
1.0
 40
1.0
 10
178.5066447574556
 20
197.6567567589037
 30
0.0
 10
178.5030615246309
 20
197.657915947219
 30
0.0
 10
178.4984187308879
 20
197.6594179071867
 30
0.0
 10
178.4551655074068
 20
197.6684657606784
 30
0.0
 10
178.3810703386986
 20
197.68271396575
 30
0.0
 10
178.2151960513765
 20
197.7140218004908
 30
0.0
 10
177.8358005735316
 20
197.7853194895491
 30
0.0
 10
177.1569525445458
 20
197.9173916870477
 30
0.0
 10
175.0654732337394
 20
198.3550580724995
 30
0.0
 10
172.2754260863069
 20
199.0833569200557
 30
0.0
 10
168.9125814769683
 20
200.2098818001633
 30
0.0
 10
167.09306264983
 20
200.979022468413
 30
0.0
 10
166.1837232039357
 20
201.3634152752636
 30
0.0
  0
LINE
  5
1E8
330
1F
100
AcDbEntity
  8
0
  6
Continuous
 62
     7
370
    25
100
AcDbLine
 10
162.0127367596
 20
199.1247659006
 30
0.0
 11
162.243198599
 21
201.7141342282
 31
0.0
  0
LINE
  5
1E9
330
1F
100
AcDbEntity
  8
0
  6
Continuous
 62
     7
370
    25
100
AcDbLine
 10
162.243198599
 20
201.7141342282
 30
0.0
 11
166.1837232039
 21
201.3634152753
 31
0.0
  0
LINE
  5
1EA
330
1F
100
AcDbEntity
  8
0
  6
Continuous
 62
     7
370
    25
100
AcDbLine
 10
159.2316443674
 20
200.2838033043
 30
0.0
 11
160.9082742508
 21
202.270472182
 31
0.0
  0
LINE
  5
1EB
330
1F
100
AcDbEntity
  8
0
  6
Continuous
 62
     7
370
    25
100
AcDbLine
 10
149.9216150842
 20
201.6911442323
 30
0.0
 11
149.9221629321
 21
201.6905384488
 31
0.0
  0
ARC
  5
1EC
330
1F
100
AcDbEntity
  8
0
  6
Continuous
 62
     7
370
    25
100
AcDbCircle
 10
153.4322327504
 20
193.4119762643
 30
0.0
 40
11.59155496206738
100
AcDbArc
 50
49.8376326145
 51
54.7286069047
  0
LWPOLYLINE
  5
1ED
330
1F
100
AcDbEntity
  8
0
  6
Continuous
 62
     7
370
    25
100
AcDbPolyline
 90
        4
 70
   128
 43
0.0
 10
178.6168018038
 20
197.661327018
 10
178.6196258025
 20
197.6786001682
 10
178.6309252878
 20
197.747692493
 10
178.6388964382
 20
197.7964123978
  0
ARC
  5
1EE
330
1F
100
AcDbEntity
  8
0
  6
Continuous
 62
     7
370
    25
100
AcDbCircle
 10
186.0690656717
 20
228.4193517957
 30
0.0
 40
31.57783498432756
100
AcDbArc
 50
232.9032960505
 51
233.6851734779
  0
LINE
  5
1EF
330
1F
100
AcDbEntity
  8
0
  6
Continuous
 62
     7
370
    25
100
AcDbLine
 10
167.0225122768
 20
203.2322823737
 30
0.0
 11
167.0649008261
 21
203.2883367847
 31
0.0
  0
ARC
  5
1F0
330
1F
100
AcDbEntity
  8
0
  6
Continuous
 62
     7
370
    25
100
AcDbCircle
 10
186.0690656717
 20
228.4193517957
 30
0.0
 40
31.50755777528342
100
AcDbArc
 50
232.9032960505
 51
253.0172282196
  0
LINE
  5
1F1
330
1F
100
AcDbEntity
  8
0
  6
Continuous
 62
     7
370
    25
100
AcDbLine
 10
178.6388964382
 20
197.7964123978
 30
0.0
 11
176.8662077226
 21
198.2857558847
 31
0.0
  0
LINE
  5
1F2
330
1F
100
AcDbEntity
  8
0
  6
Continuous
 62
     7
370
    25
100
AcDbLine
 10
178.3618101465
 20
187.3529709017
 30
0.0
 11
178.2876678332
 21
187.3451384289
 31
0.0
  0
SPLINE
  5
1F3
330
1F
100
AcDbEntity
  8
0
  6
Continuous
 62
     7
370
    25
100
AcDbSpline
210
0.0
220
0.0
230
1.0
 70
     8
 71
     3
 72
    10
 73
     6
 74
     0
 42
0.00000001
 43
0.00000001
 40
0.0
 40
0.0
 40
0.0
 40
0.0
 40
0.049076908576186
 40
0.5995805843665285
 40
0.9999999999999999
 40
0.9999999999999999
 40
0.9999999999999999
 40
0.9999999999999999
 10
160.9082742507817
 20
202.27047218198
 30
0.0
 10
160.9267199599751
 20
202.2552212994131
 30
0.0
 10
161.1520741931179
 20
202.0688987834506
 30
0.0
 10
161.5898352172017
 20
201.8200031336551
 30
0.0
 10
162.0495989881488
 20
201.7455044878172
 30
0.0
 10
162.2431985990452
 20
201.7141342282233
 30
0.0
  0
ARC
  5
1F4
330
1F
100
AcDbEntity
  8
0
  6
Continuous
 62
     7
370
    25
100
AcDbCircle
 10
178.7345456602
 20
198.1473442303
 30
0.0
 40
0.5000763405061665
100
AcDbArc
 50
256.3817458053
 51
264.9125955021
  0
SPLINE
  5
1F5
330
1F
100
AcDbEntity
  8
0
  6
Continuous
 62
     7
370
    25
100
AcDbSpline
210
0.0
220
0.0
230
1.0
 70
     8
 71
     3
 72
     9
 73
     5
 74
     0
 42
0.00000001
 43
0.00000001
 40
0.0
 40
0.0
 40
0.0
 40
0.0
 40
0.8458911907785739
 40
1.0
 40
1.0
 40
1.0
 40
1.0
 10
178.6388964381822
 20
197.7964123978401
 30
0.0
 10
178.6595971465443
 20
197.7918997631366
 30
0.0
 10
178.6840692164603
 20
197.7865649934257
 30
0.0
 10
178.7085698585769
 20
197.7840131786388
 30
0.0
 10
178.7123456233587
 20
197.7836199215005
 30
0.0
  0
LINE
  5
1F6
330
1F
100
AcDbEntity
  8
0
  6
Continuous
 62
     7
370
    25
100
AcDbLine
 10
196.6617998662
 20
196.1135474629
 30
0.0
 11
196.6613430385
 21
196.1135879684
 31
0.0
  0
LINE
  5
1F7
330
1F
100
AcDbEntity
  8
0
  6
Continuous
 62
     7
370
    25
100
AcDbLine
 10
166.3321291742
 20
182.7020553262
 30
0.0
 11
164.460940329
 21
181.7674099968
 31
0.0
  0
LINE
  5
1F8
330
1F
100
AcDbEntity
  8
0
  6
Continuous
 62
     7
370
    25
100
AcDbLine
 10
163.7837295074
 20
183.64894319
 30
0.0
 11
164.460940329
 21
181.7674099968
 31
0.0
  0
LINE
  5
1F9
330
1F
100
AcDbEntity
  8
0
  6
Continuous
 62
     7
370
    25
100
AcDbLine
 10
160.7825519436
 20
183.2704096846
 30
0.0
 11
160.5937472718
 21
181.279647406
 31
0.0
  0
LINE
  5
1FA
330
1F
100
AcDbEntity
  8
0
  6
Continuous
 62
     7
370
    25
100
AcDbLine
 10
160.5937472718
 20
181.279647406
 30
0.0
 11
159.1586499474
 21
181.5362803613
 31
0.0
  0
ARC
  5
1FB
330
1F
100
AcDbEntity
  8
0
  6
Continuous
 62
     7
370
    25
100
AcDbCircle
 10
186.0690656717
 20
228.4193517957
 30
0.0
 40
33.57753037464033
100
AcDbArc
 50
232.9032960505
 51
233.6851734779
  0
ARC
  5
1FC
330
1F
100
AcDbEntity
  8
0
  6
Continuous
 62
     7
370
    25
100
AcDbCircle
 10
169.0675868916
 20
157.6411430985
 30
0.0
 40
46.10980537323363
100
AcDbArc
 50
100.9333063994
 51
101.1818887889
  0
ARC
  5
1FD
330
1F
100
AcDbEntity
  8
0
  6
Continuous
 62
     7
370
    25
100
AcDbCircle
 10
161.6364907527
 20
196.1098337487
 30
0.0
 40
6.92994638714432
100
AcDbArc
 50
52.9032960505
 51
100.9333063994
  0
ARC
  5
1FE
330
1F
100
AcDbEntity
  8
0
  6
Continuous
 62
     7
370
    25
100
AcDbCircle
 10
161.4368547237
 20
190.1693983642
 30
0.0
 40
6.929946387144252
100
AcDbArc
 50
264.5822507961
 51
289.795071751
  0
LINE
  5
1FF
330
1F
100
AcDbEntity
  8
0
  6
Continuous
 62
     7
370
    25
100
AcDbLine
 10
160.3221139485
 20
202.9139920762
 30
0.0
 11
159.942839263
 21
204.8773902444
 31
0.0
  0
ARC
  5
200
330
1F
100
AcDbEntity
  8
0
  6
Continuous
 62
     7
370
    25
100
AcDbCircle
 10
161.6364907527
 20
196.1098337487
 30
0.0
 40
8.929641777457082
100
AcDbArc
 50
52.9032960505
 51
100.9333063994
  0
LINE
  5
201
330
1F
100
AcDbEntity
  8
0
  6
Continuous
 62
     7
370
    25
100
AcDbLine
 10
165.8163717974
 20
201.6372880796
 30
0.0
 11
167.0225122768
 21
203.2322823737
 31
0.0
  0
ARC
  5
202
330
1F
100
AcDbEntity
  8
0
  6
Continuous
 62
     7
370
    25
100
AcDbCircle
 10
161.4368547237
 20
190.1693983642
 30
0.0
 40
8.929641777457032
100
AcDbArc
 50
264.5822507961
 51
289.795071751
  0
ARC
  5
203
330
1F
100
AcDbEntity
  8
0
  6
Continuous
 62
     7
370
    25
100
AcDbCircle
 10
161.4368547237
 20
190.1693983642
 30
0.0
 40
8.999918986501223
100
AcDbArc
 50
255.2171445356
 51
303.2471548844
  0
ARC
  5
204
330
1F
100
AcDbEntity
  8
0
  6
Continuous
 62
     7
370
    25
100
AcDbCircle
 10
161.6364907527
 20
196.1098337487
 30
0.0
 40
8.999918986501225
100
AcDbArc
 50
52.9032960505
 51
100.9333063994
  0
SPLINE
  5
205
330
1F
100
AcDbEntity
  8
0
  6
Continuous
 62
     7
370
    25
100
AcDbSpline
210
0.0
220
0.0
230
1.0
 70
     8
 71
     3
 72
    11
 73
     7
 74
     0
 42
0.00000001
 43
0.00000001
 40
0.0
 40
0.0
 40
0.0
 40
0.0
 40
0.2200386424382335
 40
0.6637869905998129
 40
0.8890365590789663
 40
1.0
 40
1.0
 40
1.0
 40
1.0
 10
-58.32792792028993
 20
187.7339595845551
 30
0.0
 10
-58.5283070152102
 20
188.0018951898467
 30
0.0
 10
-59.13278736885355
 20
188.8101721685639
 30
0.0
 10
-59.63806944145336
 20
190.0807588661432
 30
0.0
 10
-59.87285243670703
 20
191.2508354998177
 30
0.0
 10
-59.84477556776241
 20
191.7617635865979
 30
0.0
 10
-59.83550910304724
 20
191.9303898353961
 30
0.0
  0
SPLINE
  5
206
330
1F
100
AcDbEntity
  8
0
  6
Continuous
 62
     7
370
    25
100
AcDbSpline
210
0.0
220
0.0
230
1.0
 70
     8
 71
     3
 72
     9
 73
     5
 74
     0
 42
0.00000001
 43
0.00000001
 40
0.0
 40
0.0
 40
0.0
 40
0.0
 40
0.9209630919903208
 40
1.0
 40
1.0
 40
1.0
 40
1.0
 10
-59.96318125780958
 20
188.0778963175298
 30
0.0
 10
-59.4496325483507
 20
188.0136580402657
 30
0.0
 10
-58.89201116924733
 20
187.9439068441292
 30
0.0
 10
-58.36924568757546
 20
187.7493377260429
 30
0.0
 10
-58.32792792028993
 20
187.7339595845551
 30
0.0
  0
SPLINE
  5
207
330
1F
100
AcDbEntity
  8
0
  6
Continuous
 62
     7
370
    25
100
AcDbSpline
210
0.0
220
0.0
230
1.0
 70
     8
 71
     3
 72
    10
 73
     6
 74
     0
 42
0.00000001
 43
0.00000001
 40
0.0
 40
0.0
 40
0.0
 40
0.0
 40
0.2596150688488835
 40
0.629760644481066
 40
1.0
 40
1.0
 40
1.0
 40
1.0
 10
-107.0960722784167
 20
191.3493739199052
 30
0.0
 10
-103.0229979193769
 20
190.9908553783112
 30
0.0
 10
-93.1427473440097
 20
190.1211798667396
 30
0.0
 10
-77.42671712889546
 20
189.068623877909
 30
0.0
 10
-65.78485141539142
 20
188.4081667229694
 30
0.0
 10
-59.96318125780958
 20
188.0778963175298
 30
0.0
  0
SPLINE
  5
208
330
1F
100
AcDbEntity
  8
0
  6
Continuous
 62
     7
370
    25
100
AcDbSpline
210
0.0
220
0.0
230
1.0
 70
     8
 71
     3
 72
    11
 73
     7
 74
     0
 42
0.00000001
 43
0.00000001
 40
0.0
 40
0.0
 40
0.0
 40
0.0
 40
0.0614641195413945
 40
0.4999988937835282
 40
0.9375097801832789
 40
0.9999999999999999
 40
0.9999999999999999
 40
0.9999999999999999
 40
0.9999999999999999
 10
-107.0135121645941
 20
197.0748110443979
 30
0.0
 10
-107.0268592687353
 20
196.9585344285899
 30
0.0
 10
-107.1354354161786
 20
196.0126463281713
 30
0.0
 10
-107.2450428934353
 20
194.2167958129348
 30
0.0
 10
-107.1874231789541
 20
192.4165798728171
 30
0.0
 10
-107.1062209466554
 20
191.4679356318833
 30
0.0
 10
-107.0960722784167
 20
191.3493739199052
 30
0.0
  0
SPLINE
  5
209
330
1F
100
AcDbEntity
  8
0
  6
Continuous
 62
     7
370
    25
100
AcDbSpline
210
0.0
220
0.0
230
1.0
 70
     8
 71
     3
 72
    10
 73
     6
 74
     0
 42
0.00000001
 43
0.00000001
 40
0.0
 40
0.0
 40
0.0
 40
0.0
 40
0.2594618540778876
 40
0.6296073956705975
 40
1.0
 40
1.0
 40
1.0
 40
1.0
 10
-59.80588901712986
 20
198.9859097938702
 30
0.0
 10
-63.89074625072494
 20
198.8774112322646
 30
0.0
 10
-73.80301768526873
 20
198.6141297682156
 30
0.0
 10
-89.54402311640276
 20
198.0542480182859
 30
0.0
 10
-101.1890541203833
 20
197.4013626421935
 30
0.0
 10
-107.0135121645941
 20
197.0748110443978
 30
0.0
  0
SPLINE
  5
20A
330
1F
100
AcDbEntity
  8
0
  6
Continuous
 62
     7
370
    25
100
AcDbSpline
210
0.0
220
0.0
230
1.0
 70
     8
 71
     3
 72
     9
 73
     5
 74
     0
 42
0.00000001
 43
0.00000001
 40
0.0
 40
0.0
 40
0.0
 40
0.0
 40
0.0790369080192106
 40
1.0
 40
1.0
 40
1.0
 40
1.0
 10
-58.16139859379179
 20
199.2825530167917
 30
0.0
 10
-58.20314259170292
 20
199.2683726159532
 30
0.0
 10
-58.73130087822145
 20
199.0889576920415
 30
0.0
 10
-59.29070159934641
 20
199.0353138200682
 30
0.0
 10
-59.80588901712986
 20
198.9859097938702
 30
0.0
  0
SPLINE
  5
20B
330
1F
100
AcDbEntity
  8
0
  6
Continuous
 62
     7
370
    25
100
AcDbSpline
210
0.0
220
0.0
230
1.0
 70
     8
 71
     3
 72
    11
 73
     7
 74
     0
 42
0.00000001
 43
0.00000001
 40
0.0
 40
0.0
 40
0.0
 40
0.0
 40
0.0728838064943306
 40
0.4140719411596084
 40
0.9209668754550524
 40
1.0
 40
1.0
 40
1.0
 40
1.0
 10
-59.78935183337963
 20
195.1313367946947
 30
0.0
 10
-59.79547372179852
 20
195.2418829879559
 30
0.0
 10
-59.83025376887755
 20
195.8699247853476
 30
0.0
 10
-59.4658573619504
 20
197.2478060408247
 30
0.0
 10
-58.80792415234842
 20
198.5083822643807
 30
0.0
 10
-58.2382405753504
 20
199.1905399263692
 30
0.0
 10
-58.16139859379177
 20
199.2825530167918
 30
0.0
  0
SPLINE
  5
20C
330
1F
100
AcDbEntity
  8
0
  6
Continuous
 62
     7
370
    25
100
AcDbSpline
210
0.0
220
0.0
230
1.0
 70
     8
 71
     3
 72
    10
 73
     6
 74
     0
 42
0.00000001
 43
0.00000001
 40
0.0
 40
0.0
 40
0.0
 40
0.0
 40
0.388020737781157
 40
0.9790637766506906
 40
1.0
 40
1.0
 40
1.0
 40
1.0
 10
-59.83550910304727
 20
191.930389835396
 30
0.0
 10
-59.75627854784982
 20
192.3401299135349
 30
0.0
 10
-59.55636199946812
 20
193.3739964811871
 30
0.0
 10
-59.63628859414974
 20
194.4690320440464
 30
0.0
 10
-59.78428865158664
 20
195.1094284032885
 30
0.0
 10
-59.78935183337963
 20
195.1313367946947
 30
0.0
  0
ARC
  5
20D
330
1F
100
AcDbEntity
  8
0
  6
Continuous
 62
     7
370
    25
100
AcDbCircle
 10
-51.5677672496
 20
193.4119762643
 30
0.0
 40
8.399443654264537
100
AcDbArc
 50
190.15961701
 51
168.1881010241
  0
SPLINE
  5
20E
330
1F
100
AcDbEntity
  8
0
  6
Continuous
 62
     7
370
    25
100
AcDbSpline
210
0.0
220
0.0
230
1.0
 70
     8
 71
     3
 72
     9
 73
     5
 74
     0
 42
0.00000001
 43
0.00000001
 40
0.0
 40
0.0
 40
0.0
 40
0.0
 40
0.6817923421274731
 40
0.9999999999999999
 40
0.9999999999999999
 40
0.9999999999999999
 40
0.9999999999999999
 10
-58.16139859379179
 20
199.2825530167917
 30
0.0
 10
-58.0164116216983
 20
199.4703924205017
 30
0.0
 10
-57.80375600335974
 20
199.7459006538794
 30
0.0
 10
-57.57099591445555
 20
199.9754728673571
 30
0.0
 10
-57.49692987171915
 20
200.0485245037204
 30
0.0
  0
ARC
  5
20F
330
1F
100
AcDbEntity
  8
0
  6
Continuous
 62
     7
370
    25
100
AcDbCircle
 10
-51.5677672496
 20
193.4119762643
 30
0.0
 40
8.899367501836318
100
AcDbArc
 50
226.5697782131
 51
131.7779398209
  0
LINE
  5
210
330
1F
100
AcDbEntity
  8
0
  6
Continuous
 62
     7
370
    25
100
AcDbLine
 10
-57.6858213114
 20
186.9491474387
 30
0.0
 11
-58.3279279203
 21
187.7339595846
 31
0.0
  0
SPLINE
  5
211
330
1F
100
AcDbEntity
  8
0
  6
Continuous
 62
     7
370
    25
100
AcDbSpline
210
0.0
220
0.0
230
1.0
 70
     8
 71
     3
 72
    10
 73
     6
 74
     0
 42
0.00000001
 43
0.00000001
 40
0.0
 40
0.0
 40
0.0
 40
0.0
 40
0.3702896688583039
 40
0.7405318123903298
 40
0.9999999999999999
 40
0.9999999999999999
 40
0.9999999999999999
 40
0.9999999999999999
 10
-107.0186451123237
 20
197.5177906818704
 30
0.0
 10
-101.1945696272941
 20
197.7540325166916
 30
0.0
 10
-89.54716615604752
 20
198.226485865557
 30
0.0
 10
-73.8173987781704
 20
198.8689892126851
 30
0.0
 10
-63.91334181925664
 20
199.2749719533853
 30
0.0
 10
-59.83243734298235
 20
199.4422545922765
 30
0.0
  0
ARC
  5
212
330
1F
100
AcDbEntity
  8
0
  6
Continuous
 62
     7
370
    25
100
AcDbCircle
 10
-67.0576391514
 20
198.7929764427
 30
0.0
 40
7.254316183365369
100
AcDbArc
 50
1.5239989618
 51
5.1349767483
  0
ARC
  5
213
330
1F
100
AcDbEntity
  8
0
  6
Continuous
 62
     7
370
    25
100
AcDbCircle
 10
-102.7601623876
 20
197.3456155354
 30
0.0
 40
4.261961918871708
100
AcDbArc
 50
177.6847295556
 51
183.6430203235
  0
SPLINE
  5
214
330
1F
100
AcDbEntity
  8
0
  6
Continuous
 62
     7
370
    25
100
AcDbSpline
210
0.0
220
0.0
230
1.0
 70
     8
 71
     3
 72
    10
 73
     6
 74
     0
 42
0.00000001
 43
0.00000001
 40
0.0
 40
0.0
 40
0.0
 40
0.0
 40
0.3702717503651156
 40
0.7405122151371757
 40
1.0
 40
1.0
 40
1.0
 40
1.0
 10
-60.00287668347604
 20
187.6225067460426
 30
0.0
 10
-65.81729345029672
 20
188.0289119516626
 30
0.0
 10
-77.4456357029353
 20
188.8416880242636
 30
0.0
 10
-93.15061438038941
 20
189.9370567358
 30
0.0
 10
-103.0392385659483
 20
190.6237609769631
 30
0.0
 10
-107.1139758621382
 20
190.9067264664399
 30
0.0
  0
ARC
  5
215
330
1F
100
AcDbEntity
  8
0
  6
Continuous
 62
     7
370
    25
100
AcDbCircle
 10
-102.8522992664
 20
190.9560419415
 30
0.0
 40
4.261961921817626
100
AcDbArc
 50
174.704697713
 51
180.6629884768
  0
ARC
  5
216
330
1F
100
AcDbEntity
  8
0
  6
Continuous
 62
     7
370
    25
100
AcDbCircle
 10
-67.2063532693
 20
188.4798447004
 30
0.0
 40
7.254316183482735
100
AcDbArc
 50
353.2127412857
 51
356.8237190721
  0
SPLINE
  5
217
330
1F
100
AcDbEntity
  8
0
  6
Continuous
 62
     7
370
    25
100
AcDbSpline
210
0.0
220
0.0
230
1.0
 70
     8
 71
     3
 72
    12
 73
     8
 74
     0
 42
0.00000001
 43
0.00000001
 40
0.0
 40
0.0
 40
0.0
 40
0.0
 40
0.1224290494151393
 40
0.3423522449770478
 40
0.5614228816909417
 40
0.7807229538533513
 40
1.0
 40
1.0
 40
1.0
 40
1.0
 10
-109.0300027467218
 20
191.4879468398365
 30
0.0
 10
-109.0210336152438
 20
191.4854585763885
 30
0.0
 10
-108.9959529476108
 20
191.4785005661645
 30
0.0
 10
-108.7802329432928
 20
191.458380173776
 30
0.0
 10
-108.3447479522197
 20
191.4265869063477
 30
0.0
 10
-107.7613091326209
 20
191.3886185339968
 30
0.0
 10
-107.3178101350106
 20
191.3624550000597
 30
0.0
 10
-107.0960722784167
 20
191.3493739199052
 30
0.0
  0
SPLINE
  5
218
330
1F
100
AcDbEntity
  8
0
  6
Continuous
 62
     7
370
    25
100
AcDbSpline
210
0.0
220
0.0
230
1.0
 70
     8
 71
     3
 72
    11
 73
     7
 74
     0
 42
0.00000001
 43
0.00000001
 40
0.0
 40
0.0
 40
0.0
 40
0.0
 40
0.0800485240044458
 40
0.5000005853538747
 40
0.920924832227965
 40
1.0
 40
1.0
 40
1.0
 40
1.0
 10
-109.0300027467218
 20
191.4879468398365
 30
0.0
 10
-109.0276079242782
 20
191.6341719356113
 30
0.0
 10
-109.0126493396131
 20
192.5475258592481
 30
0.0
 10
-108.9869831288713
 20
194.2417414959549
 30
0.0
 10
-108.9638157601092
 20
195.9342102444232
 30
0.0
 10
-108.9524341334545
 20
196.8476044630012
 30
0.0
 10
-108.9506341232728
 20
196.9920582342666
 30
0.0
  0
SPLINE
  5
219
330
1F
100
AcDbEntity
  8
0
  6
Continuous
 62
     7
370
    25
100
AcDbSpline
210
0.0
220
0.0
230
1.0
 70
     8
 71
     3
 72
    12
 73
     8
 74
     0
 42
0.00000001
 43
0.00000001
 40
0.0
 40
0.0
 40
0.0
 40
0.0
 40
0.1130367476169285
 40
0.3328594693547987
 40
0.5544127937945039
 40
0.7774207483513282
 40
0.9999999999999999
 40
0.9999999999999999
 40
0.9999999999999999
 40
0.9999999999999999
 10
-107.0135121645941
 20
197.0748110443979
 30
0.0
 10
-107.1276434586098
 20
197.0714410368212
 30
0.0
 10
-107.4637260402811
 20
197.0615173707801
 30
0.0
 10
-107.9981073783269
 20
197.0436282206174
 30
0.0
 10
-108.5149812393936
 20
197.023203318634
 30
0.0
 10
-108.8721768511079
 20
197.0049097257056
 30
0.0
 10
-108.9244984788992
 20
196.9963393161938
 30
0.0
 10
-108.9506341232728
 20
196.9920582342666
 30
0.0
  0
SPLINE
  5
21A
330
1F
100
AcDbEntity
  8
0
  6
Continuous
 62
     7
370
    25
100
AcDbSpline
210
0.0
220
0.0
230
1.0
 70
     8
 71
     3
 72
     9
 73
     5
 74
     0
 42
0.00000001
 43
0.00000001
 40
0.0
 40
0.0
 40
0.0
 40
0.0
 40
0.5000106123815461
 40
1.0
 40
1.0
 40
1.0
 40
1.0
 10
-57.19249171062085
 20
186.5101571023467
 30
0.0
 10
-57.61801821336099
 20
186.8041636055707
 30
0.0
 10
-58.4690531558261
 20
187.392164131847
 30
0.0
 10
-59.49160940876413
 20
187.5457269610889
 30
0.0
 10
-60.00287668347604
 20
187.6225067460426
 30
0.0
  0
SPLINE
  5
21B
330
1F
100
AcDbEntity
  8
0
  6
Continuous
 62
     7
370
    25
100
AcDbSpline
210
0.0
220
0.0
230
1.0
 70
     8
 71
     3
 72
     9
 73
     5
 74
     0
 42
0.00000001
 43
0.00000001
 40
0.0
 40
0.0
 40
0.0
 40
0.0
 40
0.9838702326459399
 40
1.0
 40
1.0
 40
1.0
 40
1.0
 10
-57.68582131144229
 20
186.9491474387052
 30
0.0
 10
-57.52658551678366
 20
186.8020038077726
 30
0.0
 10
-57.36473917833879
 20
186.6524478744287
 30
0.0
 10
-57.19522592004061
 20
186.5124157873336
 30
0.0
 10
-57.19249171062085
 20
186.5101571023467
 30
0.0
  0
SPLINE
  5
21C
330
1F
100
AcDbEntity
  8
0
  6
Continuous
 62
     7
370
    25
100
AcDbSpline
210
0.0
220
0.0
230
1.0
 70
     8
 71
     3
 72
     9
 73
     5
 74
     0
 42
0.00000001
 43
0.00000001
 40
0.0
 40
0.0
 40
0.0
 40
0.0
 40
0.5055561057107382
 40
1.0
 40
1.0
 40
1.0
 40
1.0
 10
-59.83243734298235
 20
199.4422545922765
 30
0.0
 10
-59.31341293247181
 20
199.5054337025292
 30
0.0
 10
-58.28677235856198
 20
199.6304032351662
 30
0.0
 10
-57.41981126357937
 20
200.1942949515981
 30
0.0
 10
-56.99114764357891
 20
200.4731077678281
 30
0.0
  0
SPLINE
  5
21D
330
1F
100
AcDbEntity
  8
0
  6
Continuous
 62
     7
370
    25
100
AcDbSpline
210
0.0
220
0.0
230
1.0
 70
     8
 71
     3
 72
     9
 73
     5
 74
     0
 42
0.00000001
 43
0.00000001
 40
0.0
 40
0.0
 40
0.0
 40
0.0
 40
0.0161297673532551
 40
1.0
 40
1.0
 40
1.0
 40
1.0
 10
-56.99114764357893
 20
200.473107767828
 30
0.0
 10
-56.99394584255976
 20
200.470928859504
 30
0.0
 10
-57.16742627284502
 20
200.3358427000879
 30
0.0
 10
-57.33351757934877
 20
200.1910155880927
 30
0.0
 10
-57.49692987171915
 20
200.0485245037204
 30
0.0
  0
SPLINE
  5
21E
330
1F
100
AcDbEntity
  8
0
  6
Continuous
 62
     7
370
    25
100
AcDbSpline
210
0.0
220
0.0
230
1.0
 70
     8
 71
     3
 72
    12
 73
     8
 74
     0
 42
0.00000001
 43
0.00000001
 40
0.0
 40
0.0
 40
0.0
 40
0.0
 40
0.2230315344150385
 40
0.4461337558340378
 40
0.6675099896776946
 40
0.8870667292264961
 40
1.0
 40
1.0
 40
1.0
 40
1.0
 10
-108.4711318363836
 20
197.4843588336062
 30
0.0
 10
-108.4516273351047
 20
197.4821871372397
 30
0.0
 10
-108.4126121508435
 20
197.4778430562154
 30
0.0
 10
-108.1449506802944
 20
197.4809269680999
 30
0.0
 10
-107.7572371146396
 20
197.4909266282955
 30
0.0
 10
-107.3562778450771
 20
197.5044841343042
 30
0.0
 10
-107.1042490096688
 20
197.5144169203201
 30
0.0
 10
-107.0186451123237
 20
197.5177906818704
 30
0.0
  0
ARC
  5
21F
330
1F
100
AcDbEntity
  8
0
  6
Continuous
 62
     7
370
    25
100
AcDbCircle
 10
-108.4505886231
 20
196.9846810357
 30
0.0
 40
0.5000999153470012
100
AcDbArc
 50
92.3542709417
 51
179.1547735553
  0
SPLINE
  5
220
330
1F
100
AcDbEntity
  8
0
  6
Continuous
 62
     7
370
    25
100
AcDbSpline
210
0.0
220
0.0
230
1.0
 70
     8
 71
     3
 72
    12
 73
     8
 74
     0
 42
0.00000001
 43
0.00000001
 40
0.0
 40
0.0
 40
0.0
 40
0.0
 40
0.2190444340109369
 40
0.4380981679380286
 40
0.6571027493691893
 40
0.8772791087290092
 40
1.0
 40
1.0
 40
1.0
 40
1.0
 10
-107.1139758621382
 20
190.9067264664399
 30
0.0
 10
-107.2802490065573
 20
190.9179538359607
 30
0.0
 10
-107.6128023548139
 20
190.94040905168
 30
0.0
 10
-108.0506338257667
 20
190.966243047335
 30
0.0
 10
-108.3774026532544
 20
190.9822619734684
 30
0.0
 10
-108.5392034093326
 20
190.9864191785733
 30
0.0
 10
-108.5581233659343
 20
190.983183208004
 30
0.0
 10
-108.5648947061323
 20
190.9820250733395
 30
0.0
  0
ARC
  5
221
330
1F
100
AcDbEntity
  8
0
  6
Continuous
 62
     7
370
    25
100
AcDbCircle
 10
-108.5299524427
 20
191.4809027774
 30
0.0
 40
0.5000999153470266
100
AcDbArc
 50
179.1929444793
 51
265.9934470923
  0
LINE
  5
222
330
1F
100
AcDbEntity
  8
0
  6
Continuous
 62
     7
370
    25
100
AcDbLine
 10
-59.832437343
 20
199.4422545923
 30
0.0
 11
-59.8583928291
 21
199.513926554
 31
0.0
  0
LINE
  5
223
330
1F
100
AcDbEntity
  8
0
  6
Continuous
 62
     7
370
    25
100
AcDbLine
 10
-108.4757577142
 20
197.4888644527
 30
0.0
 11
-108.4711318364
 21
197.4843588336
 31
0.0
  0
ELLIPSE
  5
224
330
1F
100
AcDbEntity
  8
0
  6
Continuous
 62
     7
370
    25
100
AcDbEllipse
 10
-106.9749411308
 20
197.5505239675
 30
0.0
 11
1.501038268487989
 21
0.06123645790350452
 31
0.0
210
0.0
220
0.0
230
1.0
 40
0.0174284859
 41
2.255125316697247
 42
3.158083049611303
  0
LINE
  5
225
330
1F
100
AcDbEntity
  8
0
  6
Continuous
 62
     7
370
    25
100
AcDbLine
 10
-104.4565779854
 20
197.7229907651
 30
0.0
 11
-107.9246542732
 21
197.5320836852
 31
0.0
  0
LINE
  5
226
330
1F
100
AcDbEntity
  8
0
  6
Continuous
 62
     7
370
    25
100
AcDbLine
 10
-104.456579404
 20
197.7228923841
 30
0.0
 11
-104.4565779854
 21
197.7229907651
 31
0.0
  0
ELLIPSE
  5
227
330
1F
100
AcDbEntity
  8
0
  6
Continuous
 62
     7
370
    25
100
AcDbEllipse
 10
-95.0033222974
 20
197.9162578769
 30
0.0
 11
14.51003659538381
 21
0.5919524264004963
 31
0.0
210
0.0
220
0.0
230
1.0
 40
0.0174284859
 41
1.543516838852419
 42
2.279642175407788
  0
ELLIPSE
  5
228
330
1F
100
AcDbEntity
  8
0
  6
Continuous
 62
     7
370
    25
100
AcDbEllipse
 10
-93.6687481512
 20
198.8473958202
 30
0.0
 11
35.72735421573401
 21
1.457535539476197
 31
0.0
210
0.0
220
0.0
230
1.0
 40
0.0174284859
 41
4.685109492442214
 42
5.167309992308016
  0
ELLIPSE
  5
229
330
1F
100
AcDbEntity
  8
0
  6
Continuous
 62
     7
370
    25
100
AcDbEllipse
 10
-74.6451284885
 20
198.9455122901
 30
0.0
 11
7.5051913424399
 21
0.3061822895174942
 31
0.0
210
0.0
220
0.0
230
1.0
 40
0.0174284859
 41
1.834826681008006
 42
2.02571733871782
  0
LINE
  5
22A
330
1F
100
AcDbEntity
  8
0
  6
Continuous
 62
     7
370
    25
100
AcDbLine
 10
-76.5914869351
 20
198.8412203346
 30
0.0
 11
-76.608934765
 21
198.9918781096
 31
0.0
  0
SPLINE
  5
22B
330
1F
100
AcDbEntity
  8
0
  6
Continuous
 62
     7
370
    25
100
AcDbSpline
210
0.0
220
0.0
230
1.0
 70
     8
 71
     3
 72
    10
 73
     6
 74
     0
 42
0.00000001
 43
0.00000001
 40
0.0
 40
0.0
 40
0.0
 40
0.0
 40
0.0186368637457265
 40
0.3939469944632983
 40
1.0
 40
1.0
 40
1.0
 40
1.0
 10
-76.40772773982805
 20
198.839056966966
 30
0.0
 10
-76.4101849569731
 20
198.8390046401394
 30
0.0
 10
-76.4621257406938
 20
198.837898552958
 30
0.0
 10
-76.56615241945674
 20
198.8367183451453
 30
0.0
 10
-76.58181457574575
 20
198.8395015387876
 30
0.0
 10
-76.59148693508097
 20
198.8412203346232
 30
0.0
  0
LINE
  5
22C
330
1F
100
AcDbEntity
  8
0
  6
Continuous
 62
     7
370
    25
100
AcDbLine
 10
-59.8583928291
 20
199.513926554
 30
0.0
 11
-76.4077277398
 21
198.839056967
 31
0.0
  0
LINE
  5
22D
330
1F
100
AcDbEntity
  8
0
  6
Continuous
 62
     7
370
    25
100
AcDbLine
 10
-76.5561821058
 20
188.6872094
 30
0.0
 11
-60.0371591717
 21
187.5357176798
 31
0.0
  0
SPLINE
  5
22E
330
1F
100
AcDbEntity
  8
0
  6
Continuous
 62
     7
370
    25
100
AcDbSpline
210
0.0
220
0.0
230
1.0
 70
     8
 71
     3
 72
    11
 73
     7
 74
     0
 42
0.00000001
 43
0.00000001
 40
0.0
 40
0.0
 40
0.0
 40
0.0
 40
0.4177469294495242
 40
0.8392770662410461
 40
0.9817832068819345
 40
1.0
 40
1.0
 40
1.0
 40
1.0
 10
-76.73984899344039
 20
188.6912074399984
 30
0.0
 10
-76.73519682956598
 20
188.6922236601488
 30
0.0
 10
-76.72585037080611
 20
188.6942653035613
 30
0.0
 10
-76.6503790863765
 20
188.6919747148585
 30
0.0
 10
-76.58016181037381
 20
188.6884914060152
 30
0.0
 10
-76.55862333744437
 20
188.68733991346
 30
0.0
 10
-76.55618210584004
 20
188.6872094000283
 30
0.0
  0
LINE
  5
22F
330
1F
100
AcDbEntity
  8
0
  6
Continuous
 62
     7
370
    25
100
AcDbLine
 10
-76.7594127344
 20
188.5564255331
 30
0.0
 11
-76.7398489934
 21
188.69120744
 31
0.0
  0
ELLIPSE
  5
230
330
1F
100
AcDbEntity
  8
0
  6
Continuous
 62
     7
370
    25
100
AcDbEllipse
 10
-74.795086067
 20
188.5461481486
 30
0.0
 11
7.493242450720758
 21
-0.5224578985576045
 31
0.0
210
0.0
220
0.0
230
1.0
 40
0.0174284859
 41
4.257467968461494
 42
4.448358626171602
  0
ELLIPSE
  5
231
330
1F
100
AcDbEntity
  8
0
  6
Continuous
 62
     7
370
    25
100
AcDbEllipse
 10
-93.8079670335
 20
189.1927463768
 30
0.0
 11
35.67047328259632
 21
-2.487083613581405
 31
0.0
210
0.0
220
0.0
230
1.0
 40
0.0174284859
 41
1.115875314871842
 42
1.598075814737374
  0
ELLIPSE
  5
232
330
1F
100
AcDbEntity
  8
0
  6
Continuous
 62
     7
370
    25
100
AcDbEllipse
 10
-95.1151380798
 20
190.1619779676
 30
0.0
 11
14.48693540472679
 21
-1.010085270544693
 31
0.0
210
0.0
220
0.0
230
1.0
 40
0.0174284859
 41
4.003543131771857
 42
4.739668468327165
  0
LINE
  5
233
330
1F
100
AcDbEntity
  8
0
  6
Continuous
 62
     7
370
    25
100
AcDbLine
 10
-104.5588906806
 20
190.6277376632
 30
0.0
 11
-104.558889262
 21
190.6278360442
 31
0.0
  0
LINE
  5
234
330
1F
100
AcDbEntity
  8
0
  6
Continuous
 62
     7
370
    25
100
AcDbLine
 10
-108.0200204441
 20
190.9185630599
 30
0.0
 11
-104.5588906806
 21
190.6277376632
 31
0.0
  0
ELLIPSE
  5
235
330
1F
100
AcDbEntity
  8
0
  6
Continuous
 62
     7
370
    25
100
AcDbEllipse
 10
-107.0712338757
 20
190.8727466404
 30
0.0
 11
1.498648490144135
 21
-0.1044915797114641
 31
0.0
210
0.0
220
0.0
230
1.0
 40
0.0174284859
 41
3.125102257562722
 42
4.0280599904816
  0
LINE
  5
236
330
1F
100
AcDbEntity
  8
0
  6
Continuous
 62
     7
370
    25
100
AcDbLine
 10
-108.5648947061
 20
190.9820250733
 30
0.0
 11
-108.5696485745
 21
190.9776547091
 31
0.0
  0
LINE
  5
237
330
1F
100
AcDbEntity
  8
0
  6
Continuous
 62
     7
370
    25
100
AcDbLine
 10
-60.0371591717
 20
187.5357176798
 30
0.0
 11
-60.0028766835
 21
187.622506746
 31
0.0
  0
SPLINE
  5
238
330
1F
100
AcDbEntity
  8
0
  6
Continuous
 62
     7
370
    25
100
AcDbSpline
210
0.0
220
0.0
230
1.0
 70
     8
 71
     3
 72
     9
 73
     5
 74
     0
 42
0.00000001
 43
0.00000001
 40
0.0
 40
0.0
 40
0.0
 40
0.0
 40
0.5001021276704701
 40
1.0
 40
1.0
 40
1.0
 40
1.0
 10
-57.02341589223914
 20
200.5392713484002
 30
0.0
 10
-57.45645031436647
 20
200.2589602310202
 30
0.0
 10
-58.3223422955593
 20
199.698452482961
 30
0.0
 10
-59.34644571080641
 20
199.5754268207938
 30
0.0
 10
-59.85839282913383
 20
199.5139265540344
 30
0.0
  0
LINE
  5
239
330
1F
100
AcDbEntity
  8
0
  6
Continuous
 62
     7
370
    25
100
AcDbLine
 10
-57.0234158922
 20
200.5392713484
 30
0.0
 11
-56.9911476436
 21
200.4731077678
 31
0.0
  0
SPLINE
  5
23A
330
1F
100
AcDbEntity
  8
0
  6
Continuous
 62
     7
370
    25
100
AcDbSpline
210
0.0
220
0.0
230
1.0
 70
     8
 71
     3
 72
     9
 73
     5
 74
     0
 42
0.00000001
 43
0.00000001
 40
0.0
 40
0.0
 40
0.0
 40
0.0
 40
0.4007227371565279
 40
1.0
 40
1.0
 40
1.0
 40
1.0
 10
-60.03715917168806
 20
187.5357176798208
 30
0.0
 10
-59.62921348563383
 20
187.4814228576208
 30
0.0
 10
-58.61118868137905
 20
187.3459306153155
 30
0.0
 10
-57.75027881808278
 20
186.7733508960668
 30
0.0
 10
-57.23435511165165
 20
186.4302168891557
 30
0.0
  0
LINE
  5
23B
330
1F
100
AcDbEntity
  8
0
  6
Continuous
 62
     7
370
    25
100
AcDbLine
 10
-57.1924917106
 20
186.5101571023
 30
0.0
 11
-57.2343551117
 21
186.4302168892
 31
0.0
  0
ARC
  5
23C
330
1F
100
AcDbEntity
  8
0
  6
Continuous
 62
     7
370
    25
100
AcDbCircle
 10
-51.5677672496
 20
193.4119762643
 30
0.0
 40
8.97565804422216
100
AcDbArc
 50
64.3387444117
 51
127.4325569999
  0
LWPOLYLINE
  5
23D
330
1F
100
AcDbEntity
  8
0
  6
Continuous
 62
     7
370
    25
100
AcDbPolyline
 90
        3
 70
   128
 43
0.0
 10
-47.5139017499
 20
201.6050374827
 10
-47.6194276953
 20
201.5402998552
 10
-47.6808615728
 20
201.5023657226
  0
ARC
  5
23E
330
1F
100
AcDbEntity
  8
0
  6
Continuous
 62
     7
370
    25
100
AcDbCircle
 10
-51.5677672496
 20
193.4119762643
 30
0.0
 40
9.141120151092174
100
AcDbArc
 50
294.6735754346
 51
63.6741384459
  0
LWPOLYLINE
  5
23F
330
1F
100
AcDbEntity
  8
0
  6
Continuous
 62
     7
370
    25
100
AcDbPolyline
 90
        3
 70
   128
 43
0.0
 10
-47.8996128675
 20
185.2022365973
 10
-47.8554394948
 20
185.1731867735
 10
-47.7518240542
 20
185.1054333522
  0
ARC
  5
240
330
1F
100
AcDbEntity
  8
0
  6
Continuous
 62
     7
370
    25
100
AcDbCircle
 10
-51.5677672496
 20
193.4119762643
 30
0.0
 40
8.991950954660682
100
AcDbArc
 50
230.936266164
 51
294.0753401836
  0
LINE
  5
241
330
1F
100
AcDbEntity
  8
0
  6
Continuous
 62
     7
370
    25
100
AcDbLine
 10
-109.0347566151
 20
191.4835764756
 30
0.0
 11
-109.0300027467
 21
191.4879468398
 31
0.0
  0
LINE
  5
242
330
1F
100
AcDbEntity
  8
0
  6
Continuous
 62
     7
370
    25
100
AcDbLine
 10
-108.9552600011
 20
196.9965638534
 30
0.0
 11
-109.0347566151
 21
191.4835764756
 31
0.0
  0
LINE
  5
243
330
1F
100
AcDbEntity
  8
0
  6
Continuous
 62
     7
370
    25
100
AcDbLine
 10
-108.9506341233
 20
196.9920582343
 30
0.0
 11
-108.9552600011
 21
196.9965638534
 31
0.0
  0
ARC
  5
244
330
1F
100
AcDbEntity
  8
0
  6
Continuous
 62
     7
370
    25
100
AcDbCircle
 10
-108.5347063111
 20
191.4765324131
 30
0.0
 40
0.5000999153471207
100
AcDbArc
 50
179.1929444787
 51
265.9934470923
  0
ARC
  5
245
330
1F
100
AcDbEntity
  8
0
  6
Continuous
 62
     7
370
    25
100
AcDbCircle
 10
-108.4552145009
 20
196.9891866548
 30
0.0
 40
0.5000999153470603
100
AcDbArc
 50
92.3542709417
 51
179.1547735553
  0
LINE
  5
246
330
1F
100
AcDbEntity
  8
0
  6
Continuous
 62
     7
370
    25
100
AcDbLine
 10
-108.0200204441
 20
190.9185630599
 30
0.0
 11
-108.027122144
 21
190.9190325403
 31
0.0
  0
LINE
  5
247
330
1F
100
AcDbEntity
  8
0
  6
Continuous
 62
     7
370
    25
100
AcDbLine
 10
-107.9246542732
 20
197.5320836852
 30
0.0
 11
-107.9317665572
 21
197.5318191687
 31
0.0
  0
SPLINE
  5
248
330
1F
100
AcDbEntity
  8
0
  6
Continuous
 62
     7
370
    25
100
AcDbSpline
210
0.0
220
0.0
230
1.0
 70
     8
 71
     3
 72
    12
 73
     8
 74
     0
 42
0.00000001
 43
0.00000001
 40
0.0
 40
0.0
 40
0.0
 40
0.0
 40
0.1662426524176553
 40
0.3368059756191315
 40
0.6054181071254588
 40
0.8801435087136193
 40
1.0
 40
1.0
 40
1.0
 40
1.0
 10
-57.52083157358115
 20
205.175693034624
 30
0.0
 10
-56.88545818464114
 20
205.0110296869867
 30
0.0
 10
-55.59819795970955
 20
204.6774233672901
 30
0.0
 10
-53.42379750730819
 20
203.9830347470757
 30
0.0
 10
-51.07435596225137
 20
203.0968725710468
 30
0.0
 10
-49.12117205949465
 20
202.2259916152082
 30
0.0
 10
-48.01526789459027
 20
201.6721306013417
 30
0.0
 10
-47.67934322268302
 20
201.5038921723079
 30
0.0
  0
LINE
  5
249
330
1F
100
AcDbEntity
  8
0
  6
Continuous
 62
     7
370
    25
100
AcDbLine
 10
-57.5208315736
 20
205.1756930346
 30
0.0
 11
-57.5039734493
 21
205.2449306966
 31
0.0
  0
ARC
  5
24A
330
1F
100
AcDbEntity
  8
0
  6
Continuous
 62
     7
370
    25
100
AcDbCircle
 10
-68.9018920633
 20
158.4327692772
 30
0.0
 40
48.17977797259061
100
AcDbArc
 50
63.6457069293
 51
76.3157780851
  0
LWPOLYLINE
  5
24B
330
1F
100
AcDbEntity
  8
0
  6
Continuous
 62
     7
370
    25
100
AcDbPolyline
 90
        3
 70
   128
 43
0.0
 10
-47.6793432227
 20
201.5038921723
 10
-47.6194205147
 20
201.5405556986
 10
-47.5139017281
 20
201.6050390216
  0
SPLINE
  5
24C
330
1F
100
AcDbEntity
  8
0
  6
Continuous
 62
     7
370
    25
100
AcDbSpline
210
0.0
220
0.0
230
1.0
 70
     8
 71
     3
 72
    11
 73
     7
 74
     0
 42
0.00000001
 43
0.00000001
 40
0.0
 40
0.0
 40
0.0
 40
0.0
 40
0.134599067676596
 40
0.4126978815969504
 40
0.6969472592954593
 40
1.0
 40
1.0
 40
1.0
 40
1.0
 10
-47.68007141722966
 20
201.5031610296176
 30
0.0
 10
-48.10658057449824
 20
201.700214969953
 30
0.0
 10
-49.41431196316845
 20
202.304407444244
 30
0.0
 10
-51.78090006912109
 20
202.9610659561686
 30
0.0
 10
-54.82884346323819
 20
203.3815587569669
 30
0.0
 10
-57.01925427948376
 20
203.4402883671208
 30
0.0
 10
-58.1495243403804
 20
203.4705933307159
 30
0.0
  0
ARC
  5
24D
330
1F
100
AcDbEntity
  8
0
  6
Continuous
 62
     7
370
    25
100
AcDbCircle
 10
-53.6663972061
 20
202.7860586952
 30
0.0
 40
4.535087272521299
100
AcDbArc
 50
148.2023216577
 51
171.3184857153
  0
LINE
  5
24E
330
1F
100
AcDbEntity
  8
0
  6
Continuous
 62
     7
370
    25
100
AcDbLine
 10
-47.6793432227
 20
201.5038921723
 30
0.0
 11
-47.6800714172
 21
201.5031610296
 31
0.0
  0
LINE
  5
24F
330
1F
100
AcDbEntity
  8
0
  6
Continuous
 62
     7
370
    25
100
AcDbLine
 10
-57.0234158922
 20
200.5392713484
 30
0.0
 11
-59.1808736311
 21
203.3577882552
 31
0.0
  0
ARC
  5
250
330
1F
100
AcDbEntity
  8
0
  6
Continuous
 62
     7
370
    25
100
AcDbCircle
 10
-51.5677672496
 20
193.4119762643
 30
0.0
 40
12.52511736202728
100
AcDbArc
 50
127.0321658872
 51
127.4325569999
  0
LINE
  5
251
330
1F
100
AcDbEntity
  8
0
  6
Continuous
 62
     7
370
    25
100
AcDbLine
 10
-58.1495243404
 20
203.4705933307
 30
0.0
 11
-59.1111855492
 21
203.4107464532
 31
0.0
  0
LINE
  5
252
330
1F
100
AcDbEntity
  8
0
  6
Continuous
 62
     7
370
    25
100
AcDbLine
 10
-47.6808615728
 20
201.5023657226
 30
0.0
 11
-47.6800714172
 21
201.5031610296
 31
0.0
  0
LINE
  5
253
330
1F
100
AcDbEntity
  8
0
  6
Continuous
 62
     7
370
    25
100
AcDbLine
 10
-62.1045535565
 20
202.9747391624
 30
0.0
 11
-60.0030169428
 21
203.0604382648
 31
0.0
  0
LINE
  5
254
330
1F
100
AcDbEntity
  8
0
  6
Continuous
 62
     7
370
    25
100
AcDbLine
 10
-59.8583928291
 20
199.513926554
 30
0.0
 11
-60.0030169428
 21
203.0604382648
 31
0.0
  0
SPLINE
  5
255
330
1F
100
AcDbEntity
  8
0
  6
Continuous
 62
     7
370
    25
100
AcDbSpline
210
0.0
220
0.0
230
1.0
 70
     8
 71
     3
 72
    16
 73
    12
 74
     0
 42
0.00000001
 43
0.00000001
 40
0.0
 40
0.0
 40
0.0
 40
0.0
 40
0.2861254310575664
 40
0.7591203623085437
 40
0.8520758313858456
 40
0.9266344548631272
 40
0.9604862301433729
 40
0.9835335436569244
 40
0.9930756629548354
 40
0.9972242292023619
 40
1.0
 40
1.0
 40
1.0
 40
1.0
 10
-63.55262946381154
 20
202.4714220700933
 30
0.0
 10
-64.78829134698178
 20
201.959117749927
 30
0.0
 10
-68.06663012650222
 20
200.5999214013208
 30
0.0
 10
-71.87849202241512
 20
199.6369701750999
 30
0.0
 10
-74.68396483426218
 20
199.1154461195918
 30
0.0
 10
-75.55123551844977
 20
198.9734334802746
 30
0.0
 10
-76.0780433770217
 20
198.8925001176189
 30
0.0
 10
-76.31224524046415
 20
198.8567638307835
 30
0.0
 10
-76.3900937866356
 20
198.8435649397551
 30
0.0
 10
-76.40622760444327
 20
198.8400634606786
 30
0.0
 10
-76.4072984629518
 20
198.8393449839552
 30
0.0
 10
-76.40772773982805
 20
198.839056966966
 30
0.0
  0
LINE
  5
256
330
1F
100
AcDbEntity
  8
0
  6
Continuous
 62
     7
370
    25
100
AcDbLine
 10
-62.1045535565
 20
202.9747391624
 30
0.0
 11
-63.5526294638
 21
202.4714220701
 31
0.0
  0
ARC
  5
257
330
1F
100
AcDbEntity
  8
0
  6
Continuous
 62
     7
370
    25
100
AcDbCircle
 10
-69.4074963985
 20
198.9463709592
 30
0.0
 40
6.834138728215433
100
AcDbArc
 50
31.0509661473
 51
46.1226597598
  0
SPLINE
  5
258
330
1F
100
AcDbEntity
  8
0
  6
Continuous
 62
     7
370
    25
100
AcDbSpline
210
0.0
220
0.0
230
1.0
 70
     8
 71
     3
 72
    10
 73
     6
 74
     0
 42
0.00000001
 43
0.00000001
 40
0.0
 40
0.0
 40
0.0
 40
0.0
 40
0.5975855365574619
 40
0.9790563563181734
 40
1.0
 40
1.0
 40
1.0
 40
1.0
 10
-76.51761002727622
 20
198.8497693024992
 30
0.0
 10
-76.52018281938244
 20
198.8460667153834
 30
0.0
 10
-76.52439796233845
 20
198.8400005688175
 30
0.0
 10
-76.45003999604863
 20
198.8385517378968
 30
0.0
 10
-76.40982093894897
 20
198.8390319731429
 30
0.0
 10
-76.40772773982805
 20
198.839056966966
 30
0.0
  0
SPLINE
  5
259
330
1F
100
AcDbEntity
  8
0
  6
Continuous
 62
     7
370
    25
100
AcDbSpline
210
0.0
220
0.0
230
1.0
 70
     8
 71
     3
 72
    14
 73
    10
 74
     0
 42
0.00000001
 43
0.00000001
 40
0.0
 40
0.0
 40
0.0
 40
0.0
 40
0.0129036569231479
 40
0.0519665716781168
 40
0.1318891824261215
 40
0.2280032005552161
 40
0.4679440229400844
 40
0.7079115564493639
 40
0.9999999999999999
 40
0.9999999999999999
 40
0.9999999999999999
 40
0.9999999999999999
 10
-76.51761002727622
 20
198.8497693024992
 30
0.0
 10
-76.4840318180569
 20
198.8571308983992
 30
0.0
 10
-76.34880314399861
 20
198.8867780676691
 30
0.0
 10
-75.90809917826485
 20
198.9828158605974
 30
0.0
 10
-75.09383780613219
 20
199.1734968603642
 30
0.0
 10
-73.4337983891982
 20
199.61665852774
 30
0.0
 10
-71.0776772318645
 20
200.420227666712
 30
0.0
 10
-67.91207629034297
 20
201.8196705402362
 30
0.0
 10
-65.81945088280195
 20
203.1450069224613
 30
0.0
 10
-64.6706399971489
 20
203.8725909695467
 30
0.0
  0
LWPOLYLINE
  5
25A
330
1F
100
AcDbEntity
  8
0
  6
Continuous
 62
     7
370
    25
100
AcDbPolyline
 90
        4
 70
   128
 43
0.0
 10
-76.534956258
 20
199.0011307174
 10
-76.532962132
 20
198.9837420109
 10
-76.5249891388
 20
198.9141870768
 10
-76.5176100273
 20
198.8497693025
  0
LINE
  5
25B
330
1F
100
AcDbEntity
  8
0
  6
Continuous
 62
     7
370
    25
100
AcDbLine
 10
-74.7408247592
 20
199.4048317147
 30
0.0
 11
-76.534956258
 21
199.0011307174
 31
0.0
  0
ARC
  5
25C
330
1F
100
AcDbEntity
  8
0
  6
Continuous
 62
     7
370
    25
100
AcDbCircle
 10
-82.486843036
 20
229.9453850465
 30
0.0
 40
31.5075577752833
100
AcDbArc
 50
284.2318562649
 51
304.3457884339
  0
LINE
  5
25D
330
1F
100
AcDbEntity
  8
0
  6
Continuous
 62
     7
370
    25
100
AcDbLine
 10
-64.6706399971
 20
203.8725909695
 30
0.0
 11
-64.710718383
 21
203.9312429449
 31
0.0
  0
SPLINE
  5
25E
330
1F
100
AcDbEntity
  8
0
  6
Continuous
 62
     7
370
    25
100
AcDbSpline
210
0.0
220
0.0
230
1.0
 70
     8
 71
     3
 72
     9
 73
     5
 74
     0
 42
0.00000001
 43
0.00000001
 40
0.0
 40
0.0
 40
0.0
 40
0.0
 40
0.4998978730609647
 40
1.0
 40
1.0
 40
1.0
 40
1.0
 10
-60.00301694283283
 20
203.0604382647848
 30
0.0
 10
-59.85454954957509
 20
203.0782657965777
 30
0.0
 10
-59.55755410058733
 20
203.1139281443366
 30
0.0
 10
-59.30645088388664
 20
203.2764904835501
 30
0.0
 10
-59.18087363113337
 20
203.357788255151
 30
0.0
  0
ARC
  5
25F
330
1F
100
AcDbEntity
  8
0
  6
Continuous
 62
     7
370
    25
100
AcDbCircle
 10
-76.6118741066
 20
199.3408809289
 30
0.0
 40
0.5000763403791735
100
AcDbArc
 50
272.3364886569
 51
280.8652225787
  0
SPLINE
  5
260
330
1F
100
AcDbEntity
  8
0
  6
Continuous
 62
     7
370
    25
100
AcDbSpline
210
0.0
220
0.0
230
1.0
 70
     8
 71
     3
 72
    12
 73
     8
 74
     0
 42
0.00000001
 43
0.00000001
 40
0.0
 40
0.0
 40
0.0
 40
0.0
 40
0.0460732444350203
 40
0.2494607408078324
 40
0.4779405209378921
 40
0.7057893369168746
 40
1.0
 40
1.0
 40
1.0
 40
1.0
 10
-47.89839712316885
 20
185.2009445903041
 30
0.0
 10
-48.02762223681403
 20
185.1402961053372
 30
0.0
 10
-48.72730364575767
 20
184.8119186234767
 30
0.0
 10
-50.09533667709465
 20
184.2130390939199
 30
0.0
 10
-52.11672833652587
 20
183.4343787947446
 30
0.0
 10
-54.6242453200067
 20
182.5983683119832
 30
0.0
 10
-56.56152702965295
 20
182.1311154720163
 30
0.0
 10
-57.65329714251016
 20
181.867791514905
 30
0.0
  0
LINE
  5
261
330
1F
100
AcDbEntity
  8
0
  6
Continuous
 62
     7
370
    25
100
AcDbLine
 10
-58.0786288085
 20
183.8217297503
 30
0.0
 11
-57.6532971425
 21
181.8677915149
 31
0.0
  0
SPLINE
  5
262
330
1F
100
AcDbEntity
  8
0
  6
Continuous
 62
     7
370
    25
100
AcDbSpline
210
0.0
220
0.0
230
1.0
 70
     8
 71
     3
 72
    13
 73
     9
 74
     0
 42
0.00000001
 43
0.00000001
 40
0.0
 40
0.0
 40
0.0
 40
0.0
 40
0.2574896950994375
 40
0.4890886589321048
 40
0.7206004760683489
 40
0.9447506334961295
 40
0.9460032291293321
 40
1.0
 40
1.0
 40
1.0
 40
1.0
 10
-58.0786288085445
 20
183.8217297503429
 30
0.0
 10
-57.16040335681036
 20
183.7804231683403
 30
0.0
 10
-55.41628053040931
 20
183.7019634040031
 30
0.0
 10
-52.91960184708186
 20
183.8305428251616
 30
0.0
 10
-50.59823256986331
 20
184.2104859295587
 30
0.0
 10
-49.1140747084185
 20
184.6886936729807
 30
0.0
 10
-48.23750785579484
 20
185.0503354461528
 30
0.0
 10
-48.06634035360421
 20
185.1268558607573
 30
0.0
 10
-47.8990535052447
 20
185.2016414294574
 30
0.0
  0
LINE
  5
263
330
1F
100
AcDbEntity
  8
0
  6
Continuous
 62
     7
370
    25
100
AcDbLine
 10
-47.8990535052
 20
185.2016414295
 30
0.0
 11
-47.8983971232
 21
185.2009445903
 31
0.0
  0
ARC
  5
264
330
1F
100
AcDbEntity
  8
0
  6
Continuous
 62
     7
370
    25
100
AcDbCircle
 10
-67.8861027043
 20
228.8764476758
 30
0.0
 40
48.10950076354636
100
AcDbArc
 50
282.0319399489
 51
282.2805223384
  0
LWPOLYLINE
  5
265
330
1F
100
AcDbEntity
  8
0
  6
Continuous
 62
     7
370
    25
100
AcDbPolyline
 90
        3
 70
   128
 43
0.0
 10
-47.8983971232
 20
185.2009445903
 10
-47.8554396941
 20
185.1729308293
 10
-47.7518240767
 20
185.1054318133
  0
ARC
  5
266
330
1F
100
AcDbEntity
  8
0
  6
Continuous
 62
     7
370
    25
100
AcDbCircle
 10
-67.8861027043
 20
228.8764476758
 30
0.0
 40
48.17977797259049
100
AcDbArc
 50
282.0319399489
 51
294.7020103158
  0
LINE
  5
267
330
1F
100
AcDbEntity
  8
0
  6
Continuous
 62
     7
370
    25
100
AcDbLine
 10
-57.85734368
 20
181.8238382248
 30
0.0
 11
-57.8426939084
 21
181.7551048973
 31
0.0
  0
LINE
  5
268
330
1F
100
AcDbEntity
  8
0
  6
Continuous
 62
     7
370
    25
100
AcDbLine
 10
-60.0371591717
 20
187.5357176798
 30
0.0
 11
-60.2179311385
 21
184.942406574
 31
0.0
  0
LINE
  5
269
330
1F
100
AcDbEntity
  8
0
  6
Continuous
 62
     7
370
    25
100
AcDbLine
 10
-60.2179311385
 20
184.942406574
 30
0.0
 11
-64.1644558996
 21
185.2175070206
 31
0.0
  0
SPLINE
  5
26A
330
1F
100
AcDbEntity
  8
0
  6
Continuous
 62
     7
370
    25
100
AcDbSpline
210
0.0
220
0.0
230
1.0
 70
     8
 71
     3
 72
    17
 73
    13
 74
     0
 42
0.00000001
 43
0.00000001
 40
0.0
 40
0.0
 40
0.0
 40
0.0
 40
0.0068263121770693
 40
0.0088448507297284
 40
0.0223990310416133
 40
0.0309593028397547
 40
0.0563218912149138
 40
0.1198824177066677
 40
0.1957460556357059
 40
0.5558621944880042
 40
0.7780336097977191
 40
1.0
 40
1.0
 40
1.0
 40
1.0
 10
-76.55618210584004
 20
188.6872094000283
 30
0.0
 10
-76.55257730591173
 20
188.6861191282716
 30
0.0
 10
-76.54790656767862
 20
188.6847064634694
 30
0.0
 10
-76.50448781554873
 20
188.6764895931546
 30
0.0
 10
-76.43013307842655
 20
188.6636646782941
 30
0.0
 10
-76.26368899999896
 20
188.6355430057413
 30
0.0
 10
-75.88299623333775
 20
188.5715327996326
 30
0.0
 10
-75.20174069801772
 20
188.4525008400356
 30
0.0
 10
-73.10225422531138
 20
188.0550160939006
 30
0.0
 10
-70.2987558640138
 20
187.3803463714069
 30
0.0
 10
-66.91492991259851
 20
186.3185064104961
 30
0.0
 10
-65.08099837442138
 20
185.5843938556752
 30
0.0
 10
-64.16445589964151
 20
185.2175070206128
 30
0.0
  0
LINE
  5
26B
330
1F
100
AcDbEntity
  8
0
  6
Continuous
 62
     7
370
    25
100
AcDbLine
 10
-64.1644558996
 20
185.2175070206
 30
0.0
 11
-65.3176067128
 21
183.5837919732
 31
0.0
  0
SPLINE
  5
26C
330
1F
100
AcDbEntity
  8
0
  6
Continuous
 62
     7
370
    25
100
AcDbSpline
210
0.0
220
0.0
230
1.0
 70
     8
 71
     3
 72
    14
 73
    10
 74
     0
 42
0.00000001
 43
0.00000001
 40
0.0
 40
0.0
 40
0.0
 40
0.0
 40
0.2256458607195967
 40
0.4518169308148953
 40
0.8157761447763433
 40
0.894614057330537
 40
0.9637846180221645
 40
0.9940799143125658
 40
1.0
 40
1.0
 40
1.0
 40
1.0
 10
-65.31760671283001
 20
183.5837919732192
 30
0.0
 10
-66.15540798475189
 20
184.140953350409
 30
0.0
 10
-67.8329605802456
 20
185.2565729439067
 30
0.0
 10
-70.99028097000797
 20
186.8677049534077
 30
0.0
 10
-73.64753517423766
 20
187.85950018753
 30
0.0
 10
-75.59034246571491
 20
188.4090175911321
 30
0.0
 10
-76.23211168653285
 20
188.5736686541901
 30
0.0
 10
-76.55893918264783
 20
188.6539393824327
 30
0.0
 10
-76.65115660125471
 20
188.6767921579711
 30
0.0
 10
-76.66623127367869
 20
188.6805278741777
 30
0.0
  0
SPLINE
  5
26D
330
1F
100
AcDbEntity
  8
0
  6
Continuous
 62
     7
370
    25
100
AcDbSpline
210
0.0
220
0.0
230
1.0
 70
     8
 71
     3
 72
    11
 73
     7
 74
     0
 42
0.00000001
 43
0.00000001
 40
0.0
 40
0.0
 40
0.0
 40
0.0
 40
0.0195561212295961
 40
0.1681891996744876
 40
0.5898876540792876
 40
1.0
 40
1.0
 40
1.0
 40
1.0
 10
-76.55618210584007
 20
188.6872094000281
 30
0.0
 10
-76.55813977747364
 20
188.6872957491746
 30
0.0
 10
-76.57497640992328
 20
188.688038380787
 30
0.0
 10
-76.62685937463745
 20
188.6896330322979
 30
0.0
 10
-76.67616900785428
 20
188.6882545555431
 30
0.0
 10
-76.66951294814316
 20
188.683079406799
 30
0.0
 10
-76.66623127367869
 20
188.6805278741777
 30
0.0
  0
LINE
  5
26E
330
1F
100
AcDbEntity
  8
0
  6
Continuous
 62
     7
370
    25
100
AcDbLine
 10
-57.2343551117
 20
186.4302168892
 30
0.0
 11
-58.8725851897
 21
184.4117661945
 31
0.0
  0
LINE
  5
26F
330
1F
100
AcDbEntity
  8
0
  6
Continuous
 62
     7
370
    25
100
AcDbLine
 10
-47.8990535052
 20
185.2016414295
 30
0.0
 11
-47.8996128675
 21
185.2022365973
 31
0.0
  0
ARC
  5
270
330
1F
100
AcDbEntity
  8
0
  6
Continuous
 62
     7
370
    25
100
AcDbCircle
 10
-51.5677672496
 20
193.4119762643
 30
0.0
 40
11.59155496206739
100
AcDbArc
 50
230.936266164
 51
235.8272404542
  0
LWPOLYLINE
  5
271
330
1F
100
AcDbEntity
  8
0
  6
Continuous
 62
     7
370
    25
100
AcDbPolyline
 90
        4
 70
   128
 43
0.0
 10
-76.6662312737
 20
188.6805278742
 10
-76.6687235648
 20
188.6632037531
 10
-76.6786962244
 20
188.5939074778
 10
-76.6857317737
 20
188.5450436935
  0
ARC
  5
272
330
1F
100
AcDbEntity
  8
0
  6
Continuous
 62
     7
370
    25
100
AcDbCircle
 10
-83.5273831954
 20
157.7852706445
 30
0.0
 40
31.57783498432753
100
AcDbArc
 50
54.0019296001
 51
54.7838070274
  0
LINE
  5
273
330
1F
100
AcDbEntity
  8
0
  6
Continuous
 62
     7
370
    25
100
AcDbLine
 10
-64.9672578717
 20
183.3329008724
 30
0.0
 11
-65.0085638639
 21
183.2760440248
 31
0.0
  0
ARC
  5
274
330
1F
100
AcDbEntity
  8
0
  6
Continuous
 62
     7
370
    25
100
AcDbCircle
 10
-83.5273831954
 20
157.7852706445
 30
0.0
 40
31.5075577752834
100
AcDbArc
 50
54.0019296001
 51
74.1158617691
  0
LINE
  5
275
330
1F
100
AcDbEntity
  8
0
  6
Continuous
 62
     7
370
    25
100
AcDbLine
 10
-76.6857317737
 20
188.5450436935
 30
0.0
 11
-74.9039864569
 21
188.0897789832
 31
0.0
  0
LINE
  5
276
330
1F
100
AcDbEntity
  8
0
  6
Continuous
 62
     7
370
    25
100
AcDbLine
 10
-76.608934765
 20
198.9918781096
 30
0.0
 11
-76.534956258
 21
199.0011307174
 31
0.0
  0
SPLINE
  5
277
330
1F
100
AcDbEntity
  8
0
  6
Continuous
 62
     7
370
    25
100
AcDbSpline
210
0.0
220
0.0
230
1.0
 70
     8
 71
     3
 72
    10
 73
     6
 74
     0
 42
0.00000001
 43
0.00000001
 40
0.0
 40
0.0
 40
0.0
 40
0.0
 40
0.0490769085761821
 40
0.5995805843665509
 40
1.0
 40
1.0
 40
1.0
 40
1.0
 10
-58.8725851897188
 20
184.4117661945287
 30
0.0
 10
-58.89131992231886
 20
184.4266606029129
 30
0.0
 10
-59.1202052014895
 20
184.6086280157343
 30
0.0
 10
-59.56265797688928
 20
184.8490844571852
 30
0.0
 10
-60.02376563638106
 20
184.9147540823185
 30
0.0
 10
-60.21793113853683
 20
184.9424065740477
 30
0.0
  0
ARC
  5
278
330
1F
100
AcDbEntity
  8
0
  6
Continuous
 62
     7
370
    25
100
AcDbCircle
 10
-76.7746347867
 20
188.1923424333
 30
0.0
 40
0.5000763405253038
100
AcDbArc
 50
77.480379355
 51
86.0112290514
  0
SPLINE
  5
279
330
1F
100
AcDbEntity
  8
0
  6
Continuous
 62
     7
370
    25
100
AcDbSpline
210
0.0
220
0.0
230
1.0
 70
     8
 71
     3
 72
     9
 73
     5
 74
     0
 42
0.00000001
 43
0.00000001
 40
0.0
 40
0.0
 40
0.0
 40
0.0
 40
0.8458911907783627
 40
1.0
 40
1.0
 40
1.0
 40
1.0
 10
-76.68573177365603
 20
188.5450436935076
 30
0.0
 10
-76.70651520004267
 20
188.5491585915968
 30
0.0
 10
-76.73108505797858
 20
188.5540231629912
 30
0.0
 10
-76.75563012360456
 20
188.5561047432214
 30
0.0
 10
-76.75941273444042
 20
188.5564255330721
 30
0.0
  0
LINE
  5
27A
330
1F
100
AcDbEntity
  8
0
  6
Continuous
 62
     7
370
    25
100
AcDbLine
 10
-64.6706399971
 20
203.8725909695
 30
0.0
 11
-62.8177156468
 21
204.8429419049
 31
0.0
  0
LINE
  5
27B
330
1F
100
AcDbEntity
  8
0
  6
Continuous
 62
     7
370
    25
100
AcDbLine
 10
-62.1045535565
 20
202.9747391624
 30
0.0
 11
-62.8177156468
 21
204.8429419049
 31
0.0
  0
LINE
  5
27C
330
1F
100
AcDbEntity
  8
0
  6
Continuous
 62
     7
370
    25
100
AcDbLine
 10
-59.1111855492
 20
203.4107464532
 30
0.0
 11
-58.9605856606
 21
205.4047628342
 31
0.0
  0
LINE
  5
27D
330
1F
100
AcDbEntity
  8
0
  6
Continuous
 62
     7
370
    25
100
AcDbLine
 10
-58.9605856606
 20
205.4047628342
 30
0.0
 11
-57.5208315736
 21
205.1756930346
 31
0.0
  0
ARC
  5
27E
330
1F
100
AcDbEntity
  8
0
  6
Continuous
 62
     7
370
    25
100
AcDbCircle
 10
-67.8861027043
 20
228.8764476758
 30
0.0
 40
46.10980537323356
100
AcDbArc
 50
282.0319399489
 51
282.2805223384
  0
LINE
  5
27F
330
1F
100
AcDbEntity
  8
0
  6
Continuous
 62
     7
370
    25
100
AcDbLine
 10
-58.2741940499
 20
183.7796034006
 30
0.0
 11
-57.85734368
 21
181.8238382248
 31
0.0
  0
ARC
  5
280
330
1F
100
AcDbEntity
  8
0
  6
Continuous
 62
     7
370
    25
100
AcDbCircle
 10
-59.633089615
 20
196.5004806787
 30
0.0
 40
6.929946387144248
100
AcDbArc
 50
85.6808843456
 51
110.8937053005
  0
ARC
  5
281
330
1F
100
AcDbEntity
  8
0
  6
Continuous
 62
     7
370
    25
100
AcDbCircle
 10
-83.5273831954
 20
157.7852706445
 30
0.0
 40
33.57753037464028
100
AcDbArc
 50
54.0019296001
 51
54.7838070274
  0
ARC
  5
282
330
1F
100
AcDbEntity
  8
0
  6
Continuous
 62
     7
370
    25
100
AcDbCircle
 10
-59.7187894264
 20
190.5573095854
 30
0.0
 40
6.929946387144386
100
AcDbArc
 50
234.0019296001
 51
282.0319399489
  0
ARC
  5
283
330
1F
100
AcDbEntity
  8
0
  6
Continuous
 62
     7
370
    25
100
AcDbCircle
 10
-59.633089615
 20
196.5004806787
 30
0.0
 40
8.929641777457087
100
AcDbArc
 50
85.6808843456
 51
110.8937053005
  0
ARC
  5
284
330
1F
100
AcDbEntity
  8
0
  6
Continuous
 62
     7
370
    25
100
AcDbCircle
 10
-59.7187894264
 20
190.5573095854
 30
0.0
 40
8.92964177745718
100
AcDbArc
 50
234.0019296001
 51
282.0319399489
  0
LINE
  5
285
330
1F
100
AcDbEntity
  8
0
  6
Continuous
 62
     7
370
    25
100
AcDbLine
 10
-63.7919208965
 20
184.9507280105
 30
0.0
 11
-64.9672578717
 21
183.3329008724
 31
0.0
  0
ARC
  5
286
330
1F
100
AcDbEntity
  8
0
  6
Continuous
 62
     7
370
    25
100
AcDbCircle
 10
-59.633089615
 20
196.5004806787
 30
0.0
 40
8.999918986501271
100
AcDbArc
 50
76.3157780851
 51
124.3457884339
  0
ARC
  5
287
330
1F
100
AcDbEntity
  8
0
  6
Continuous
 62
     7
370
    25
100
AcDbCircle
 10
-59.7187894264
 20
190.5573095854
 30
0.0
 40
8.999918986501312
100
AcDbArc
 50
234.0019296001
 51
282.0319399489
  0
SPLINE
  5
288
330
1F
100
AcDbEntity
  8
0
  6
Continuous
 62
     7
370
    25
100
AcDbSpline
210
0.0
220
0.0
230
1.0
 70
     8
 71
     3
 72
    11
 73
     7
 74
     0
 42
0.00000001
 43
0.00000001
 40
0.0
 40
0.0
 40
0.0
 40
0.0
 40
0.2646093757676103
 40
0.5349569643242568
 40
0.765347882437978
 40
1.0
 40
1.0
 40
1.0
 40
1.0
 10
-34.45219765500593
 20
225.5453955106128
 30
0.0
 10
-34.4028008827442
 20
225.9944599976819
 30
0.0
 10
-34.30293613963034
 20
226.9023272041684
 30
0.0
 10
-34.15497492364852
 20
227.2344207954754
 30
0.0
 10
-34.01353576513003
 20
226.7469173166542
 30
0.0
 10
-33.92682608892761
 20
225.9483419005941
 30
0.0
 10
-33.88307398950211
 20
225.5453955106128
 30
0.0
  0
SPLINE
  5
289
330
1F
100
AcDbEntity
  8
0
  6
Continuous
 62
     7
370
    25
100
AcDbSpline
210
0.0
220
0.0
230
1.0
 70
     8
 71
     3
 72
    11
 73
     7
 74
     0
 42
0.00000001
 43
0.00000001
 40
0.0
 40
0.0
 40
0.0
 40
0.0
 40
0.2646093757676095
 40
0.5349569643242564
 40
0.7653478824379777
 40
1.0
 40
1.0
 40
1.0
 40
1.0
 10
-52.13689091513574
 20
225.5453955106125
 30
0.0
 10
-50.60195779174146
 20
225.9944599976816
 30
0.0
 10
-47.49880560089517
 20
226.9023272041681
 30
0.0
 10
-42.90112520621852
 20
227.2344207954753
 30
0.0
 10
-38.50610829691878
 20
226.7469173166538
 30
0.0
 10
-35.81173074899721
 20
225.9483419005939
 30
0.0
 10
-34.45219765500593
 20
225.5453955106128
 30
0.0
  0
SPLINE
  5
28A
330
1F
100
AcDbEntity
  8
0
  6
Continuous
 62
     7
370
    25
100
AcDbSpline
210
0.0
220
0.0
230
1.0
 70
     8
 71
     3
 72
    12
 73
     8
 74
     0
 42
0.00000001
 43
0.00000001
 40
0.0
 40
0.0
 40
0.0
 40
0.0
 40
0.1820499033062394
 40
0.3656406087374419
 40
0.6149613348991659
 40
0.8710066969717204
 40
1.0
 40
1.0
 40
1.0
 40
1.0
 10
-69.25246050976166
 20
225.5453955106121
 30
0.0
 10
-68.23360171564435
 20
225.8643593955
 30
0.0
 10
-66.18726088858068
 20
226.5049867560073
 30
0.0
 10
-62.65656642223077
 20
227.1149877372825
 30
0.0
 10
-58.6507135401097
 20
227.1485416114698
 30
0.0
 10
-55.00803950733865
 20
226.463659673073
 30
0.0
 10
-52.85738878950183
 20
225.7758285083877
 30
0.0
 10
-52.13689091513574
 20
225.5453955106125
 30
0.0
  0
SPLINE
  5
28B
330
1F
100
AcDbEntity
  8
0
  6
Continuous
 62
     7
370
    25
100
AcDbSpline
210
0.0
220
0.0
230
1.0
 70
     8
 71
     3
 72
    11
 73
     7
 74
     0
 42
0.00000001
 43
0.00000001
 40
0.0
 40
0.0
 40
0.0
 40
0.0
 40
0.2646093757676099
 40
0.5349569643242565
 40
0.765347882437978
 40
1.0
 40
1.0
 40
1.0
 40
1.0
 10
-68.68333684425781
 20
225.5453955106121
 30
0.0
 10
-68.73273361651952
 20
225.9944599976813
 30
0.0
 10
-68.83259835963348
 20
226.9023272041676
 30
0.0
 10
-68.98055957561525
 20
227.234420795475
 30
0.0
 10
-69.12199873413385
 20
226.7469173166537
 30
0.0
 10
-69.20870841033621
 20
225.9483419005934
 30
0.0
 10
-69.25246050976166
 20
225.5453955106121
 30
0.0
  0
SPLINE
  5
28C
330
1F
100
AcDbEntity
  8
0
  6
Continuous
 62
     7
370
    25
100
AcDbSpline
210
0.0
220
0.0
230
1.0
 70
     8
 71
     3
 72
     9
 73
     5
 74
     0
 42
0.00000001
 43
0.00000001
 40
0.0
 40
0.0
 40
0.0
 40
0.0
 40
0.0036504154713571
 40
1.0
 40
1.0
 40
1.0
 40
1.0
 10
-64.56776724963196
 20
226.6311305296207
 30
0.0
 10
-64.57288363207819
 20
226.6305569143702
 30
0.0
 10
-65.97447270773615
 20
226.4734199377594
 30
0.0
 10
-67.33138141626837
 20
226.008559256875
 30
0.0
 10
-68.68333684425781
 20
225.5453955106121
 30
0.0
  0
SPLINE
  5
28D
330
1F
100
AcDbEntity
  8
0
  6
Continuous
 62
     7
370
    25
100
AcDbSpline
210
0.0
220
0.0
230
1.0
 70
     8
 71
     3
 72
     9
 73
     5
 74
     0
 42
0.00000001
 43
0.00000001
 40
0.0
 40
0.0
 40
0.0
 40
0.0
 40
0.46789250564047
 40
1.0
 40
1.0
 40
1.0
 40
1.0
 10
-33.88307398950211
 20
225.5453955106128
 30
0.0
 10
-34.60236143733147
 20
225.785223544254
 30
0.0
 10
-36.13965352719894
 20
226.2977943393622
 30
0.0
 10
-37.72447295492981
 20
226.5421112084682
 30
0.0
 10
-38.56776724963196
 20
226.672114045518
 30
0.0
  0
LINE
  5
28E
330
1F
100
AcDbEntity
  8
0
  6
Continuous
 62
     7
370
    25
100
AcDbLine
 10
-34.2709830124
 20
227.1619762643
 30
0.0
 11
-68.8645514869
 21
227.1619762643
 31
0.0
  0
LINE
  5
28F
330
1F
100
AcDbEntity
  8
0
  6
Continuous
 62
     7
370
    25
100
AcDbLine
 10
-34.452197655
 20
212.8785570181
 30
0.0
 11
-34.452197655
 21
225.5453955106
 31
0.0
  0
SPLINE
  5
290
330
1F
100
AcDbEntity
  8
0
  6
Continuous
 62
     7
370
    25
100
AcDbSpline
210
0.0
220
0.0
230
1.0
 70
     8
 71
     3
 72
    11
 73
     7
 74
     0
 42
0.00000001
 43
0.00000001
 40
0.0
 40
0.0
 40
0.0
 40
0.0
 40
0.2646093757676116
 40
0.5349569643242563
 40
0.765347882437978
 40
0.9999999999999999
 40
0.9999999999999999
 40
0.9999999999999999
 40
0.9999999999999999
 10
-34.4521976550057
 20
212.8785570180747
 30
0.0
 10
-35.98713077839999
 20
212.4294925310055
 30
0.0
 10
-39.09028296924627
 20
211.5216253245189
 30
0.0
 10
-43.68796336392289
 20
211.1895317332119
 30
0.0
 10
-48.08298027322283
 20
211.6770352120327
 30
0.0
 10
-50.77735782114426
 20
212.4756106280931
 30
0.0
 10
-52.13689091513552
 20
212.8785570180743
 30
0.0
  0
LINE
  5
291
330
1F
100
AcDbEntity
  8
0
  6
Continuous
 62
     7
370
    25
100
AcDbLine
 10
-52.1368909151
 20
212.8785570181
 30
0.0
 11
-52.1368909151
 21
225.5453955106
 31
0.0
  0
SPLINE
  5
292
330
1F
100
AcDbEntity
  8
0
  6
Continuous
 62
     7
370
    25
100
AcDbSpline
210
0.0
220
0.0
230
1.0
 70
     8
 71
     3
 72
    12
 73
     8
 74
     0
 42
0.00000001
 43
0.00000001
 40
0.0
 40
0.0
 40
0.0
 40
0.0
 40
0.1289937508738273
 40
0.378627244148903
 40
0.63435745880577
 40
0.8162656302547752
 40
1.0
 40
1.0
 40
1.0
 40
1.0
 10
-52.13689091513552
 20
212.8785570180743
 30
0.0
 10
-52.8574004080852
 20
212.6481185794235
 30
0.0
 10
-54.97226660780913
 20
211.9717271233927
 30
0.0
 10
-58.61281490629827
 20
211.2795916391794
 30
0.0
 10
-62.61006006511879
 20
211.3023940144336
 30
0.0
 10
-66.17762340541434
 20
211.91662915949
 30
0.0
 10
-68.22410775924197
 20
212.5568485419478
 30
0.0
 10
-69.25246050976145
 20
212.878557018074
 30
0.0
  0
SPLINE
  5
293
330
1F
100
AcDbEntity
  8
0
  6
Continuous
 62
     7
370
    25
100
AcDbSpline
210
0.0
220
0.0
230
1.0
 70
     8
 71
     3
 72
    11
 73
     7
 74
     0
 42
0.00000001
 43
0.00000001
 40
0.0
 40
0.0
 40
0.0
 40
0.0
 40
0.2646093757676103
 40
0.5349569643242568
 40
0.7653478824379781
 40
1.0
 40
1.0
 40
1.0
 40
1.0
 10
-33.88307398950188
 20
212.8785570180747
 30
0.0
 10
-33.93247076176362
 20
212.4294925310057
 30
0.0
 10
-34.03233550487747
 20
211.5216253245191
 30
0.0
 10
-34.18029672085926
 20
211.189531733212
 30
0.0
 10
-34.32173587937784
 20
211.6770352120334
 30
0.0
 10
-34.4084455555802
 20
212.4756106280934
 30
0.0
 10
-34.4521976550057
 20
212.8785570180747
 30
0.0
  0
SPLINE
  5
294
330
1F
100
AcDbEntity
  8
0
  6
Continuous
 62
     7
370
    25
100
AcDbSpline
210
0.0
220
0.0
230
1.0
 70
     8
 71
     3
 72
     9
 73
     5
 74
     0
 42
0.00000001
 43
0.00000001
 40
0.0
 40
0.0
 40
0.0
 40
0.0
 40
0.5562029212208732
 40
1.0
 40
1.0
 40
1.0
 40
1.0
 10
-69.25246050976145
 20
212.878557018074
 30
0.0
 10
-69.20308667846831
 20
212.4081073595659
 30
0.0
 10
-69.11431722147809
 20
211.5622835773474
 30
0.0
 10
-69.02251291858292
 20
211.4582663266074
 30
0.0
 10
-68.98177043713868
 20
211.4121037745861
 30
0.0
  0
LINE
  5
295
330
1F
100
AcDbEntity
  8
0
  6
Continuous
 62
     7
370
    25
100
AcDbLine
 10
-69.2524605098
 20
212.8785570181
 30
0.0
 11
-69.2524605098
 21
225.5453955106
 31
0.0
  0
LINE
  5
296
330
1F
100
AcDbEntity
  8
0
  6
Continuous
 62
     7
370
    25
100
AcDbLine
 10
-33.8830739895
 20
212.8785570181
 30
0.0
 11
-33.8830739895
 21
225.5453955106
 31
0.0
  0
SPLINE
  5
297
330
1F
100
AcDbEntity
  8
0
  6
Continuous
 62
     7
370
    25
100
AcDbSpline
210
0.0
220
0.0
230
1.0
 70
     8
 71
     3
 72
    11
 73
     7
 74
     0
 42
0.00000001
 43
0.00000001
 40
0.0
 40
0.0
 40
0.0
 40
0.0
 40
0.264609375767609
 40
0.5349569643242567
 40
0.7653478824379772
 40
0.9999999999999999
 40
0.9999999999999999
 40
0.9999999999999999
 40
0.9999999999999999
 10
153.4104518306184
 20
225.545395510616
 30
0.0
 10
154.922236667046
 20
225.9944599976851
 30
0.0
 10
157.9785902994927
 20
226.9023272041718
 30
0.0
 10
162.5069331943558
 20
227.2344207954786
 30
0.0
 10
166.8356689666548
 20
226.746917316658
 30
0.0
 10
169.4894126760556
 20
225.9483419005978
 30
0.0
 10
170.8284426864136
 20
225.5453955106164
 30
0.0
  0
LINE
  5
298
330
1F
100
AcDbEntity
  8
0
  6
Continuous
 62
     7
370
    25
100
AcDbLine
 10
170.8284426864
 20
212.8785570181
 30
0.0
 11
170.8284426864
 21
225.5453955106
 31
0.0
  0
SPLINE
  5
299
330
1F
100
AcDbEntity
  8
0
  6
Continuous
 62
     7
370
    25
100
AcDbSpline
210
0.0
220
0.0
230
1.0
 70
     8
 71
     3
 72
    11
 73
     7
 74
     0
 42
0.00000001
 43
0.00000001
 40
0.0
 40
0.0
 40
0.0
 40
0.0
 40
0.2646093757676088
 40
0.5349569643242564
 40
0.7653478824379792
 40
1.0
 40
1.0
 40
1.0
 40
1.0
 10
170.8284426864138
 20
212.8785570180782
 30
0.0
 10
169.3166578499861
 20
212.4294925310092
 30
0.0
 10
166.2603042175396
 20
211.5216253245226
 30
0.0
 10
161.7319613226763
 20
211.1895317332154
 30
0.0
 10
157.4032255503777
 20
211.6770352120365
 30
0.0
 10
154.7494818409767
 20
212.4756106280966
 30
0.0
 10
153.4104518306186
 20
212.8785570180779
 30
0.0
  0
LINE
  5
29A
330
1F
100
AcDbEntity
  8
0
  6
Continuous
 62
     7
370
    25
100
AcDbLine
 10
153.4104518306
 20
212.8785570181
 30
0.0
 11
153.4104518306
 21
225.5453955106
 31
0.0
  0
LINE
  5
29B
330
1F
100
AcDbEntity
  8
0
  6
Continuous
 62
     7
370
    25
100
AcDbLine
 10
169.2322327504
 20
212.418862435
 30
0.0
 11
170.8502236062
 21
212.8785570181
 31
0.0
  0
LINE
  5
29C
330
1F
100
AcDbEntity
  8
0
  6
Continuous
 62
     7
370
    25
100
AcDbLine
 10
136.0360228143
 20
212.8785570181
 30
0.0
 11
137.7395374504
 21
212.4372313075
 31
0.0
  0
SPLINE
  5
29D
330
1F
100
AcDbEntity
  8
0
  6
Continuous
 62
     7
370
    25
100
AcDbSpline
210
0.0
220
0.0
230
1.0
 70
     8
 71
     3
 72
    11
 73
     7
 74
     0
 42
0.00000001
 43
0.00000001
 40
0.0
 40
0.0
 40
0.0
 40
0.0
 40
0.26460937576761
 40
0.5349569643242567
 40
0.7653478824379777
 40
1.0
 40
1.0
 40
1.0
 40
1.0
 10
136.014241894573
 20
212.8785570180776
 30
0.0
 10
136.0161323573982
 20
212.4294925310085
 30
0.0
 10
136.0199542788671
 20
211.5216253245221
 30
0.0
 10
136.0256168994304
 20
211.1895317332151
 30
0.0
 10
136.0310299144706
 20
211.6770352120361
 30
0.0
 10
136.0343483786522
 20
212.4756106280963
 30
0.0
 10
136.0360228143228
 20
212.8785570180776
 30
0.0
  0
SPLINE
  5
29E
330
1F
100
AcDbEntity
  8
0
  6
Continuous
 62
     7
370
    25
100
AcDbSpline
210
0.0
220
0.0
230
1.0
 70
     8
 71
     3
 72
    12
 73
     8
 74
     0
 42
0.00000001
 43
0.00000001
 40
0.0
 40
0.0
 40
0.0
 40
0.0
 40
0.1820499033062403
 40
0.3656406087374416
 40
0.614961334899165
 40
0.8710066969717205
 40
1.0
 40
1.0
 40
1.0
 40
1.0
 10
153.4104518306186
 20
212.8785570180779
 30
0.0
 10
152.3748870263238
 20
212.55959313319
 30
0.0
 10
150.2949927854989
 20
211.9189657726829
 30
0.0
 10
146.7064062755916
 20
211.3089647914077
 30
0.0
 10
142.6348702787894
 20
211.2754109172203
 30
0.0
 10
138.9324680974115
 20
211.960292855617
 30
0.0
 10
136.7465536187988
 20
212.6481240203024
 30
0.0
 10
136.014241894573
 20
212.8785570180776
 30
0.0
  0
SPLINE
  5
29F
330
1F
100
AcDbEntity
  8
0
  6
Continuous
 62
     7
370
    25
100
AcDbSpline
210
0.0
220
0.0
230
1.0
 70
     8
 71
     3
 72
    11
 73
     7
 74
     0
 42
0.00000001
 43
0.00000001
 40
0.0
 40
0.0
 40
0.0
 40
0.0
 40
0.2646093757676108
 40
0.5349569643242568
 40
0.7653478824379781
 40
1.0
 40
1.0
 40
1.0
 40
1.0
 10
170.8502236061635
 20
212.8785570180782
 30
0.0
 10
170.8483331433384
 20
212.4294925310092
 30
0.0
 10
170.8445112218695
 20
211.5216253245225
 30
0.0
 10
170.8388486013064
 20
211.1895317332157
 30
0.0
 10
170.8334355862659
 20
211.6770352120367
 30
0.0
 10
170.8301171220844
 20
212.4756106280971
 30
0.0
 10
170.8284426864138
 20
212.8785570180782
 30
0.0
  0
LINE
  5
2A0
330
1F
100
AcDbEntity
  8
0
  6
Continuous
 62
     7
370
    25
100
AcDbLine
 10
136.1509459214
 20
211.2619762643
 30
0.0
 11
170.7135195793
 21
211.2619762643
 31
0.0
  0
LINE
  5
2A1
330
1F
100
AcDbEntity
  8
0
  6
Continuous
 62
     7
370
    25
100
AcDbLine
 10
136.0142418946
 20
212.8785570181
 30
0.0
 11
136.0142418946
 21
225.5453955106
 31
0.0
  0
SPLINE
  5
2A2
330
1F
100
AcDbEntity
  8
0
  6
Continuous
 62
     7
370
    25
100
AcDbSpline
210
0.0
220
0.0
230
1.0
 70
     8
 71
     3
 72
    12
 73
     8
 74
     0
 42
0.00000001
 43
0.00000001
 40
0.0
 40
0.0
 40
0.0
 40
0.0
 40
0.1289937508738273
 40
0.3786272441489045
 40
0.6343574588057703
 40
0.8162656302547749
 40
1.0
 40
1.0
 40
1.0
 40
1.0
 10
136.0142418945728
 20
225.5453955106157
 30
0.0
 10
136.7465654278897
 20
225.7758339492667
 30
0.0
 10
138.896108637284
 20
226.4522254052973
 30
0.0
 10
142.5963502291685
 20
227.1443608895105
 30
0.0
 10
146.6591373636685
 20
227.1215585142563
 30
0.0
 10
150.2851972785782
 20
226.5073233692003
 30
0.0
 10
152.3652373995449
 20
225.8671039867424
 30
0.0
 10
153.4104518306184
 20
225.545395510616
 30
0.0
  0
LINE
  5
2A3
330
1F
100
AcDbEntity
  8
0
  6
Continuous
 62
     7
370
    25
100
AcDbLine
 10
166.7322327504
 20
226.9119762643
 30
0.0
 11
166.4322327504
 21
226.9119762643
 31
0.0
  0
LINE
  5
2A4
330
1F
100
AcDbEntity
  8
0
  6
Continuous
 62
     7
370
    25
100
AcDbLine
 10
140.4322327504
 20
226.9119762643
 30
0.0
 11
140.1322327504
 21
226.9119762643
 31
0.0
  0
LINE
  5
2A5
330
1F
100
AcDbEntity
  8
0
  6
Continuous
 62
     7
370
    25
100
AcDbLine
 10
170.8502236062
 20
212.8785570181
 30
0.0
 11
170.8502236062
 21
225.5453955106
 31
0.0
  0
SPLINE
  5
2A6
330
1F
100
AcDbEntity
  8
0
  6
Continuous
 62
     7
370
    25
100
AcDbSpline
210
0.0
220
0.0
230
1.0
 70
     8
 71
     3
 72
    11
 73
     7
 74
     0
 42
0.00000001
 43
0.00000001
 40
0.0
 40
0.0
 40
0.0
 40
0.0
 40
0.26460937576761
 40
0.5349569643242567
 40
0.7653478824379784
 40
1.0
 40
1.0
 40
1.0
 40
1.0
 10
170.8284426864136
 20
225.5453955106164
 30
0.0
 10
170.8303331492386
 20
225.9944599976853
 30
0.0
 10
170.8341550707076
 20
226.9023272041719
 30
0.0
 10
170.839817691271
 20
227.2344207954793
 30
0.0
 10
170.845230706311
 20
226.7469173166576
 30
0.0
 10
170.8485491704928
 20
225.9483419005977
 30
0.0
 10
170.8502236061634
 20
225.5453955106165
 30
0.0
  0
LINE
  5
2A7
330
1F
100
AcDbEntity
  8
0
  6
Continuous
 62
     7
370
    25
100
AcDbLine
 10
-76.8677672496
 20
251.3619762643
 30
0.0
 11
-26.2677672496
 21
251.3619762643
 31
0.0
  0
LINE
  5
2A8
330
1F
100
AcDbEntity
  8
0
  6
Continuous
 62
     7
370
    25
100
AcDbLine
 10
-26.7677672496
 20
247.3619762643
 30
0.0
 11
-76.3677672496
 21
247.3619762643
 31
0.0
  0
ELLIPSE
  5
2A9
330
1F
100
AcDbEntity
  8
0
  6
Continuous
 62
     7
370
    25
100
AcDbEllipse
 10
-31.3686097054
 20
246.3619762643
 30
0.0
 11
1.759670971157203
 21
5.684341886080801E-14
 31
0.0
210
0.0
220
0.0
230
1.0
 40
0.5682880586
 41
1.570796326794892
 42
3.141592653589737
  0
LINE
  5
2AA
330
1F
100
AcDbEntity
  8
0
  6
Continuous
 62
     7
370
    25
100
AcDbLine
 10
-33.1282806766
 20
246.3619762643
 30
0.0
 11
-41.907064936
 21
246.3619762643
 31
0.0
  0
ELLIPSE
  5
2AB
330
1F
100
AcDbEntity
  8
0
  6
Continuous
 62
     7
370
    25
100
AcDbEllipse
 10
-41.9636941564
 20
246.3619762643
 30
0.0
 11
-2.842170943040401E-14
 21
1.0
 31
0.0
210
0.0
220
0.0
230
1.0
 40
0.0566292204
 41
4.712388980384689
 42
6.283185307179586
  0
LINE
  5
2AC
330
1F
100
AcDbEntity
  8
0
  6
Continuous
 62
     7
370
    25
100
AcDbLine
 10
-41.907064936
 20
246.3619762643
 30
0.0
 11
-43.6667359072
 21
246.3619762643
 31
0.0
  0
ELLIPSE
  5
2AD
330
1F
100
AcDbEntity
  8
0
  6
Continuous
 62
     7
370
    25
100
AcDbEllipse
 10
-41.9636941564
 20
246.3619762643
 30
0.0
 11
1.703041750709041
 21
5.684341886080801E-14
 31
0.0
210
0.0
220
0.0
230
1.0
 40
0.5871846651
 41
1.570796326794894
 42
3.141592653589736
  0
LINE
  5
2AE
330
1F
100
AcDbEntity
  8
0
  6
Continuous
 62
     7
370
    25
100
AcDbLine
 10
-43.6667359072
 20
246.3619762643
 30
0.0
 11
-60.4031807295
 21
246.3619762643
 31
0.0
  0
ELLIPSE
  5
2AF
330
1F
100
AcDbEntity
  8
0
  6
Continuous
 62
     7
370
    25
100
AcDbEllipse
 10
-62.1628517007
 20
246.3619762643
 30
0.0
 11
1.759670971157206
 21
5.684341886080801E-14
 31
0.0
210
0.0
220
0.0
230
1.0
 40
0.5682880586
 41
0.0
 42
1.570796326794894
  0
LINE
  5
2B0
330
1F
100
AcDbEntity
  8
0
  6
Continuous
 62
     7
370
    25
100
AcDbLine
 10
-60.4031807295
 20
246.3619762643
 30
0.0
 11
-62.1062224802
 21
246.3619762643
 31
0.0
  0
ELLIPSE
  5
2B1
330
1F
100
AcDbEntity
  8
0
  6
Continuous
 62
     7
370
    25
100
AcDbEllipse
 10
-62.1628517007
 20
246.3619762643
 30
0.0
 11
-2.842170943040401E-14
 21
1.0
 31
0.0
210
0.0
220
0.0
230
1.0
 40
0.0566292204
 41
4.712388980384689
 42
6.283185307179586
  0
LINE
  5
2B2
330
1F
100
AcDbEntity
  8
0
  6
Continuous
 62
     7
370
    25
100
AcDbLine
 10
-62.1062224802
 20
246.3619762643
 30
0.0
 11
-70.0638830431
 21
246.3619762643
 31
0.0
  0
ELLIPSE
  5
2B3
330
1F
100
AcDbEntity
  8
0
  6
Continuous
 62
     7
370
    25
100
AcDbEllipse
 10
-71.7669247939
 20
246.3619762643
 30
0.0
 11
1.703041750709048
 21
2.842170943040401E-14
 31
0.0
210
0.0
220
0.0
230
1.0
 40
0.5871846651
 41
0.0
 42
1.570796326794903
  0
SPLINE
  5
2B4
330
1F
100
AcDbEntity
  8
0
  6
Continuous
 62
     7
370
    25
100
AcDbSpline
210
0.0
220
0.0
230
1.0
 70
     8
 71
     3
 72
    11
 73
     7
 74
     0
 42
0.00000001
 43
0.00000001
 40
0.0
 40
0.0
 40
0.0
 40
0.0
 40
0.1883467346499958
 40
0.5045742105980986
 40
0.8244987390967928
 40
1.0
 40
1.0
 40
1.0
 40
1.0
 10
-41.90706493598498
 20
233.8894345168823
 30
0.0
 10
-41.98237040945735
 20
233.8952259620802
 30
0.0
 10
-42.18411109745837
 20
233.9107410380087
 30
0.0
 10
-42.65415073203355
 20
233.9190451941081
 30
0.0
 10
-43.19910041768174
 20
233.9102123165538
 30
0.0
 10
-43.54441170214704
 20
233.8948695787724
 30
0.0
 10
-43.66673590715245
 20
233.8894345168843
 30
0.0
  0
ARC
  5
2B5
330
1F
100
AcDbEntity
  8
0
  6
Continuous
 62
     7
370
    25
100
AcDbCircle
 10
-42.9345057338
 20
233.8995723444
 30
0.0
 40
1.027490811927357
100
AcDbArc
 50
285.6600875045
 51
359.4346770303
  0
SPLINE
  5
2B6
330
1F
100
AcDbEntity
  8
0
  6
Continuous
 62
     7
370
    25
100
AcDbSpline
210
0.0
220
0.0
230
1.0
 70
     8
 71
     3
 72
    11
 73
     7
 74
     0
 42
0.00000001
 43
0.00000001
 40
0.0
 40
0.0
 40
0.0
 40
0.0
 40
0.175570297168428
 40
0.495427368612586
 40
0.8115831191424503
 40
1.0
 40
1.0
 40
1.0
 40
1.0
 10
-43.54712144316189
 20
232.9102219767444
 30
0.0
 10
-43.48539936792805
 20
232.9156567949066
 30
0.0
 10
-43.31123092479402
 20
232.9309928608837
 30
0.0
 10
-43.03577494429403
 20
232.9398362685731
 30
0.0
 10
-42.79779759133678
 20
232.9315217463911
 30
0.0
 10
-42.69539458349661
 20
232.9160131699572
 30
0.0
 10
-42.65715538040188
 20
232.9102219767444
 30
0.0
  0
ARC
  5
2B7
330
1F
100
AcDbEntity
  8
0
  6
Continuous
 62
     7
370
    25
100
AcDbCircle
 10
-30.8018092317
 20
234.9640213467
 30
0.0
 40
12.90972792969829
100
AcDbArc
 50
184.77474132
 51
189.1540389589
  0
LINE
  5
2B8
330
1F
100
AcDbEntity
  8
0
  6
Continuous
 62
     7
370
    25
100
AcDbLine
 10
-41.907064936
 20
246.3619762643
 30
0.0
 11
-41.907064936
 21
233.8894345169
 31
0.0
  0
LINE
  5
2B9
330
1F
100
AcDbEntity
  8
0
  6
Continuous
 62
     7
370
    25
100
AcDbLine
 10
-43.6667359072
 20
233.8894345169
 30
0.0
 11
-43.6667359072
 21
246.3619762643
 31
0.0
  0
SPLINE
  5
2BA
330
1F
100
AcDbEntity
  8
0
  6
Continuous
 62
     7
370
    25
100
AcDbSpline
210
0.0
220
0.0
230
1.0
 70
     8
 71
     3
 72
    10
 73
     6
 74
     0
 42
0.00000001
 43
0.00000001
 40
0.0
 40
0.0
 40
0.0
 40
0.0
 40
0.4993920432232372
 40
0.8818015523862031
 40
1.0
 40
1.0
 40
1.0
 40
1.0
 10
-43.54712144316186
 20
232.9102219767445
 30
0.0
 10
-46.36436350286227
 20
232.699463738168
 30
0.0
 10
-51.33890896349364
 20
232.3273173564283
 30
0.0
 10
-56.99468299052268
 20
232.5908896355272
 30
0.0
 10
-59.81125281581845
 20
232.849226184301
 30
0.0
 10
-60.47627257117619
 20
232.9102219767443
 30
0.0
  0
ARC
  5
2BB
330
1F
100
AcDbEntity
  8
0
  6
Continuous
 62
     7
370
    25
100
AcDbCircle
 10
-47.7766256406
 20
232.4546101901
 30
0.0
 40
12.70781705332617
100
AcDbArc
 50
173.5169777305
 51
177.9453411859
  0
SPLINE
  5
2BC
330
1F
100
AcDbEntity
  8
0
  6
Continuous
 62
     7
370
    25
100
AcDbSpline
210
0.0
220
0.0
230
1.0
 70
     8
 71
     3
 72
     9
 73
     5
 74
     0
 42
0.00000001
 43
0.00000001
 40
0.0
 40
0.0
 40
0.0
 40
0.0
 40
0.5005562931490417
 40
1.0
 40
1.0
 40
1.0
 40
1.0
 10
-60.40318072948642
 20
233.889434516882
 30
0.0
 10
-57.61065702846791
 20
233.6700858727583
 30
0.0
 10
-52.03181656788658
 20
233.2318761306659
 30
0.0
 10
-46.45302716584754
 20
233.6704110241162
 30
0.0
 10
-43.66673590715245
 20
233.8894345168843
 30
0.0
  0
LINE
  5
2BD
330
1F
100
AcDbEntity
  8
0
  6
Continuous
 62
     7
370
    25
100
AcDbLine
 10
-60.4031807295
 20
246.3619762643
 30
0.0
 11
-60.4031807295
 21
233.8894345169
 31
0.0
  0
SPLINE
  5
2BE
330
1F
100
AcDbEntity
  8
0
  6
Continuous
 62
     7
370
    25
100
AcDbSpline
210
0.0
220
0.0
230
1.0
 70
     8
 71
     3
 72
    10
 73
     6
 74
     0
 42
0.00000001
 43
0.00000001
 40
0.0
 40
0.0
 40
0.0
 40
0.0
 40
0.4890561215099952
 40
0.8793262989674555
 40
1.0
 40
1.0
 40
1.0
 40
1.0
 10
-61.51013893895679
 20
232.8915280477513
 30
0.0
 10
-62.80386185429276
 20
232.6906415405137
 30
0.0
 10
-65.12998463038502
 20
232.3294462069876
 30
0.0
 10
-67.74728944003502
 20
232.5914095300473
 30
0.0
 10
-69.07363160624863
 20
232.849311262531
 30
0.0
 10
-69.38688444040633
 20
232.9102219767441
 30
0.0
  0
SPLINE
  5
2BF
330
1F
100
AcDbEntity
  8
0
  6
Continuous
 62
     7
370
    25
100
AcDbSpline
210
0.0
220
0.0
230
1.0
 70
     8
 71
     3
 72
    11
 73
     7
 74
     0
 42
0.00000001
 43
0.00000001
 40
0.0
 40
0.0
 40
0.0
 40
0.0
 40
0.1755702971684286
 40
0.4954273686125883
 40
0.8115831191424652
 40
1.0
 40
1.0
 40
1.0
 40
1.0
 10
-61.33759800441766
 20
232.9102219767442
 30
0.0
 10
-61.3050947862174
 20
232.9156567949062
 30
0.0
 10
-61.21337663044671
 20
232.930992860883
 30
0.0
 10
-60.99151995044316
 20
232.9398362685726
 30
0.0
 10
-60.71912884321392
 20
232.931521746391
 30
0.0
 10
-60.5423027497943
 20
232.916013169957
 30
0.0
 10
-60.47627257117619
 20
232.9102219767443
 30
0.0
  0
SPLINE
  5
2C0
330
1F
100
AcDbEntity
  8
0
  6
Continuous
 62
     7
370
    25
100
AcDbSpline
210
0.0
220
0.0
230
1.0
 70
     8
 71
     3
 72
    10
 73
     6
 74
     0
 42
0.00000001
 43
0.00000001
 40
0.0
 40
0.0
 40
0.0
 40
0.0
 40
0.4999493505749384
 40
0.8818990399724898
 40
1.0
 40
1.0
 40
1.0
 40
1.0
 10
-33.77729068837623
 20
232.9102219767446
 30
0.0
 10
-35.24629361978459
 20
232.6993032503731
 30
0.0
 10
-37.8375806640342
 20
232.3272475169566
 30
0.0
 10
-40.81883909639619
 20
232.5912138930427
 30
0.0
 10
-42.30593585002234
 20
232.8492738851022
 30
0.0
 10
-42.65715538040188
 20
232.9102219767444
 30
0.0
  0
SPLINE
  5
2C1
330
1F
100
AcDbEntity
  8
0
  6
Continuous
 62
     7
370
    25
100
AcDbSpline
210
0.0
220
0.0
230
1.0
 70
     8
 71
     3
 72
     9
 73
     5
 74
     0
 42
0.00000001
 43
0.00000001
 40
0.0
 40
0.0
 40
0.0
 40
0.0
 40
0.0727884863178727
 40
1.0
 40
1.0
 40
1.0
 40
1.0
 10
-33.67067797755047
 20
232.9266272305006
 30
0.0
 10
-33.67131037414778
 20
232.9264749674095
 30
0.0
 10
-33.67999851466669
 20
232.9243831105955
 30
0.0
 10
-33.71562073034137
 20
232.91703511908
 30
0.0
 10
-33.74865005885771
 20
232.9102219767446
 30
0.0
  0
SPLINE
  5
2C2
330
1F
100
AcDbEntity
  8
0
  6
Continuous
 62
     7
370
    25
100
AcDbSpline
210
0.0
220
0.0
230
1.0
 70
     8
 71
     3
 72
    11
 73
     7
 74
     0
 42
0.00000001
 43
0.00000001
 40
0.0
 40
0.0
 40
0.0
 40
0.0
 40
0.1883467346483164
 40
0.5045742105936618
 40
0.8244987390895705
 40
1.0
 40
1.0
 40
1.0
 40
1.0
 10
-60.40318072948642
 20
233.889434516882
 30
0.0
 10
-60.53407409890965
 20
233.89522596208
 30
0.0
 10
-60.8847327852522
 20
233.9107410380084
 30
0.0
 10
-61.42362883682678
 20
233.9190451941079
 30
0.0
 10
-61.86173826306013
 20
233.9102123165536
 30
0.0
 10
-62.04227023926895
 20
233.8948695787707
 30
0.0
 10
-62.10622248022366
 20
233.8894345168821
 30
0.0
  0
LINE
  5
2C3
330
1F
100
AcDbEntity
  8
0
  6
Continuous
 62
     7
370
    25
100
AcDbLine
 10
-62.1062224802
 20
233.8894345169
 30
0.0
 11
-62.1062224802
 21
246.3619762643
 31
0.0
  0
ARC
  5
2C4
330
1F
100
AcDbEntity
  8
0
  6
Continuous
 62
     7
370
    25
100
AcDbCircle
 10
-61.0802364775
 20
233.9035045591
 30
0.0
 40
1.026082474205946
100
AcDbArc
 50
180.7856866483
 51
255.4739867895
  0
ARC
  5
2C5
330
1F
100
AcDbEntity
  8
0
  6
Continuous
 62
     7
370
    25
100
AcDbCircle
 10
-34.0306881795
 20
233.7828549045
 30
0.0
 40
0.9086795447912728
100
AcDbArc
 50
286.1923821461
 51
6.7357638105
  0
SPLINE
  5
2C6
330
1F
100
AcDbEntity
  8
0
  6
Continuous
 62
     7
370
    25
100
AcDbSpline
210
0.0
220
0.0
230
1.0
 70
     8
 71
     3
 72
     9
 73
     5
 74
     0
 42
0.00000001
 43
0.00000001
 40
0.0
 40
0.0
 40
0.0
 40
0.0
 40
0.5000000000003498
 40
1.0
 40
1.0
 40
1.0
 40
1.0
 10
-41.90706493598498
 20
233.8894345168823
 30
0.0
 10
-40.44393422608411
 20
233.6702483378834
 30
0.0
 10
-37.5176728062844
 20
233.2318759798858
 30
0.0
 10
-34.59141138648472
 20
233.6702483378831
 30
0.0
 10
-33.12828067658591
 20
233.8894345168814
 30
0.0
  0
LINE
  5
2C7
330
1F
100
AcDbEntity
  8
0
  6
Continuous
 62
     7
370
    25
100
AcDbLine
 10
-33.1282806766
 20
233.8894345169
 30
0.0
 11
-33.1282806766
 21
246.3619762643
 31
0.0
  0
ARC
  5
2C8
330
1F
100
AcDbEntity
  8
0
  6
Continuous
 62
     7
370
    25
100
AcDbCircle
 10
-69.1512353445
 20
233.7967774757
 30
0.0
 40
0.9173391679911984
100
AcDbArc
 50
174.202878985
 51
255.1147928552
  0
SPLINE
  5
2C9
330
1F
100
AcDbEntity
  8
0
  6
Continuous
 62
     7
370
    25
100
AcDbSpline
210
0.0
220
0.0
230
1.0
 70
     8
 71
     3
 72
     9
 73
     5
 74
     0
 42
0.00000001
 43
0.00000001
 40
0.0
 40
0.0
 40
0.0
 40
0.0
 40
0.4999999999999593
 40
1.0
 40
1.0
 40
1.0
 40
1.0
 10
-70.0638830431334
 20
233.8894345168818
 30
0.0
 10
-68.73760628264856
 20
233.6702483378829
 30
0.0
 10
-66.08505276167864
 20
233.2318759798849
 30
0.0
 10
-63.43249924070874
 20
233.6702483378831
 30
0.0
 10
-62.10622248022369
 20
233.889434516882
 30
0.0
  0
LINE
  5
2CA
330
1F
100
AcDbEntity
  8
0
  6
Continuous
 62
     7
370
    25
100
AcDbLine
 10
-70.0638830431
 20
246.3619762643
 30
0.0
 11
-70.0638830431
 21
233.8894345169
 31
0.0
  0
LINE
  5
2CB
330
1F
100
AcDbEntity
  8
0
  6
Continuous
 62
     7
370
    25
100
AcDbLine
 10
128.1322327504
 20
251.3619762643
 30
0.0
 11
178.7322178961
 21
251.3619762643
 31
0.0
  0
LINE
  5
2CC
330
1F
100
AcDbEntity
  8
0
  6
Continuous
 62
     7
370
    25
100
AcDbLine
 10
178.2322327504
 20
247.3619762643
 30
0.0
 11
128.6322473111
 21
247.3619762643
 31
0.0
  0
ELLIPSE
  5
2CD
330
1F
100
AcDbEntity
  8
0
  6
Continuous
 62
     7
370
    25
100
AcDbEllipse
 10
173.6394803078
 20
246.3619762643
 30
0.0
 11
1.733133418487114
 21
5.684341886080801E-14
 31
0.0
210
0.0
220
0.0
230
1.0
 40
0.5769896243
 41
1.570796326794878
 42
3.141592653589736
  0
LINE
  5
2CE
330
1F
100
AcDbEntity
  8
0
  6
Continuous
 62
     7
370
    25
100
AcDbLine
 10
171.9063468893
 20
246.3619762643
 30
0.0
 11
163.5190602974
 21
246.3619762643
 31
0.0
  0
ELLIPSE
  5
2CF
330
1F
100
AcDbEntity
  8
0
  6
Continuous
 62
     7
370
    25
100
AcDbEllipse
 10
163.5168930418
 20
246.3619762643
 30
0.0
 11
-2.842170943040401E-14
 21
1.0
 31
0.0
210
0.0
220
0.0
230
1.0
 40
0.0021672557
 41
4.71238898038469
 42
6.283185307179586
  0
ELLIPSE
  5
2D0
330
1F
100
AcDbEntity
  8
0
  6
Continuous
 62
     7
370
    25
100
AcDbEllipse
 10
163.5168930418
 20
246.3619762643
 30
0.0
 11
1.730966162790594
 21
5.684341886080801E-14
 31
0.0
210
0.0
220
0.0
230
1.0
 40
0.577712044
 41
1.570796326794878
 42
3.141592653589736
  0
LINE
  5
2D1
330
1F
100
AcDbEntity
  8
0
  6
Continuous
 62
     7
370
    25
100
AcDbLine
 10
161.785926879
 20
246.3619762643
 30
0.0
 11
145.0427789028
 21
246.3619762643
 31
0.0
  0
ELLIPSE
  5
2D2
330
1F
100
AcDbEntity
  8
0
  6
Continuous
 62
     7
370
    25
100
AcDbEllipse
 10
143.3096454843
 20
246.3619762643
 30
0.0
 11
1.733133418487057
 21
5.684341886080801E-14
 31
0.0
210
0.0
220
0.0
230
1.0
 40
0.5769896243
 41
0.0
 42
1.570796326794878
  0
LINE
  5
2D3
330
1F
100
AcDbEntity
  8
0
  6
Continuous
 62
     7
370
    25
100
AcDbLine
 10
163.5190602974
 20
246.3619762643
 30
0.0
 11
161.785926879
 21
246.3619762643
 31
0.0
  0
LINE
  5
2D4
330
1F
100
AcDbEntity
  8
0
  6
Continuous
 62
     7
370
    25
100
AcDbLine
 10
145.0427789028
 20
246.3619762643
 30
0.0
 11
143.31181274
 21
246.3619762643
 31
0.0
  0
ELLIPSE
  5
2D5
330
1F
100
AcDbEntity
  8
0
  6
Continuous
 62
     7
370
    25
100
AcDbEllipse
 10
143.3096454843
 20
246.3619762643
 30
0.0
 11
-2.842170943040401E-14
 21
1.0
 31
0.0
210
0.0
220
0.0
230
1.0
 40
0.0021672557
 41
4.71238898038469
 42
6.283185307179586
  0
ELLIPSE
  5
2D6
330
1F
100
AcDbEntity
  8
0
  6
Continuous
 62
     7
370
    25
100
AcDbEllipse
 10
133.2249851929
 20
246.3619762643
 30
0.0
 11
1.730966162790565
 21
2.842170943040401E-14
 31
0.0
210
0.0
220
0.0
230
1.0
 40
0.577712044
 41
0.0
 42
1.570796326794887
  0
LINE
  5
2D7
330
1F
100
AcDbEntity
  8
0
  6
Continuous
 62
     7
370
    25
100
AcDbLine
 10
143.31181274
 20
246.3619762643
 30
0.0
 11
134.9559513557
 21
246.3619762643
 31
0.0
  0
SPLINE
  5
2D8
330
1F
100
AcDbEntity
  8
0
  6
Continuous
 62
     7
370
    25
100
AcDbSpline
210
0.0
220
0.0
230
1.0
 70
     8
 71
     3
 72
    11
 73
     7
 74
     0
 42
0.00000001
 43
0.00000001
 40
0.0
 40
0.0
 40
0.0
 40
0.0
 40
0.1755702971684292
 40
0.4954273686125881
 40
0.8115831191424532
 40
1.0
 40
1.0
 40
1.0
 40
1.0
 10
161.8832088555702
 20
232.910221976748
 30
0.0
 10
161.9448564046724
 20
232.9156567949103
 30
0.0
 10
162.1188145486505
 20
232.9309928608871
 30
0.0
 10
162.3915230261499
 20
232.939836268577
 30
0.0
 10
162.6245885235008
 20
232.931521746395
 30
0.0
 10
162.7230034021429
 20
232.9160131699608
 30
0.0
 10
162.7597533630212
 20
232.910221976748
 30
0.0
  0
ARC
  5
2D9
330
1F
100
AcDbEntity
  8
0
  6
Continuous
 62
     7
370
    25
100
AcDbCircle
 10
494.474523082
 20
266.4466602909
 30
0.0
 40
334.2778410149733
100
AcDbArc
 50
185.5892231584
 51
185.75788812
  0
SPLINE
  5
2DA
330
1F
100
AcDbEntity
  8
0
  6
Continuous
 62
     7
370
    25
100
AcDbSpline
210
0.0
220
0.0
230
1.0
 70
     8
 71
     3
 72
    11
 73
     7
 74
     0
 42
0.00000001
 43
0.00000001
 40
0.0
 40
0.0
 40
0.0
 40
0.0
 40
0.188346734648225
 40
0.5045742105933796
 40
0.8244987390890889
 40
1.0
 40
1.0
 40
1.0
 40
1.0
 10
163.5190602974566
 20
233.889434516886
 30
0.0
 10
163.446714619461
 20
233.8952259620841
 30
0.0
 10
163.2529031183873
 20
233.9107410380126
 30
0.0
 10
162.7925929133762
 20
233.9190451941117
 30
0.0
 10
162.2530535511578
 20
233.9102123165578
 30
0.0
 10
161.9081179874079
 20
233.8948695787747
 30
0.0
 10
161.7859268789401
 20
233.8894345168859
 30
0.0
  0
ARC
  5
2DB
330
1F
100
AcDbEntity
  8
0
  6
Continuous
 62
     7
370
    25
100
AcDbCircle
 10
162.4923527765
 20
233.9015708306
 30
0.0
 40
1.026779247749698
100
AcDbArc
 50
285.0953741522
 51
359.3227602269
  0
LINE
  5
2DC
330
1F
100
AcDbEntity
  8
0
  6
Continuous
 62
     7
370
    25
100
AcDbLine
 10
163.5190602974
 20
246.3619762643
 30
0.0
 11
163.5190602975
 21
233.8894345169
 31
0.0
  0
LINE
  5
2DD
330
1F
100
AcDbEntity
  8
0
  6
Continuous
 62
     7
370
    25
100
AcDbLine
 10
161.7859268789
 20
233.8894345169
 30
0.0
 11
161.785926879
 21
246.3619762643
 31
0.0
  0
SPLINE
  5
2DE
330
1F
100
AcDbEntity
  8
0
  6
Continuous
 62
     7
370
    25
100
AcDbSpline
210
0.0
220
0.0
230
1.0
 70
     8
 71
     3
 72
    10
 73
     6
 74
     0
 42
0.00000001
 43
0.00000001
 40
0.0
 40
0.0
 40
0.0
 40
0.0
 40
0.5005066582626875
 40
0.8819976404752589
 40
1.0
 40
1.0
 40
1.0
 40
1.0
 10
161.8832088555702
 20
232.910221976748
 30
0.0
 10
159.0588509211331
 20
232.6991429468987
 30
0.0
 10
154.0817402415712
 20
232.3271774531185
 30
0.0
 10
148.4233205100866
 20
232.5915385693517
 30
0.0
 10
145.6115432146431
 20
232.8493221292875
 30
0.0
 10
144.9472773924673
 20
232.9102219767477
 30
0.0
  0
ARC
  5
2DF
330
1F
100
AcDbEntity
  8
0
  6
Continuous
 62
     7
370
    25
100
AcDbCircle
 10
477.4929056251
 20
200.9716799325
 30
0.0
 40
334.0758376844069
100
AcDbArc
 50
174.3452548254
 51
174.5139918582
  0
SPLINE
  5
2E0
330
1F
100
AcDbEntity
  8
0
  6
Continuous
 62
     7
370
    25
100
AcDbSpline
210
0.0
220
0.0
230
1.0
 70
     8
 71
     3
 72
     9
 73
     5
 74
     0
 42
0.00000001
 43
0.00000001
 40
0.0
 40
0.0
 40
0.0
 40
0.0
 40
0.4994437068503684
 40
1.0
 40
1.0
 40
1.0
 40
1.0
 10
145.0427789028038
 20
233.8894345168856
 30
0.0
 10
147.8301861057146
 20
233.6704110241184
 30
0.0
 10
153.4112098821259
 20
233.2318761306701
 30
0.0
 10
158.9922847375289
 20
233.6700858727622
 30
0.0
 10
161.7859268789401
 20
233.8894345168859
 30
0.0
  0
LINE
  5
2E1
330
1F
100
AcDbEntity
  8
0
  6
Continuous
 62
     7
370
    25
100
AcDbLine
 10
145.0427789028
 20
246.3619762643
 30
0.0
 11
145.0427789028
 21
233.8894345169
 31
0.0
  0
SPLINE
  5
2E2
330
1F
100
AcDbEntity
  8
0
  6
Continuous
 62
     7
370
    25
100
AcDbSpline
210
0.0
220
0.0
230
1.0
 70
     8
 71
     3
 72
    11
 73
     7
 74
     0
 42
0.00000001
 43
0.00000001
 40
0.0
 40
0.0
 40
0.0
 40
0.0
 40
0.1883467346500179
 40
0.504574210598114
 40
0.8244987390967978
 40
1.0
 40
1.0
 40
1.0
 40
1.0
 10
145.0427789028038
 20
233.8894345168856
 30
0.0
 10
144.9116240734521
 20
233.8952259620836
 30
0.0
 10
144.5602649452506
 20
233.9107410380124
 30
0.0
 10
144.0152613145759
 20
233.9190451941116
 30
0.0
 10
143.567066880133
 20
233.9102123165566
 30
0.0
 10
143.3785821800169
 20
233.8948695787758
 30
0.0
 10
143.3118127399936
 20
233.8894345168876
 30
0.0
  0
LINE
  5
2E3
330
1F
100
AcDbEntity
  8
0
  6
Continuous
 62
     7
370
    25
100
AcDbLine
 10
143.31181274
 20
233.8894345169
 30
0.0
 11
143.31181274
 21
246.3619762643
 31
0.0
  0
SPLINE
  5
2E4
330
1F
100
AcDbEntity
  8
0
  6
Continuous
 62
     7
370
    25
100
AcDbSpline
210
0.0
220
0.0
230
1.0
 70
     8
 71
     3
 72
    11
 73
     7
 74
     0
 42
0.00000001
 43
0.00000001
 40
0.0
 40
0.0
 40
0.0
 40
0.0
 40
0.1755702971684358
 40
0.4954273686125845
 40
0.811583119142427
 40
1.0
 40
1.0
 40
1.0
 40
1.0
 10
144.0718289899421
 20
232.9102219767477
 30
0.0
 10
144.1057499329926
 20
232.9156567949099
 30
0.0
 10
144.2014686498112
 20
232.9309928608868
 30
0.0
 10
144.4284164813785
 20
232.9398362685765
 30
0.0
 10
144.7039070125277
 20
232.9315217463943
 30
0.0
 10
144.8811074330797
 20
232.9160131699605
 30
0.0
 10
144.9472773924673
 20
232.9102219767477
 30
0.0
  0
ARC
  5
2E5
330
1F
100
AcDbEntity
  8
0
  6
Continuous
 62
     7
370
    25
100
AcDbCircle
 10
144.3384651409
 20
233.9017214901
 30
0.0
 40
1.026725923458276
100
AcDbArc
 50
180.6856829997
 51
254.9480022117
  0
SPLINE
  5
2E6
330
1F
100
AcDbEntity
  8
0
  6
Continuous
 62
     7
370
    25
100
AcDbSpline
210
0.0
220
0.0
230
1.0
 70
     8
 71
     3
 72
    10
 73
     6
 74
     0
 42
0.00000001
 43
0.00000001
 40
0.0
 40
0.0
 40
0.0
 40
0.0
 40
0.4999493505749385
 40
0.8818990399724878
 40
1.0
 40
1.0
 40
1.0
 40
1.0
 10
144.0718289899421
 20
232.9102219767477
 30
0.0
 10
142.6534969482178
 20
232.6993032503761
 30
0.0
 10
140.1515921762233
 20
232.3272475169597
 30
0.0
 10
137.3423174960991
 20
232.5912138930459
 30
0.0
 10
135.9488606294006
 20
232.8492738851052
 30
0.0
 10
135.6197567798141
 20
232.9102219767475
 30
0.0
  0
SPLINE
  5
2E7
330
1F
100
AcDbEntity
  8
0
  6
Continuous
 62
     7
370
    25
100
AcDbSpline
210
0.0
220
0.0
230
1.0
 70
     8
 71
     3
 72
    10
 73
     6
 74
     0
 42
0.00000001
 43
0.00000001
 40
0.0
 40
0.0
 40
0.0
 40
0.0
 40
0.4999493505749388
 40
0.8818990399724892
 40
1.0
 40
1.0
 40
1.0
 40
1.0
 10
171.2436126159961
 20
232.9102219767483
 30
0.0
 10
169.840743617538
 20
232.6993032503768
 30
0.0
 10
167.3661152946397
 20
232.3272475169604
 30
0.0
 10
164.5169304544399
 20
232.5912138930462
 30
0.0
 10
163.0954708443987
 20
232.8492738851058
 30
0.0
 10
162.7597533630212
 20
232.910221976748
 30
0.0
  0
SPLINE
  5
2E8
330
1F
100
AcDbEntity
  8
0
  6
Continuous
 62
     7
370
    25
100
AcDbSpline
210
0.0
220
0.0
230
1.0
 70
     8
 71
     3
 72
     9
 73
     5
 74
     0
 42
0.00000001
 43
0.00000001
 40
0.0
 40
0.0
 40
0.0
 40
0.0
 40
0.4835383487029637
 40
1.0
 40
1.0
 40
1.0
 40
1.0
 10
171.2436126159961
 20
232.9102219767481
 30
0.0
 10
171.272874115783
 20
232.9159577132718
 30
0.0
 10
171.3333894810386
 20
232.9278197228495
 30
0.0
 10
171.347190275399
 20
232.9304828402948
 30
0.0
 10
171.3543178564435
 20
232.9318582383281
 30
0.0
  0
SPLINE
  5
2E9
330
1F
100
AcDbEntity
  8
0
  6
Continuous
 62
     7
370
    25
100
AcDbSpline
210
0.0
220
0.0
230
1.0
 70
     8
 71
     3
 72
     9
 73
     5
 74
     0
 42
0.00000001
 43
0.00000001
 40
0.0
 40
0.0
 40
0.0
 40
0.0
 40
0.6085116260098383
 40
1.0
 40
1.0
 40
1.0
 40
1.0
 10
135.490139733018
 20
232.9357384296085
 30
0.0
 10
135.4985696215002
 20
232.9340763542308
 30
0.0
 10
135.5124229122541
 20
232.9313449760504
 30
0.0
 10
135.5895589268743
 20
232.9161648281614
 30
0.0
 10
135.6197567798141
 20
232.9102219767475
 30
0.0
  0
ARC
  5
2EA
330
1F
100
AcDbEntity
  8
0
  6
Continuous
 62
     7
370
    25
100
AcDbCircle
 10
170.9990966926
 20
233.7895877992
 30
0.0
 40
0.9127279367080837
100
AcDbArc
 50
285.5390892353
 51
6.280368218
  0
SPLINE
  5
2EB
330
1F
100
AcDbEntity
  8
0
  6
Continuous
 62
     7
370
    25
100
AcDbSpline
210
0.0
220
0.0
230
1.0
 70
     8
 71
     3
 72
     9
 73
     5
 74
     0
 42
0.00000001
 43
0.00000001
 40
0.0
 40
0.0
 40
0.0
 40
0.0
 40
0.4999999999994134
 40
1.0
 40
1.0
 40
1.0
 40
1.0
 10
163.5190602974565
 20
233.8894345168859
 30
0.0
 10
164.9169413961011
 20
233.670248337887
 30
0.0
 10
167.7127035933937
 20
233.2318759798886
 30
0.0
 10
170.5084657906862
 20
233.6702483378881
 30
0.0
 10
171.906346889334
 20
233.889434516888
 30
0.0
  0
LINE
  5
2EC
330
1F
100
AcDbEntity
  8
0
  6
Continuous
 62
     7
370
    25
100
AcDbLine
 10
171.9063468893
 20
233.8894345169
 30
0.0
 11
171.9063468893
 21
246.3619762643
 31
0.0
  0
ARC
  5
2ED
330
1F
100
AcDbEntity
  8
0
  6
Continuous
 62
     7
370
    25
100
AcDbCircle
 10
135.8635940111
 20
233.7901207335
 30
0.0
 40
0.9130599199664149
100
AcDbArc
 50
173.755567523
 51
254.5109019979
  0
SPLINE
  5
2EE
330
1F
100
AcDbEntity
  8
0
  6
Continuous
 62
     7
370
    25
100
AcDbSpline
210
0.0
220
0.0
230
1.0
 70
     8
 71
     3
 72
     9
 73
     5
 74
     0
 42
0.00000001
 43
0.00000001
 40
0.0
 40
0.0
 40
0.0
 40
0.0
 40
0.4999999999994122
 40
1.0
 40
1.0
 40
1.0
 40
1.0
 10
134.9559513557151
 20
233.8894345168854
 30
0.0
 10
136.3485949197599
 20
233.6702483378866
 30
0.0
 10
139.1338820478529
 20
233.2318759798883
 30
0.0
 10
141.9191691759455
 20
233.6702483378875
 30
0.0
 10
143.3118127399936
 20
233.8894345168876
 30
0.0
  0
LINE
  5
2EF
330
1F
100
AcDbEntity
  8
0
  6
Continuous
 62
     7
370
    25
100
AcDbLine
 10
134.9559513557
 20
246.3619762643
 30
0.0
 11
134.9559513557
 21
233.8894345169
 31
0.0
  0
ARC
  5
2F0
330
1F
100
AcDbEntity
  8
0
  6
Continuous
 62
     7
370
    25
100
AcDbCircle
 10
-51.5677672496
 20
193.4119762643
 30
0.0
 40
10.30000000000003
100
AcDbArc
 50
356.7363618434
 51
11.2746399902
  0
SPLINE
  5
2F1
330
1F
100
AcDbEntity
  8
0
  6
Continuous
 62
     7
370
    25
100
AcDbSpline
210
0.0
220
0.0
230
1.0
 70
    24
 71
     3
 72
    13
 73
     9
 74
     0
 42
0.00000001
 43
0.00000001
 40
0.0
 40
0.0
 40
0.0
 40
0.0
 40
0.0295448902054277
 40
0.2606471239688225
 40
0.4913152552054801
 40
0.7308682638478772
 40
0.9709134921287357
 40
1.0
 40
1.0
 40
1.0
 40
1.0
 10
-41.28447232885946
 20
192.8255927955913
 30
0.0
 10
-41.31743264670595
 20
192.757997658843
 30
0.0
 10
-41.60821091638475
 20
192.161668552009
 30
0.0
 10
-42.1734504566256
 20
191.0024732980044
 30
0.0
 10
-43.00801001249721
 20
189.2909556006789
 30
0.0
 10
-43.85460615706913
 20
187.5547532245538
 30
0.0
 10
-44.44049478927028
 20
186.3532107395157
 30
0.0
 10
-44.74072790416425
 20
185.7374916025785
 30
0.0
 10
-44.7731757045777
 20
185.6709475383997
 30
0.0
  0
ARC
  5
2F2
330
1F
100
AcDbEntity
  8
0
  6
Continuous
 62
     7
370
    25
100
AcDbCircle
 10
-51.5677672496
 20
193.4119762643
 30
0.0
 40
10.30000000000003
100
AcDbArc
 50
296.7363618434
 51
311.2746399902
  0
SPLINE
  5
2F3
330
1F
100
AcDbEntity
  8
0
  6
Continuous
 62
     7
370
    25
100
AcDbSpline
210
0.0
220
0.0
230
1.0
 70
    24
 71
     3
 72
     9
 73
     5
 74
     0
 42
0.00000001
 43
0.00000001
 40
0.0
 40
0.0
 40
0.0
 40
0.0
 40
0.5117775781475451
 40
0.9999999999999999
 40
0.9999999999999999
 40
0.9999999999999999
 40
0.9999999999999999
 10
-46.93394276954405
 20
184.2131898939713
 30
0.0
 10
-47.5596704644797
 20
184.1693743814
 30
0.0
 10
-48.78232601183791
 20
184.0837600160153
 30
0.0
 10
-50.07278658473
 20
183.9933977195856
 30
0.0
 10
-50.70281837093243
 20
183.9492808203785
 30
0.0
  0
SPLINE
  5
2F4
330
1F
100
AcDbEntity
  8
0
  6
Continuous
 62
     7
370
    25
100
AcDbSpline
210
0.0
220
0.0
230
1.0
 70
    24
 71
     3
 72
     9
 73
     5
 74
     0
 42
0.00000001
 43
0.00000001
 40
0.0
 40
0.0
 40
0.0
 40
0.0
 40
0.2427511950105716
 40
1.0
 40
1.0
 40
1.0
 40
1.0
 10
-50.94171449051566
 20
202.9790765501172
 30
0.0
 10
-50.71795303820343
 20
202.9947450634434
 30
0.0
 10
-49.79618022343918
 20
203.0592906296379
 30
0.0
 10
-48.92263020308085
 20
203.1204594770586
 30
0.0
 10
-48.26113549406605
 20
203.1667795136706
 30
0.0
  0
ARC
  5
2F5
330
1F
100
AcDbEntity
  8
0
  6
Continuous
 62
     7
370
    25
100
AcDbCircle
 10
-51.5677672496
 20
193.4119762643
 30
0.0
 40
10.29999999999998
100
AcDbArc
 50
56.7363618434
 51
71.2746399902
  0
SPLINE
  5
2F6
330
1F
100
AcDbEntity
  8
0
  6
Continuous
 62
     7
370
    25
100
AcDbSpline
210
0.0
220
0.0
230
1.0
 70
    24
 71
     3
 72
    11
 73
     7
 74
     0
 42
0.00000001
 43
0.00000001
 40
0.0
 40
0.0
 40
0.0
 40
0.0
 40
0.2431641197380878
 40
0.4936284730588954
 40
0.7421706076863348
 40
1.0
 40
1.0
 40
1.0
 40
1.0
 10
-45.91829680894688
 20
202.0243791659633
 30
0.0
 10
-45.56734324887096
 20
201.5041768560367
 30
0.0
 10
-44.85489985812124
 20
200.4481548071944
 30
0.0
 10
-43.72473433676016
 20
198.7729624692558
 30
0.0
 10
-42.57072349559935
 20
197.0624253112282
 30
0.0
 10
-41.83907679257304
 20
195.9779390764052
 30
0.0
 10
-41.4665439490123
 20
195.4257507877272
 30
0.0
  0
ARC
  5
2F7
330
1F
100
AcDbEntity
  8
0
  6
Continuous
 62
     7
370
    25
100
AcDbCircle
 10
153.4322327504
 20
193.4119762643
 30
0.0
 40
10.30000000000002
100
AcDbArc
 50
199.9280483469
 51
214.4663264937
  0
SPLINE
  5
2F8
330
1F
100
AcDbEntity
  8
0
  6
Continuous
 62
     7
370
    25
100
AcDbSpline
210
0.0
220
0.0
230
1.0
 70
    24
 71
     3
 72
    13
 73
     9
 74
     0
 42
0.00000001
 43
0.00000001
 40
0.0
 40
0.0
 40
0.0
 40
0.0
 40
0.0295448902054207
 40
0.2606471239688238
 40
0.4913152552054776
 40
0.730868263847869
 40
0.9709134921287332
 40
1.0
 40
1.0
 40
1.0
 40
1.0
 10
143.7489824714322
 20
189.9013261770444
 30
0.0
 10
143.7526598058841
 20
189.9764391737618
 30
0.0
 10
143.7851015121179
 20
190.6390913762575
 30
0.0
 10
143.8481644608593
 20
191.9272111064271
 30
0.0
 10
143.9412750498172
 20
193.8290820007782
 30
0.0
 10
144.0357285433707
 20
195.758382977926
 30
0.0
 10
144.1010952810993
 20
197.0935597535963
 30
0.0
 10
144.1345918505842
 20
197.7777585249366
 30
0.0
 10
144.1382120042157
 20
197.8517035498996
 30
0.0
  0
ARC
  5
2F9
330
1F
100
AcDbEntity
  8
0
  6
Continuous
 62
     7
370
    25
100
AcDbCircle
 10
153.4322327504
 20
193.4119762643
 30
0.0
 40
10.30000000000004
100
AcDbArc
 50
139.9280483469
 51
154.4663264937
  0
SPLINE
  5
2FA
330
1F
100
AcDbEntity
  8
0
  6
Continuous
 62
     7
370
    25
100
AcDbSpline
210
0.0
220
0.0
230
1.0
 70
    24
 71
     3
 72
    11
 73
     7
 74
     0
 42
0.00000001
 43
0.00000001
 40
0.0
 40
0.0
 40
0.0
 40
0.0
 40
0.2431641197380936
 40
0.4936284730588973
 40
0.7421706076863339
 40
1.0
 40
1.0
 40
1.0
 40
1.0
 10
145.5502954514982
 20
200.0425919534572
 30
0.0
 10
146.108434318065
 20
200.3294017339918
 30
0.0
 10
147.2414684053103
 20
200.9116318515613
 30
0.0
 10
149.0388267309787
 20
201.8352370290647
 30
0.0
 10
150.8741074523136
 20
202.7783293174472
 30
0.0
 10
152.0376815202505
 20
203.3762529580522
 30
0.0
 10
152.6301389924556
 20
203.6806979765912
 30
0.0
  0
ARC
  5
2FB
330
1F
100
AcDbEntity
  8
0
  6
Continuous
 62
     7
370
    25
100
AcDbCircle
 10
153.4322327504
 20
193.4119762643
 30
0.0
 40
10.29999999999998
100
AcDbArc
 50
82.8673793136
 51
94.4663264937
  0
ARC
  5
2FC
330
1F
100
AcDbEntity
  8
0
  6
Continuous
 62
     7
370
    25
100
AcDbCircle
 10
153.4322327504
 20
193.4119762643
 30
0.0
 40
10.30000000000001
100
AcDbArc
 50
259.9280483469
 51
273.2830716215
  0
SPLINE
  5
2FD
330
1F
100
AcDbEntity
  8
0
  6
Continuous
 62
     7
370
    25
100
AcDbSpline
210
0.0
220
0.0
230
1.0
 70
    24
 71
     3
 72
    11
 73
     7
 74
     0
 42
0.00000001
 43
0.00000001
 40
0.0
 40
0.0
 40
0.0
 40
0.0
 40
0.2431641197380875
 40
0.4936284730588945
 40
0.7421706076863298
 40
1.0
 40
1.0
 40
1.0
 40
1.0
 10
151.6309197703027
 20
183.2707104879341
 30
0.0
 10
151.1034657810224
 20
183.6106680349531
 30
0.0
 10
150.0327226647366
 20
184.3007892790767
 30
0.0
 10
148.3341779551171
 20
185.3955446600566
 30
0.0
 10
146.5997957145974
 20
186.5133982436176
 30
0.0
 10
145.5001916183417
 20
187.2221211253333
 30
0.0
 10
144.9403057621287
 20
187.5829818376552
 30
0.0
  0
LINE
  5
2FE
330
1F
100
AcDbEntity
  8
0
  6
Continuous
 62
     7
370
    25
100
AcDbLine
 10
148.9759536554
 20
202.0840046677
 30
0.0
 11
150.1998884906
 21
202.6105876045
 31
0.0
  0
LWPOLYLINE
  5
2FF
330
1F
100
AcDbEntity
  8
0
  6
Continuous
 62
     7
370
    25
100
AcDbPolyline
 90
        3
 70
   128
 43
0.0
 10
147.1908560723
 20
200.9024847359
 10
147.4152922576
 20
201.0839334531
 10
148.9759536554
 20
202.0840046677
  0
ARC
  5
300
330
1F
100
AcDbEntity
  8
0
  6
Continuous
 62
     7
370
    25
100
AcDbCircle
 10
153.4322327504
 20
193.4119762643
 30
0.0
 40
14.87500000000008
100
AcDbArc
 50
51.4589725729
 51
304.6914783619
  0
ARC
  5
301
330
1F
100
AcDbEntity
  8
0
  6
Continuous
 62
     7
370
    25
100
AcDbCircle
 10
153.4322327504
 20
193.4119762643
 30
0.0
 40
10.57500000000004
100
AcDbArc
 50
78.8626668473
 51
276.4243237074
  0
SPLINE
  5
302
330
1F
100
AcDbEntity
  8
0
  6
Continuous
 62
     7
370
    25
100
AcDbSpline
210
0.0
220
0.0
230
1.0
 70
     8
 71
     3
 72
     9
 73
     5
 74
     0
 42
0.00000001
 43
0.00000001
 40
0.0
 40
0.0
 40
0.0
 40
0.0
 40
0.5850553834534293
 40
1.0
 40
1.0
 40
1.0
 40
1.0
 10
140.7636341658881
 20
205.1719341684077
 30
0.0
 10
140.3648473693563
 20
204.9313716686304
 30
0.0
 10
139.6832250686126
 20
204.5201926476676
 30
0.0
 10
139.1727855226427
 20
203.8725265586326
 30
0.0
 10
138.9609813809699
 20
203.6037810016678
 30
0.0
  0
SPLINE
  5
303
330
1F
100
AcDbEntity
  8
0
  6
Continuous
 62
     7
370
    25
100
AcDbSpline
210
0.0
220
0.0
230
1.0
 70
    24
 71
     3
 72
    11
 73
     7
 74
     0
 42
0.00000001
 43
0.00000001
 40
0.0
 40
0.0
 40
0.0
 40
0.0
 40
0.2379053903768507
 40
0.4814905141303165
 40
0.73665194443481
 40
1.0
 40
1.0
 40
1.0
 40
1.0
 10
151.2465676850896
 20
210.5587797047093
 30
0.0
 10
150.4340971543502
 20
210.1412769852775
 30
0.0
 10
148.7897592394265
 20
209.2963041214361
 30
0.0
 10
146.1635557918565
 20
207.9467818438169
 30
0.0
 10
143.4380780015486
 20
206.546245644468
 30
0.0
 10
141.6644499111028
 20
205.6348346787706
 30
0.0
 10
140.7636341658881
 20
205.1719341684077
 30
0.0
  0
SPLINE
  5
304
330
1F
100
AcDbEntity
  8
0
  6
Continuous
 62
     7
370
    25
100
AcDbSpline
210
0.0
220
0.0
230
1.0
 70
     8
 71
     3
 72
     9
 73
     5
 74
     0
 42
0.00000001
 43
0.00000001
 40
0.0
 40
0.0
 40
0.0
 40
0.0
 40
0.5841917497409918
 40
1.0
 40
1.0
 40
1.0
 40
1.0
 10
153.5710540809609
 20
211.1114318672227
 30
0.0
 10
153.0884984114671
 20
211.0782964733344
 30
0.0
 10
152.2624756720026
 20
211.0215764085561
 30
0.0
 10
151.5449293611041
 20
210.6946983134734
 30
0.0
 10
151.2465676850896
 20
210.5587797047093
 30
0.0
  0
ARC
  5
305
330
1F
100
AcDbEntity
  8
0
  6
Continuous
 62
     7
370
    25
100
AcDbCircle
 10
153.4322327504
 20
193.4119762643
 30
0.0
 40
17.70000000000001
100
AcDbArc
 50
84.8437509929
 51
89.5506238477
  0
SPLINE
  5
306
330
1F
100
AcDbEntity
  8
0
  6
Continuous
 62
     7
370
    25
100
AcDbSpline
210
0.0
220
0.0
230
1.0
 70
     8
 71
     3
 72
     9
 73
     5
 74
     0
 42
0.00000001
 43
0.00000001
 40
0.0
 40
0.0
 40
0.0
 40
0.0
 40
0.5850553834536163
 40
1.0
 40
1.0
 40
1.0
 40
1.0
 10
157.2823557504792
 20
210.2632834208858
 30
0.0
 10
156.8746291162083
 20
210.4883616674875
 30
0.0
 10
156.1777264881801
 20
210.8730743852356
 30
0.0
 10
155.3616114289213
 20
210.9912949546241
 30
0.0
 10
155.0229688785996
 20
211.040349943457
 30
0.0
  0
SPLINE
  5
307
330
1F
100
AcDbEntity
  8
0
  6
Continuous
 62
     7
370
    25
100
AcDbSpline
210
0.0
220
0.0
230
1.0
 70
    24
 71
     3
 72
    11
 73
     7
 74
     0
 42
0.00000001
 43
0.00000001
 40
0.0
 40
0.0
 40
0.0
 40
0.0
 40
0.2328716322111486
 40
0.4710265024313226
 40
0.7311421212560276
 40
1.0
 40
1.0
 40
1.0
 40
1.0
 10
167.1889675907811
 20
203.8782194552241
 30
0.0
 10
166.4376454972845
 20
204.3624657044084
 30
0.0
 10
164.9179558101429
 20
205.3419444623104
 30
0.0
 10
162.4571297334942
 20
206.9280096237461
 30
0.0
 10
159.8622995822807
 20
208.6004438285589
 30
0.0
 10
158.1517602969669
 20
209.7029300194558
 30
0.0
 10
157.2823557504792
 20
210.2632834208858
 30
0.0
  0
SPLINE
  5
308
330
1F
100
AcDbEntity
  8
0
  6
Continuous
 62
     7
370
    25
100
AcDbSpline
210
0.0
220
0.0
230
1.0
 70
     8
 71
     3
 72
     9
 73
     5
 74
     0
 42
0.00000001
 43
0.00000001
 40
0.0
 40
0.0
 40
0.0
 40
0.0
 40
0.5841917497409274
 40
1.0
 40
1.0
 40
1.0
 40
1.0
 10
168.82982160091
 20
202.1414812669048
 30
0.0
 10
168.5598476732915
 20
202.5428190384825
 30
0.0
 10
168.0977152865566
 20
203.229815682573
 30
0.0
 10
167.4558573968253
 20
203.687789968662
 30
0.0
 10
167.1889675907811
 20
203.878219455224
 30
0.0
  0
ARC
  5
309
330
1F
100
AcDbEntity
  8
0
  6
Continuous
 62
     7
370
    25
100
AcDbCircle
 10
153.4322327504
 20
193.4119762643
 30
0.0
 40
17.69999999999999
100
AcDbArc
 50
324.8437509929
 51
327.1558348375
  0
SPLINE
  5
30A
330
1F
100
AcDbEntity
  8
0
  6
Continuous
 62
     7
370
    25
100
AcDbSpline
210
0.0
220
0.0
230
1.0
 70
     8
 71
     3
 72
     9
 73
     5
 74
     0
 42
0.00000001
 43
0.00000001
 40
0.0
 40
0.0
 40
0.0
 40
0.0
 40
0.5850553834536061
 40
1.0
 40
1.0
 40
1.0
 40
1.0
 10
166.1008313348505
 20
181.6520183602869
 30
0.0
 10
166.4996181313822
 20
181.8925808600642
 30
0.0
 10
167.1812404321252
 20
182.3037598810269
 30
0.0
 10
167.6916799780948
 20
182.9514259700615
 30
0.0
 10
167.9034841197673
 20
183.2201715270261
 30
0.0
  0
SPLINE
  5
30B
330
1F
100
AcDbEntity
  8
0
  6
Continuous
 62
     7
370
    25
100
AcDbSpline
210
0.0
220
0.0
230
1.0
 70
    24
 71
     3
 72
    11
 73
     7
 74
     0
 42
0.00000001
 43
0.00000001
 40
0.0
 40
0.0
 40
0.0
 40
0.0
 40
0.255627964438095
 40
0.5185037642963854
 40
0.7560467972580067
 40
1.0
 40
1.0
 40
1.0
 40
1.0
 10
155.6178978156479
 20
176.2651728239848
 30
0.0
 10
156.4918480780273
 20
176.7142680186863
 30
0.0
 10
158.2645277684032
 20
177.6251916318049
 30
0.0
 10
160.9687969293897
 20
179.0148293922785
 30
0.0
 10
163.6223766436367
 20
180.3784194611012
 30
0.0
 10
165.2673797836742
 20
181.2237341629338
 30
0.0
 10
166.1008313348505
 20
181.652018360287
 30
0.0
  0
SPLINE
  5
30C
330
1F
100
AcDbEntity
  8
0
  6
Continuous
 62
     7
370
    25
100
AcDbSpline
210
0.0
220
0.0
230
1.0
 70
     8
 71
     3
 72
     9
 73
     5
 74
     0
 42
0.00000001
 43
0.00000001
 40
0.0
 40
0.0
 40
0.0
 40
0.0
 40
0.5841917497409176
 40
1.0
 40
1.0
 40
1.0
 40
1.0
 10
153.2934114197763
 20
175.7125206614711
 30
0.0
 10
153.77596708927
 20
175.7456560553594
 30
0.0
 10
154.6019898287348
 20
175.802376120138
 30
0.0
 10
155.3195361396333
 20
176.1292542152205
 30
0.0
 10
155.6178978156479
 20
176.2651728239848
 30
0.0
  0
ARC
  5
30D
330
1F
100
AcDbEntity
  8
0
  6
Continuous
 62
     7
370
    25
100
AcDbCircle
 10
153.4322327504
 20
193.4119762643
 30
0.0
 40
17.7
100
AcDbArc
 50
264.8437509929
 51
269.5506238477
  0
SPLINE
  5
30E
330
1F
100
AcDbEntity
  8
0
  6
Continuous
 62
     7
370
    25
100
AcDbSpline
210
0.0
220
0.0
230
1.0
 70
     8
 71
     3
 72
     9
 73
     5
 74
     0
 42
0.00000001
 43
0.00000001
 40
0.0
 40
0.0
 40
0.0
 40
0.0
 40
0.5850553834536039
 40
1.0
 40
1.0
 40
1.0
 40
1.0
 10
149.5821097502578
 20
176.5606691078081
 30
0.0
 10
149.9898363845289
 20
176.3355908612065
 30
0.0
 10
150.6867390125572
 20
175.9508781434585
 30
0.0
 10
151.5028540718157
 20
175.8326575740696
 30
0.0
 10
151.8414966221376
 20
175.7836025852368
 30
0.0
  0
SPLINE
  5
30F
330
1F
100
AcDbEntity
  8
0
  6
Continuous
 62
     7
370
    25
100
AcDbSpline
210
0.0
220
0.0
230
1.0
 70
    24
 71
     3
 72
    11
 73
     7
 74
     0
 42
0.00000001
 43
0.00000001
 40
0.0
 40
0.0
 40
0.0
 40
0.0
 40
0.2328716322111498
 40
0.4710265024313244
 40
0.7311421212560301
 40
1.0
 40
1.0
 40
1.0
 40
1.0
 10
139.6754979099561
 20
182.9457330734699
 30
0.0
 10
140.4268200034528
 20
182.4614868242855
 30
0.0
 10
141.9465096905943
 20
181.4820080663837
 30
0.0
 10
144.407335767243
 20
179.8959429049479
 30
0.0
 10
147.0021659184563
 20
178.2235087001347
 30
0.0
 10
148.7127052037701
 20
177.121022509238
 30
0.0
 10
149.5821097502578
 20
176.5606691078081
 30
0.0
  0
SPLINE
  5
310
330
1F
100
AcDbEntity
  8
0
  6
Continuous
 62
     7
370
    25
100
AcDbSpline
210
0.0
220
0.0
230
1.0
 70
     8
 71
     3
 72
     9
 73
     5
 74
     0
 42
0.00000001
 43
0.00000001
 40
0.0
 40
0.0
 40
0.0
 40
0.0
 40
0.584191749740929
 40
1.0
 40
1.0
 40
1.0
 40
1.0
 10
138.0346438998271
 20
184.6824712617891
 30
0.0
 10
138.3046178274457
 20
184.2811334902116
 30
0.0
 10
138.7667502141805
 20
183.5941368461207
 30
0.0
 10
139.4086081039119
 20
183.1361625600321
 30
0.0
 10
139.6754979099561
 20
182.9457330734699
 30
0.0
  0
ARC
  5
311
330
1F
100
AcDbEntity
  8
0
  6
Continuous
 62
     7
370
    25
100
AcDbCircle
 10
153.4322327504
 20
193.4119762643
 30
0.0
 40
17.69999999999998
100
AcDbArc
 50
204.8437509929
 51
209.5506238477
  0
SPLINE
  5
312
330
1F
100
AcDbEntity
  8
0
  6
Continuous
 62
     7
370
    25
100
AcDbSpline
210
0.0
220
0.0
230
1.0
 70
     8
 71
     3
 72
     9
 73
     5
 74
     0
 42
0.00000001
 43
0.00000001
 40
0.0
 40
0.0
 40
0.0
 40
0.0
 40
0.585055383453617
 40
1.0
 40
1.0
 40
1.0
 40
1.0
 10
136.9135111657761
 20
188.3206270118681
 30
0.0
 10
136.9224510035153
 20
187.8549862654892
 30
0.0
 10
136.9377313308007
 20
187.0590945267785
 30
0.0
 10
137.2434068440894
 20
186.2932078683552
 30
0.0
 10
137.3702452527388
 20
185.9754073225578
 30
0.0
  0
SPLINE
  5
313
330
1F
100
AcDbEntity
  8
0
  6
Continuous
 62
     7
370
    25
100
AcDbSpline
210
0.0
220
0.0
230
1.0
 70
    24
 71
     3
 72
    11
 73
     7
 74
     0
 42
0.00000001
 43
0.00000001
 40
0.0
 40
0.0
 40
0.0
 40
0.0
 40
0.2328716322111479
 40
0.4710265024313228
 40
0.7311421212560291
 40
1.0
 40
1.0
 40
1.0
 40
1.0
 10
137.4898328446768
 20
200.0925365138321
 30
0.0
 10
137.4461243379442
 20
199.1997493698473
 30
0.0
 10
137.3577156947048
 20
197.3939201159626
 30
0.0
 10
137.2145560111681
 20
194.4697496385717
 30
0.0
 10
137.0636005792489
 20
191.3863437067086
 30
0.0
 10
136.9640891732677
 20
189.3537301360071
 30
0.0
 10
136.9135111657761
 20
188.3206270118681
 30
0.0
  0
SPLINE
  5
314
330
1F
100
AcDbEntity
  8
0
  6
Continuous
 62
     7
370
    25
100
AcDbSpline
210
0.0
220
0.0
230
1.0
 70
     8
 71
     3
 72
     9
 73
     5
 74
     0
 42
0.00000001
 43
0.00000001
 40
0.0
 40
0.0
 40
0.0
 40
0.0
 40
0.584191749740934
 40
1.0
 40
1.0
 40
1.0
 40
1.0
 10
138.1734652304194
 20
202.3819268646649
 30
0.0
 10
137.9608834885443
 20
201.947453699199
 30
0.0
 10
137.5969931358144
 20
201.2037369903296
 30
0.0
 10
137.5213047146472
 20
200.4188846091585
 30
0.0
 10
137.4898328446768
 20
200.0925365138321
 30
0.0
  0
ARC
  5
315
330
1F
100
AcDbEntity
  8
0
  6
Continuous
 62
     7
370
    25
100
AcDbCircle
 10
153.4322327504
 20
193.4119762643
 30
0.0
 40
17.70000000000001
100
AcDbArc
 50
144.8437509929
 51
149.5506238477
  0
ARC
  5
316
330
1F
100
AcDbEntity
  8
0
  6
Continuous
 62
     7
370
    25
100
AcDbCircle
 10
153.4322327504
 20
193.4119762643
 30
0.0
 40
16.19999999999997
100
AcDbArc
 50
117.1971874203
 51
314.1501492002
  0
ARC
  5
317
330
1F
100
AcDbEntity
  8
0
  6
Continuous
 62
     7
370
    25
100
AcDbCircle
 10
153.4322327504
 20
193.4119762643
 30
0.0
 40
16.19999999999999
100
AcDbArc
 50
42.0003017748
 51
117.1971874203
  0
LINE
  5
318
330
1F
100
AcDbEntity
  8
0
  6
Continuous
 62
     7
370
    25
100
AcDbLine
 10
-50.8867078252
 20
183.6857921174
 30
0.0
 11
-51.2284750532
 21
183.6678816011
 31
0.0
  0
LWPOLYLINE
  5
319
330
1F
100
AcDbEntity
  8
0
  6
Continuous
 62
     7
370
    25
100
AcDbPolyline
 90
        3
 70
   128
 43
0.0
 10
-48.7805668931
 20
184.0688496906
 10
-49.0583230036
 20
183.9904482791
 10
-50.8867078252
 20
183.6857921174
  0
ARC
  5
31A
330
1F
100
AcDbEntity
  8
0
  6
Continuous
 62
     7
370
    25
100
AcDbCircle
 10
-51.5677672496
 20
193.4119762643
 30
0.0
 40
14.87499999999998
100
AcDbArc
 50
232.5576060541
 51
94.0055009168
  0
ARC
  5
31B
330
1F
100
AcDbEntity
  8
0
  6
Continuous
 62
     7
370
    25
100
AcDbCircle
 10
-51.5677672496
 20
193.4119762643
 30
0.0
 40
14.87500000000002
100
AcDbArc
 50
94.0055009168
 51
125.7901119666
  0
ARC
  5
31C
330
1F
100
AcDbEntity
  8
0
  6
Continuous
 62
     7
370
    25
100
AcDbCircle
 10
-51.5677672496
 20
193.4119762643
 30
0.0
 40
10.57500000000004
100
AcDbArc
 50
260.8247607777
 51
97.5229572563
  0
SPLINE
  5
31D
330
1F
100
AcDbEntity
  8
0
  6
Continuous
 62
     7
370
    25
100
AcDbSpline
210
0.0
220
0.0
230
1.0
 70
     8
 71
     3
 72
     9
 73
     5
 74
     0
 42
0.00000001
 43
0.00000001
 40
0.0
 40
0.0
 40
0.0
 40
0.0
 40
0.5850553834534072
 40
1.0
 40
1.0
 40
1.0
 40
1.0
 10
-44.55405843817492
 20
177.6133089563684
 30
0.0
 10
-44.0927610427837
 20
177.6773865530191
 30
0.0
 10
-43.3042931328427
 20
177.7869105373513
 30
0.0
 10
-42.58004449825128
 20
178.181224889447
 30
0.0
 10
-42.27952142628635
 20
178.3448435070761
 30
0.0
  0
SPLINE
  5
31E
330
1F
100
AcDbEntity
  8
0
  6
Continuous
 62
     7
370
    25
100
AcDbSpline
210
0.0
220
0.0
230
1.0
 70
    24
 71
     3
 72
    11
 73
     7
 74
     0
 42
0.00000001
 43
0.00000001
 40
0.0
 40
0.0
 40
0.0
 40
0.0
 40
0.2379053903768481
 40
0.481490514130317
 40
0.7366519444348043
 40
1.0
 40
1.0
 40
1.0
 40
1.0
 10
-56.31127797967059
 20
176.7900297491483
 30
0.0
 10
-55.40004503295767
 20
176.8538372790931
 30
0.0
 10
-53.55582444043436
 20
176.982975674612
 30
0.0
 10
-50.61038455596356
 20
177.1892250692449
 30
0.0
 10
-47.55360272314649
 20
177.4032709935459
 30
0.0
 10
-45.56437568034061
 20
177.5425632179534
 30
0.0
 10
-44.55405843817492
 20
177.6133089563684
 30
0.0
  0
SPLINE
  5
31F
330
1F
100
AcDbEntity
  8
0
  6
Continuous
 62
     7
370
    25
100
AcDbSpline
210
0.0
220
0.0
230
1.0
 70
     8
 71
     3
 72
     9
 73
     5
 74
     0
 42
0.00000001
 43
0.00000001
 40
0.0
 40
0.0
 40
0.0
 40
0.0
 40
0.5841917497409886
 40
1.0
 40
1.0
 40
1.0
 40
1.0
 10
-58.66556755892394
 20
177.1974386277221
 30
0.0
 10
-58.2089570105368
 20
177.0378618888461
 30
0.0
 10
-57.42734626613727
 20
176.7647037366699
 30
0.0
 10
-56.63905570047448
 20
176.7825917610361
 30
0.0
 10
-56.31127797967059
 20
176.7900297491483
 30
0.0
  0
ARC
  5
320
330
1F
100
AcDbEntity
  8
0
  6
Continuous
 62
     7
370
    25
100
AcDbCircle
 10
-51.5677672496
 20
193.4119762643
 30
0.0
 40
17.70000000000002
100
AcDbArc
 50
241.6520644894
 51
246.3589373442
  0
SPLINE
  5
321
330
1F
100
AcDbEntity
  8
0
  6
Continuous
 62
     7
370
    25
100
AcDbSpline
210
0.0
220
0.0
230
1.0
 70
     8
 71
     3
 72
     9
 73
     5
 74
     0
 42
0.00000001
 43
0.00000001
 40
0.0
 40
0.0
 40
0.0
 40
0.0
 40
0.5850553834536304
 40
1.0
 40
1.0
 40
1.0
 40
1.0
 10
-61.74296007854735
 20
179.4385926048864
 30
0.0
 10
-61.45681855433865
 20
179.0711361401035
 30
0.0
 10
-60.9677340466129
 20
178.4430648921924
 30
0.0
 10
-60.264123483326
 20
178.0130043520284
 30
0.0
 10
-59.97216406794492
 20
177.8345530460983
 30
0.0
  0
SPLINE
  5
322
330
1F
100
AcDbEntity
  8
0
  6
Continuous
 62
     7
370
    25
100
AcDbSpline
210
0.0
220
0.0
230
1.0
 70
    24
 71
     3
 72
     9
 73
     5
 74
     0
 42
0.00000001
 43
0.00000001
 40
0.0
 40
0.0
 40
0.0
 40
0.0
 40
0.2293586310767405
 40
1.0
 40
1.0
 40
1.0
 40
1.0
 10
-64.02783572846671
 20
182.8253586223784
 30
0.0
 10
-63.84861140175124
 20
182.5597026514508
 30
0.0
 10
-63.06719617497686
 20
181.4014468244071
 30
0.0
 10
-62.31931118840001
 20
180.2928913292227
 30
0.0
 10
-61.74296007854735
 20
179.4385926048864
 30
0.0
  0
LINE
  5
323
330
1F
100
AcDbEntity
  8
0
  6
Continuous
 62
     7
370
    25
100
AcDbLine
 10
-63.5910398271
 20
205.8309503173
 30
0.0
 11
-64.4279354519
 21
204.1146418016
 31
0.0
  0
SPLINE
  5
324
330
1F
100
AcDbEntity
  8
0
  6
Continuous
 62
     7
370
    25
100
AcDbSpline
210
0.0
220
0.0
230
1.0
 70
     8
 71
     3
 72
     9
 73
     5
 74
     0
 42
0.00000001
 43
0.00000001
 40
0.0
 40
0.0
 40
0.0
 40
0.0
 40
0.5841917497409113
 40
1.0
 40
1.0
 40
1.0
 40
1.0
 10
-62.06106859891808
 20
207.6661204614905
 30
0.0
 10
-62.42757138283125
 20
207.3504724963893
 30
0.0
 10
-63.0549386540667
 20
206.8101568119565
 30
0.0
 10
-63.43359245337344
 20
206.1185331443457
 30
0.0
 10
-63.59103982711714
 20
205.8309503172787
 30
0.0
  0
ARC
  5
325
330
1F
100
AcDbEntity
  8
0
  6
Continuous
 62
     7
370
    25
100
AcDbCircle
 10
-51.5677672496
 20
193.4119762643
 30
0.0
 40
17.70000000000001
100
AcDbArc
 50
121.6520644894
 51
126.3589373442
  0
SPLINE
  5
326
330
1F
100
AcDbEntity
  8
0
  6
Continuous
 62
     7
370
    25
100
AcDbSpline
210
0.0
220
0.0
230
1.0
 70
     8
 71
     3
 72
     9
 73
     5
 74
     0
 42
0.00000001
 43
0.00000001
 40
0.0
 40
0.0
 40
0.0
 40
0.0
 40
0.5850553834536183
 40
1.0
 40
1.0
 40
1.0
 40
1.0
 10
-58.58147606108955
 20
209.2106435723183
 30
0.0
 10
-59.04277345648065
 20
209.1465659756673
 30
0.0
 10
-59.8312413664211
 20
209.037041991335
 30
0.0
 10
-60.5554900010119
 20
208.6427276392396
 30
0.0
 10
-60.85601307297647
 20
208.4791090216106
 30
0.0
  0
SPLINE
  5
327
330
1F
100
AcDbEntity
  8
0
  6
Continuous
 62
     7
370
    25
100
AcDbSpline
210
0.0
220
0.0
230
1.0
 70
    24
 71
     3
 72
    11
 73
     7
 74
     0
 42
0.00000001
 43
0.00000001
 40
0.0
 40
0.0
 40
0.0
 40
0.0
 40
0.2556279644380972
 40
0.5185037642963862
 40
0.7560467972580095
 40
1.0
 40
1.0
 40
1.0
 40
1.0
 10
-46.82425651959255
 20
210.0339227795385
 30
0.0
 10
-47.80444256048674
 20
209.9652869270031
 30
0.0
 10
-49.79260591746354
 20
209.8260691853781
 30
0.0
 10
-52.82560103917982
 20
209.6136888848748
 30
0.0
 10
-55.80174499870382
 20
209.4052894898541
 30
0.0
 10
-57.64671167987589
 20
209.2760988507527
 30
0.0
 10
-58.58147606108957
 20
209.2106435723182
 30
0.0
  0
SPLINE
  5
328
330
1F
100
AcDbEntity
  8
0
  6
Continuous
 62
     7
370
    25
100
AcDbSpline
210
0.0
220
0.0
230
1.0
 70
     8
 71
     3
 72
     9
 73
     5
 74
     0
 42
0.00000001
 43
0.00000001
 40
0.0
 40
0.0
 40
0.0
 40
0.0
 40
0.5841917497409178
 40
1.0
 40
1.0
 40
1.0
 40
1.0
 10
-44.46996694033894
 20
209.6265139009647
 30
0.0
 10
-44.92657748872605
 20
209.7860906398407
 30
0.0
 10
-45.7081882331257
 20
210.0592487920169
 30
0.0
 10
-46.49647879878852
 20
210.0413607676508
 30
0.0
 10
-46.82425651959255
 20
210.0339227795385
 30
0.0
  0
ARC
  5
329
330
1F
100
AcDbEntity
  8
0
  6
Continuous
 62
     7
370
    25
100
AcDbCircle
 10
-51.5677672496
 20
193.4119762643
 30
0.0
 40
17.70000000000003
100
AcDbArc
 50
61.6520644894
 51
66.3589373442
  0
SPLINE
  5
32A
330
1F
100
AcDbEntity
  8
0
  6
Continuous
 62
     7
370
    25
100
AcDbSpline
210
0.0
220
0.0
230
1.0
 70
     8
 71
     3
 72
     9
 73
     5
 74
     0
 42
0.00000001
 43
0.00000001
 40
0.0
 40
0.0
 40
0.0
 40
0.0
 40
0.58505538345363
 40
1.0
 40
1.0
 40
1.0
 40
1.0
 10
-41.39257442071553
 20
207.3853599238004
 30
0.0
 10
-41.67871594492423
 20
207.7528163885832
 30
0.0
 10
-42.16780045264998
 20
208.3808876364942
 30
0.0
 10
-42.87141101593686
 20
208.8109481766583
 30
0.0
 10
-43.16337043131796
 20
208.9893994825884
 30
0.0
  0
SPLINE
  5
32B
330
1F
100
AcDbEntity
  8
0
  6
Continuous
 62
     7
370
    25
100
AcDbSpline
210
0.0
220
0.0
230
1.0
 70
    24
 71
     3
 72
    11
 73
     7
 74
     0
 42
0.00000001
 43
0.00000001
 40
0.0
 40
0.0
 40
0.0
 40
0.0
 40
0.2328716322111434
 40
0.4710265024313214
 40
0.731142121256028
 40
1.0
 40
1.0
 40
1.0
 40
1.0
 10
-34.80098394210682
 20
197.6149487266032
 30
0.0
 10
-35.30089325900502
 20
198.3559412993754
 30
0.0
 10
-36.31205350568492
 20
199.8547375957144
 30
0.0
 10
-37.94942034692541
 20
202.281731106839
 30
0.0
 10
-39.67594986015028
 20
204.8408863430523
 30
0.0
 10
-40.81409624643462
 20
206.5279083497576
 30
0.0
 10
-41.39257442071553
 20
207.3853599238004
 30
0.0
  0
SPLINE
  5
32C
330
1F
100
AcDbEntity
  8
0
  6
Continuous
 62
     7
370
    25
100
AcDbSpline
210
0.0
220
0.0
230
1.0
 70
     8
 71
     3
 72
     9
 73
     5
 74
     0
 42
0.00000001
 43
0.00000001
 40
0.0
 40
0.0
 40
0.0
 40
0.0
 40
0.5841917497409337
 40
1.0
 40
1.0
 40
1.0
 40
1.0
 10
-33.97666559105228
 20
195.3723697038177
 30
0.0
 10
-34.06677335552613
 20
195.8475944077949
 30
0.0
 10
-34.22101682869036
 20
196.661068244404
 30
0.0
 10
-34.63065359504652
 20
197.3348038876486
 30
0.0
 10
-34.80098394210679
 20
197.6149487266034
 30
0.0
  0
ARC
  5
32D
330
1F
100
AcDbEntity
  8
0
  6
Continuous
 62
     7
370
    25
100
AcDbCircle
 10
-51.5677672496
 20
193.4119762643
 30
0.0
 40
17.70000000000001
100
AcDbArc
 50
1.6520644894
 51
6.3589373442
  0
SPLINE
  5
32E
330
1F
100
AcDbEntity
  8
0
  6
Continuous
 62
     7
370
    25
100
AcDbSpline
210
0.0
220
0.0
230
1.0
 70
     8
 71
     3
 72
     9
 73
     5
 74
     0
 42
0.00000001
 43
0.00000001
 40
0.0
 40
0.0
 40
0.0
 40
0.0
 40
0.5850553834536127
 40
1.0
 40
1.0
 40
1.0
 40
1.0
 10
-34.37886560925743
 20
191.5866926158254
 30
0.0
 10
-34.20370973807504
 20
192.0182266772592
 30
0.0
 10
-33.90432633586027
 20
192.7558219095027
 30
0.0
 10
-33.88368826455637
 20
193.5801968017621
 30
0.0
 10
-33.87512460797287
 20
193.9222667253213
 30
0.0
  0
SPLINE
  5
32F
330
1F
100
AcDbEntity
  8
0
  6
Continuous
 62
     7
370
    25
100
AcDbSpline
210
0.0
220
0.0
230
1.0
 70
    24
 71
     3
 72
    11
 73
     7
 74
     0
 42
0.00000001
 43
0.00000001
 40
0.0
 40
0.0
 40
0.0
 40
0.0
 40
0.2328716322111489
 40
0.4710265024313289
 40
0.7311421212560318
 40
1.0
 40
1.0
 40
1.0
 40
1.0
 10
-39.54449467214572
 20
180.9930022114081
 30
0.0
 10
-39.15273093855845
 20
181.7964326658166
 30
0.0
 10
-38.36031539417078
 20
183.4215212749077
 30
0.0
 10
-37.07716077933701
 20
186.0530193102986
 30
0.0
 10
-35.724132089161
 20
188.8278153472415
 30
0.0
 10
-34.83220136775297
 20
190.6569900343418
 30
0.0
 10
-34.37886560925743
 20
191.5866926158254
 30
0.0
  0
SPLINE
  5
330
330
1F
100
AcDbEntity
  8
0
  6
Continuous
 62
     7
370
    25
100
AcDbSpline
210
0.0
220
0.0
230
1.0
 70
     8
 71
     3
 72
     9
 73
     5
 74
     0
 42
0.00000001
 43
0.00000001
 40
0.0
 40
0.0
 40
0.0
 40
0.0
 40
0.5841917497409014
 40
1.0
 40
1.0
 40
1.0
 40
1.0
 10
-41.07446590034475
 20
179.1578320671965
 30
0.0
 10
-40.70796311643151
 20
179.4734800322977
 30
0.0
 10
-40.08059584519613
 20
180.0137957167304
 30
0.0
 10
-39.70194204588937
 20
180.7054193843412
 30
0.0
 10
-39.54449467214572
 20
180.9930022114081
 30
0.0
  0
ARC
  5
331
330
1F
100
AcDbEntity
  8
0
  6
Continuous
 62
     7
370
    25
100
AcDbCircle
 10
-51.5677672496
 20
193.4119762643
 30
0.0
 40
17.70000000000009
100
AcDbArc
 50
301.6520644894
 51
306.3589373442
  0
ARC
  5
332
330
1F
100
AcDbEntity
  8
0
  6
Continuous
 62
     7
370
    25
100
AcDbCircle
 10
-51.5677672496
 20
193.4119762643
 30
0.0
 40
16.19999999999999
100
AcDbArc
 50
274.0055009168
 51
135.248782845
  0
ARC
  5
333
330
1F
100
AcDbEntity
  8
0
  6
Continuous
 62
     7
370
    25
100
AcDbCircle
 10
-51.5677672496
 20
193.4119762643
 30
0.0
 40
16.20000000000003
100
AcDbArc
 50
223.0989351841
 51
274.0055009168
  0
SPLINE
  5
334
330
1F
100
AcDbEntity
  8
0
  6
Continuous
 62
     7
370
    25
100
AcDbSpline
210
0.0
220
0.0
230
1.0
 70
     8
 71
     3
 72
    15
 73
    11
 74
     0
 42
0.00000001
 43
0.00000001
 40
0.0
 40
0.0
 40
0.0
 40
0.0
 40
0.1250000000000013
 40
0.2500000000000013
 40
0.3750000000000016
 40
0.5000000000000014
 40
0.6250000000000022
 40
0.7500000000000004
 40
0.8749999999999978
 40
1.0
 40
1.0
 40
1.0
 40
1.0
 10
122.4574446155003
 20
182.6619762643463
 30
0.0
 10
122.2154497314469
 20
182.7019846654604
 30
0.0
 10
121.7314599633399
 20
182.7820014676884
 30
0.0
 10
121.033387573213
 20
183.4212248649699
 30
0.0
 10
120.3899885806502
 20
184.4147268115319
 30
0.0
 10
119.8262369488786
 20
185.7619354814666
 30
0.0
 10
119.3628687288288
 20
187.4010014621479
 30
0.0
 10
119.0211568330639
 20
189.2716362262559
 30
0.0
 10
118.801297939321
 20
191.3012298313588
 30
0.0
 10
118.7737764097689
 20
192.7083941200172
 30
0.0
 10
118.7600156449928
 20
193.4119762643464
 30
0.0
  0
SPLINE
  5
335
330
1F
100
AcDbEntity
  8
0
  6
Continuous
 62
     7
370
    25
100
AcDbSpline
210
0.0
220
0.0
230
1.0
 70
     8
 71
     3
 72
    13
 73
     9
 74
     0
 42
0.00000001
 43
0.00000001
 40
0.0
 40
0.0
 40
0.0
 40
0.0
 40
0.0235602643990878
 40
0.184533729571058
 40
0.3926794609042634
 40
0.6006388091891953
 40
0.8003924978519102
 40
1.0
 40
1.0
 40
1.0
 40
1.0
 10
143.5748064450318
 20
180.4045056880885
 30
0.0
 10
143.4794609862736
 20
180.4259748110568
 30
0.0
 10
142.7326759415775
 20
180.594129856554
 30
0.0
 10
140.7444530774266
 20
180.9875190954988
 30
0.0
 10
137.3776085662089
 20
181.5729224852991
 30
0.0
 10
133.0016278369334
 20
182.1376544535123
 30
0.0
 10
128.0322175647347
 20
182.5656694176222
 30
0.0
 10
124.3152487320099
 20
182.6298818171067
 30
0.0
 10
122.4574446155003
 20
182.6619762643463
 30
0.0
  0
SPLINE
  5
336
330
1F
100
AcDbEntity
  8
0
  6
Continuous
 62
     7
370
    25
100
AcDbSpline
210
0.0
220
0.0
230
1.0
 70
     8
 71
     3
 72
    15
 73
    11
 74
     0
 42
0.00000001
 43
0.00000001
 40
0.0
 40
0.0
 40
0.0
 40
0.0
 40
0.1250000000000008
 40
0.2500000000000004
 40
0.3750000000000012
 40
0.5000000000000011
 40
0.6250000000000014
 40
0.7500000000000003
 40
0.8749999999999977
 40
1.0
 40
1.0
 40
1.0
 40
1.0
 10
-20.59297911476263
 20
182.6619762643439
 30
0.0
 10
-20.35098423070924
 20
182.701984665458
 30
0.0
 10
-19.8669944626024
 20
182.7820014676859
 30
0.0
 10
-19.16892207247536
 20
183.4212248649676
 30
0.0
 10
-18.5255230799127
 20
184.4147268115295
 30
0.0
 10
-17.96177144814112
 20
185.761935481464
 30
0.0
 10
-17.49840322809138
 20
187.4010014621456
 30
0.0
 10
-17.15669133232653
 20
189.2716362262532
 30
0.0
 10
-16.93683243858365
 20
191.3012298313566
 30
0.0
 10
-16.90931090903164
 20
192.7083941200147
 30
0.0
 10
-16.89555014425562
 20
193.4119762643439
 30
0.0
  0
SPLINE
  5
337
330
1F
100
AcDbEntity
  8
0
  6
Continuous
 62
     7
370
    25
100
AcDbSpline
210
0.0
220
0.0
230
1.0
 70
     8
 71
     3
 72
    12
 73
     8
 74
     0
 42
0.00000001
 43
0.00000001
 40
0.0
 40
0.0
 40
0.0
 40
0.0
 40
0.0344585658384158
 40
0.278149614298155
 40
0.5271352167117889
 40
0.7600664423012333
 40
1.0
 40
1.0
 40
1.0
 40
1.0
 10
-39.49080407331964
 20
180.8557264099975
 30
0.0
 10
-39.35031859988192
 20
180.8841360535201
 30
0.0
 10
-38.21631956943921
 20
181.1134587544487
 30
0.0
 10
-35.49349161856102
 20
181.5717732119917
 30
0.0
 10
-31.18513597416267
 20
182.1324087551115
 30
0.0
 10
-26.19656055565767
 20
182.5658757497991
 30
0.0
 10
-22.47918893549128
 20
182.6296280712779
 30
0.0
 10
-20.59297911476266
 20
182.6619762643439
 30
0.0
  0
SPLINE
  5
338
330
1F
100
AcDbEntity
  8
0
  6
Continuous
 62
     7
370
    25
100
AcDbSpline
210
0.0
220
0.0
230
1.0
 70
     8
 71
     3
 72
    15
 73
    11
 74
     0
 42
0.00000001
 43
0.00000001
 40
0.0
 40
0.0
 40
0.0
 40
0.0
 40
0.1250000000000006
 40
0.2500000000000008
 40
0.3750000000000012
 40
0.500000000000001
 40
0.6250000000000019
 40
0.7500000000000002
 40
0.8749999999999977
 40
1.0
 40
1.0
 40
1.0
 40
1.0
 10
122.4574446154999
 20
204.1619762643464
 30
0.0
 10
122.2154497314465
 20
204.1219678632323
 30
0.0
 10
121.7314599633396
 20
204.0419510610043
 30
0.0
 10
121.0333875732127
 20
203.4027276637229
 30
0.0
 10
120.3899885806498
 20
202.4092257171608
 30
0.0
 10
119.8262369488784
 20
201.0620170472262
 30
0.0
 10
119.3628687288285
 20
199.4229510665448
 30
0.0
 10
119.0211568330638
 20
197.552316302437
 30
0.0
 10
118.8012979393208
 20
195.5227226973337
 30
0.0
 10
118.7737764097689
 20
194.1155584086756
 30
0.0
 10
118.7600156449928
 20
193.4119762643464
 30
0.0
  0
SPLINE
  5
339
330
1F
100
AcDbEntity
  8
0
  6
Continuous
 62
     7
370
    25
100
AcDbSpline
210
0.0
220
0.0
230
1.0
 70
     8
 71
     3
 72
    10
 73
     6
 74
     0
 42
0.00000001
 43
0.00000001
 40
0.0
 40
0.0
 40
0.0
 40
0.0
 40
0.0912770336737117
 40
0.5389101874809065
 40
1.0
 40
1.0
 40
1.0
 40
1.0
 10
133.7371279737968
 20
204.800168997487
 30
0.0
 10
133.4359811059623
 20
204.7669436079228
 30
0.0
 10
131.6579750898578
 20
204.5707770565072
 30
0.0
 10
128.0607075502519
 20
204.2579894026014
 30
0.0
 10
124.3435472245424
 20
204.1942950458626
 30
0.0
 10
122.4574446154999
 20
204.1619762643465
 30
0.0
  0
SPLINE
  5
33A
330
1F
100
AcDbEntity
  8
0
  6
Continuous
 62
     7
370
    25
100
AcDbSpline
210
0.0
220
0.0
230
1.0
 70
     8
 71
     3
 72
    10
 73
     6
 74
     0
 42
0.00000001
 43
0.00000001
 40
0.0
 40
0.0
 40
0.0
 40
0.0
 40
0.1840120149020942
 40
0.5902523693614874
 40
1.0
 40
1.0
 40
1.0
 40
1.0
 10
140.1035021625285
 20
205.7312053995051
 30
0.0
 10
139.6708648653984
 20
205.6536903008612
 30
0.0
 10
138.2831011922432
 20
205.4050463704081
 30
0.0
 10
136.0863353222513
 20
205.0612805237582
 30
0.0
 10
134.5224377359917
 20
204.8874552179805
 30
0.0
 10
133.7371279737969
 20
204.8001689974871
 30
0.0
  0
SPLINE
  5
33B
330
1F
100
AcDbEntity
  8
0
  6
Continuous
 62
     7
370
    25
100
AcDbSpline
210
0.0
220
0.0
230
1.0
 70
     8
 71
     3
 72
     9
 73
     5
 74
     0
 42
0.00000001
 43
0.00000001
 40
0.0
 40
0.0
 40
0.0
 40
0.0
 40
0.7296320066210518
 40
0.9999999999999999
 40
0.9999999999999999
 40
0.9999999999999999
 40
0.9999999999999999
 10
142.9247874989156
 20
206.2824820092348
 30
0.0
 10
142.2878623979672
 20
206.1504043093863
 30
0.0
 10
141.4149222100798
 20
205.9693847013506
 30
0.0
 10
140.3826071215492
 20
205.7818962703707
 30
0.0
 10
140.1035021625285
 20
205.7312053995051
 30
0.0
  0
SPLINE
  5
33C
330
1F
100
AcDbEntity
  8
0
  6
Continuous
 62
     7
370
    25
100
AcDbSpline
210
0.0
220
0.0
230
1.0
 70
     8
 71
     3
 72
    10
 73
     6
 74
     0
 42
0.00000001
 43
0.00000001
 40
0.0
 40
0.0
 40
0.0
 40
0.0
 40
0.1840120149020942
 40
0.5902523693614864
 40
1.0
 40
1.0
 40
1.0
 40
1.0
 10
-38.23903666179174
 20
205.731205399502
 30
0.0
 10
-37.80639936466154
 20
205.653690300858
 30
0.0
 10
-36.41863569150636
 20
205.4050463704047
 30
0.0
 10
-34.22186982151443
 20
205.0612805237554
 30
0.0
 10
-32.65797223525488
 20
204.8874552179777
 30
0.0
 10
-31.87266247305998
 20
204.8001689974841
 30
0.0
  0
SPLINE
  5
33D
330
1F
100
AcDbEntity
  8
0
  6
Continuous
 62
     7
370
    25
100
AcDbSpline
210
0.0
220
0.0
230
1.0
 70
     8
 71
     3
 72
    10
 73
     6
 74
     0
 42
0.00000001
 43
0.00000001
 40
0.0
 40
0.0
 40
0.0
 40
0.0
 40
0.0912770336737117
 40
0.5389101874809065
 40
1.0
 40
1.0
 40
1.0
 40
1.0
 10
-31.87266247305998
 20
204.8001689974841
 30
0.0
 10
-31.57151560522539
 20
204.7669436079199
 30
0.0
 10
-29.79350958912114
 20
204.5707770565043
 30
0.0
 10
-26.19624204951515
 20
204.2579894025988
 30
0.0
 10
-22.4790817238055
 20
204.1942950458601
 30
0.0
 10
-20.59297911476299
 20
204.1619762643441
 30
0.0
  0
SPLINE
  5
33E
330
1F
100
AcDbEntity
  8
0
  6
Continuous
 62
     7
370
    25
100
AcDbSpline
210
0.0
220
0.0
230
1.0
 70
     8
 71
     3
 72
    15
 73
    11
 74
     0
 42
0.00000001
 43
0.00000001
 40
0.0
 40
0.0
 40
0.0
 40
0.0
 40
0.1250000000000001
 40
0.2499999999999998
 40
0.3750000000000007
 40
0.5000000000000007
 40
0.6250000000000017
 40
0.7500000000000002
 40
0.8749999999999977
 40
1.0
 40
1.0
 40
1.0
 40
1.0
 10
-20.59297911476299
 20
204.161976264344
 30
0.0
 10
-20.35098423070955
 20
204.1219678632299
 30
0.0
 10
-19.8669944626027
 20
204.0419510610021
 30
0.0
 10
-19.16892207247584
 20
203.4027276637201
 30
0.0
 10
-18.52552307991293
 20
202.4092257171585
 30
0.0
 10
-17.96177144814137
 20
201.0620170472238
 30
0.0
 10
-17.49840322809168
 20
199.4229510665423
 30
0.0
 10
-17.15669133232661
 20
197.5523163024344
 30
0.0
 10
-16.93683243858379
 20
195.5227226973315
 30
0.0
 10
-16.90931090903164
 20
194.1155584086731
 30
0.0
 10
-16.89555014425562
 20
193.4119762643439
 30
0.0
  0
SPLINE
  5
33F
330
1F
100
AcDbEntity
  8
0
  6
Continuous
 62
     7
370
    25
100
AcDbSpline
210
0.0
220
0.0
230
1.0
 70
     8
 71
     3
 72
     9
 73
     5
 74
     0
 42
0.00000001
 43
0.00000001
 40
0.0
 40
0.0
 40
0.0
 40
0.0
 40
0.6726449866773436
 40
0.9999999999999999
 40
0.9999999999999999
 40
0.9999999999999999
 40
0.9999999999999999
 10
-40.5841859666877
 20
206.1871229234056
 30
0.0
 10
-40.09754323123818
 20
206.0864894370127
 30
0.0
 10
-39.37406688771644
 20
205.9368808197094
 30
0.0
 10
-38.51896014194583
 20
205.7819294930915
 30
0.0
 10
-38.23903666179171
 20
205.7312053995021
 30
0.0
  0
LINE
  5
340
330
1F
100
AcDbEntity
  8
0
  6
Continuous
 62
     7
370
    25
100
AcDbLine
 10
149.2042258074
 20
211.2619762643
 30
0.0
 11
153.4322327504
 21
211.2619762643
 31
0.0
  0
LINE
  5
341
330
1F
100
AcDbEntity
  8
0
  6
Continuous
 62
     7
370
    25
100
AcDbLine
 10
-47.3397603066
 20
211.2619762643
 30
0.0
 11
-51.5677672496
 21
211.2619762643
 31
0.0
  0
LINE
  5
342
330
1F
100
AcDbEntity
  8
0
  6
Continuous
 62
     7
370
    25
100
AcDbLine
 10
153.4322327504
 20
211.2619762643
 30
0.0
 11
160.4485255178
 21
211.2619762643
 31
0.0
  0
LINE
  5
343
330
1F
100
AcDbEntity
  8
0
  6
Continuous
 62
     7
370
    25
100
AcDbLine
 10
-51.5677672496
 20
211.2619762643
 30
0.0
 11
-58.584060017
 21
211.2619762643
 31
0.0
  0
LINE
  5
344
330
1F
100
AcDbEntity
  8
0
  6
Continuous
 62
     7
370
    25
100
AcDbLine
 10
144.7907338642
 20
211.2619762643
 30
0.0
 11
149.2042258074
 21
211.2619762643
 31
0.0
  0
LINE
  5
345
330
1F
100
AcDbEntity
  8
0
  6
Continuous
 62
     7
370
    25
100
AcDbLine
 10
-42.9262683635
 20
211.2619762643
 30
0.0
 11
-47.3397603066
 21
211.2619762643
 31
0.0
  0
SPLINE
  5
346
330
1F
100
AcDbEntity
  8
0
  6
Continuous
 62
     7
370
    25
100
AcDbSpline
210
0.0
220
0.0
230
1.0
 70
     8
 71
     3
 72
     9
 73
     5
 74
     0
 42
0.00000001
 43
0.00000001
 40
0.0
 40
0.0
 40
0.0
 40
0.0
 40
0.6732537698586498
 40
1.0
 40
1.0
 40
1.0
 40
1.0
 10
142.3792067218862
 20
210.6527439427472
 30
0.0
 10
142.9025634965727
 20
210.776846391012
 30
0.0
 10
143.6799178882109
 20
210.9611787391115
 30
0.0
 10
144.5171661507529
 20
211.1878969452022
 30
0.0
 10
144.7907338642308
 20
211.2619762643468
 30
0.0
  0
LWPOLYLINE
  5
347
330
1F
100
AcDbEntity
  8
0
  6
Continuous
 62
     7
370
    25
100
AcDbPolyline
 90
        9
 70
   128
 43
0.0
 10
142.3792067219
 20
210.6527439427
 10
142.423620231
 20
209.7544817986
 10
142.3617978748
 20
208.886018253
 10
142.1957905242
 20
208.0761633774
 10
141.9311052422
 20
207.351782982
 10
141.5765225955
 20
206.7369073799
 10
141.1438053705
 20
206.2519342149
 10
140.64730836
 20
205.9129517979
 10
140.1035021625
 20
205.7312053995
  0
SPLINE
  5
348
330
1F
100
AcDbEntity
  8
0
  6
Continuous
 62
     7
370
    25
100
AcDbSpline
210
0.0
220
0.0
230
1.0
 70
     8
 71
     3
 72
     9
 73
     5
 74
     0
 42
0.00000001
 43
0.00000001
 40
0.0
 40
0.0
 40
0.0
 40
0.0
 40
0.6732537698586581
 40
0.9999999999999999
 40
0.9999999999999999
 40
0.9999999999999999
 40
0.9999999999999999
 10
-40.51474122114959
 20
210.6527439427441
 30
0.0
 10
-41.03809799583616
 20
210.7768463910089
 30
0.0
 10
-41.81545238747428
 20
210.9611787391082
 30
0.0
 10
-42.65270065001622
 20
211.1878969451989
 30
0.0
 10
-42.92626836349414
 20
211.2619762643435
 30
0.0
  0
LWPOLYLINE
  5
349
330
1F
100
AcDbEntity
  8
0
  6
Continuous
 62
     7
370
    25
100
AcDbPolyline
 90
        9
 70
   128
 43
0.0
 10
-40.5147412211
 20
210.6527439427
 10
-40.5591547302
 20
209.7544817986
 10
-40.4973323741
 20
208.886018253
 10
-40.3313250234
 20
208.0761633774
 10
-40.0666397415
 20
207.351782982
 10
-39.7120570947
 20
206.7369073799
 10
-39.2793398698
 20
206.2519342149
 10
-38.7828428593
 20
205.9129517979
 10
-38.2390366618
 20
205.7312053995
  0
SPLINE
  5
34A
330
1F
100
AcDbEntity
  8
0
  6
Continuous
 62
     7
370
    25
100
AcDbSpline
210
0.0
220
0.0
230
1.0
 70
     8
 71
     3
 72
    10
 73
     6
 74
     0
 42
0.00000001
 43
0.00000001
 40
0.0
 40
0.0
 40
0.0
 40
0.0
 40
0.0000143666717578
 40
0.1778058615897002
 40
1.0
 40
1.0
 40
1.0
 40
1.0
 10
61.53877503496588
 20
182.8054339797484
 30
0.0
 10
61.53878886410421
 20
182.8054360871722
 30
0.0
 10
61.70994206477123
 20
182.8315181407286
 30
0.0
 10
62.66946341517413
 20
182.9940562319037
 30
0.0
 10
63.61605086497399
 20
183.3249443970428
 30
0.0
 10
64.39434069912683
 20
183.5970026154608
 30
0.0
  0
SPLINE
  5
34B
330
1F
100
AcDbEntity
  8
0
  6
Continuous
 62
     7
370
    25
100
AcDbSpline
210
0.0
220
0.0
230
1.0
 70
     8
 71
     3
 72
    10
 73
     6
 74
     0
 42
0.00000001
 43
0.00000001
 40
0.0
 40
0.0
 40
0.0
 40
0.0
 40
0.8221941384101841
 40
0.9999856333282585
 40
1.0
 40
1.0
 40
1.0
 40
1.0
 10
64.3943406991265
 20
203.22694991323
 30
0.0
 10
63.61605086729202
 20
203.4990081317948
 30
0.0
 10
62.66946342031174
 20
203.8298962971128
 30
0.0
 10
61.70994206244004
 20
203.9924343878147
 30
0.0
 10
61.53878886410377
 20
204.0185164415188
 30
0.0
 10
61.5387750349656
 20
204.0185185489425
 30
0.0
  0
SPLINE
  5
34C
330
1F
100
AcDbEntity
  8
0
  6
Continuous
 62
     7
370
    25
100
AcDbSpline
210
0.0
220
0.0
230
1.0
 70
     8
 71
     3
 72
    10
 73
     6
 74
     0
 42
0.00000001
 43
0.00000001
 40
0.0
 40
0.0
 40
0.0
 40
0.0
 40
0.8221941384101933
 40
0.9999856333282585
 40
1.0
 40
1.0
 40
1.0
 40
1.0
 10
37.47012480161035
 20
203.2269499132295
 30
0.0
 10
38.24841463375703
 20
203.4990081311385
 30
0.0
 10
39.19500208111695
 20
203.8298962956587
 30
0.0
 10
40.15452343798312
 20
203.9924343884736
 30
0.0
 10
40.32567663663314
 20
204.0185164415184
 30
0.0
 10
40.32569046577125
 20
204.018518548942
 30
0.0
  0
SPLINE
  5
34D
330
1F
100
AcDbEntity
  8
0
  6
Continuous
 62
     7
370
    25
100
AcDbSpline
210
0.0
220
0.0
230
1.0
 70
     8
 71
     3
 72
    10
 73
     6
 74
     0
 42
0.00000001
 43
0.00000001
 40
0.0
 40
0.0
 40
0.0
 40
0.0
 40
0.0000143666717578
 40
0.1778058615897094
 40
1.0
 40
1.0
 40
1.0
 40
1.0
 10
40.32569046577175
 20
182.8054339797479
 30
0.0
 10
40.32567663663342
 20
182.8054360871717
 30
0.0
 10
40.15452343604872
 20
182.8315181407546
 30
0.0
 10
39.19500208538165
 20
182.9940562318447
 30
0.0
 10
38.24841463568148
 20
183.3249443970161
 30
0.0
 10
37.47012480161069
 20
183.5970026154603
 30
0.0
  0
SPLINE
  5
34E
330
1F
100
AcDbEntity
  8
0
  6
Continuous
 62
     7
370
    25
100
AcDbSpline
210
0.0
220
0.0
230
1.0
 70
     8
 71
     3
 72
    14
 73
    10
 74
     0
 42
0.00000001
 43
0.00000001
 40
0.0
 40
0.0
 40
0.0
 40
0.0
 40
0.0625227234691161
 40
0.2145654391951761
 40
0.3549174042288036
 40
0.4957363382923737
 40
0.7439305738224002
 40
0.947345168859286
 40
1.0
 40
1.0
 40
1.0
 40
1.0
 10
69.45241857583281
 20
194.2773462096158
 30
0.0
 10
69.31193399403415
 20
194.5033327215094
 30
0.0
 10
68.82981910329907
 20
195.278873076859
 30
0.0
 10
68.29813157212102
 20
196.7168212029094
 30
0.0
 10
67.85361956459599
 20
198.3814837999053
 30
0.0
 10
67.35028852560573
 20
200.2209529120278
 30
0.0
 10
66.55088884324165
 20
201.8959512706718
 30
0.0
 10
65.39301855725974
 20
202.8527698031518
 30
0.0
 10
64.56467138334534
 20
203.1631311816424
 30
0.0
 10
64.3943406991265
 20
203.22694991323
 30
0.0
  0
SPLINE
  5
34F
330
1F
100
AcDbEntity
  8
0
  6
Continuous
 62
     7
370
    25
100
AcDbSpline
210
0.0
220
0.0
230
1.0
 70
     8
 71
     3
 72
    10
 73
     6
 74
     0
 42
0.00000001
 43
0.00000001
 40
0.0
 40
0.0
 40
0.0
 40
0.0
 40
0.0208786192184286
 40
0.5936280034167074
 40
1.0
 40
1.0
 40
1.0
 40
1.0
 10
66.03690096704082
 20
193.4119762643454
 30
0.0
 10
66.05561514183653
 20
193.4214197474988
 30
0.0
 10
66.58770292519547
 20
193.689920072688
 30
0.0
 10
67.62522512056849
 20
194.0592094480118
 30
0.0
 10
68.91649378204431
 20
194.2133656285541
 30
0.0
 10
69.45241857583281
 20
194.2773462096158
 30
0.0
  0
SPLINE
  5
350
330
1F
100
AcDbEntity
  8
0
  6
Continuous
 62
     7
370
    25
100
AcDbSpline
210
0.0
220
0.0
230
1.0
 70
     8
 71
     3
 72
    10
 73
     6
 74
     0
 42
0.00000001
 43
0.00000001
 40
0.0
 40
0.0
 40
0.0
 40
0.0
 40
0.4063719965825431
 40
0.9791213808051974
 40
1.0
 40
1.0
 40
1.0
 40
1.0
 10
69.4524185758252
 20
192.546606319064
 30
0.0
 10
68.91649378204099
 20
192.610586900138
 30
0.0
 10
67.625225120542
 20
192.7647430807133
 30
0.0
 10
66.58770292515383
 20
193.1340324559226
 30
0.0
 10
66.0556151418146
 20
193.4025327811997
 30
0.0
 10
66.03690096704082
 20
193.4119762643454
 30
0.0
  0
SPLINE
  5
351
330
1F
100
AcDbEntity
  8
0
  6
Continuous
 62
     7
370
    25
100
AcDbSpline
210
0.0
220
0.0
230
1.0
 70
     8
 71
     3
 72
    14
 73
    10
 74
     0
 42
0.00000001
 43
0.00000001
 40
0.0
 40
0.0
 40
0.0
 40
0.0
 40
0.1975570819264164
 40
0.2559404439678212
 40
0.5041840487204929
 40
0.6450309935929905
 40
0.7854108765490286
 40
0.9393620813605582
 40
0.9999999999999999
 40
0.9999999999999999
 40
0.9999999999999999
 40
0.9999999999999999
 10
64.39434069912683
 20
183.5970026154608
 30
0.0
 10
64.9866244466635
 20
183.8736215828269
 30
0.0
 10
65.75394376430712
 20
184.2319887981516
 30
0.0
 10
66.73856927875386
 20
185.3374429391953
 30
0.0
 10
67.35201254258813
 20
186.6031347819274
 30
0.0
 10
67.8532973837829
 20
188.4424490676179
 30
0.0
 10
68.30005317828928
 20
190.1143224413031
 30
0.0
 10
68.83312675415267
 20
191.5527961380495
 30
0.0
 10
69.31597643405222
 20
192.327650432892
 30
0.0
 10
69.4524185758252
 20
192.546606319064
 30
0.0
  0
SPLINE
  5
352
330
1F
100
AcDbEntity
  8
0
  6
Continuous
 62
     7
370
    25
100
AcDbSpline
210
0.0
220
0.0
230
1.0
 70
     8
 71
     3
 72
    10
 73
     6
 74
     0
 42
0.00000001
 43
0.00000001
 40
0.0
 40
0.0
 40
0.0
 40
0.0
 40
0.4063719965825411
 40
0.9791213808051974
 40
1.0
 40
1.0
 40
1.0
 40
1.0
 10
32.41204692491198
 20
192.5466063190634
 30
0.0
 10
32.94797171869626
 20
192.6105869001374
 30
0.0
 10
34.23924038019513
 20
192.7647430807126
 30
0.0
 10
35.27676257558385
 20
193.134032455923
 30
0.0
 10
35.80885035892259
 20
193.4025327811991
 30
0.0
 10
35.82756453369637
 20
193.4119762643449
 30
0.0
  0
SPLINE
  5
353
330
1F
100
AcDbEntity
  8
0
  6
Continuous
 62
     7
370
    25
100
AcDbSpline
210
0.0
220
0.0
230
1.0
 70
     8
 71
     3
 72
    14
 73
    10
 74
     0
 42
0.00000001
 43
0.00000001
 40
0.0
 40
0.0
 40
0.0
 40
0.0
 40
0.1975570819264149
 40
0.2559404439678193
 40
0.5041840487204892
 40
0.6450309935929857
 40
0.7854108765490229
 40
0.9393620813605512
 40
1.0
 40
1.0
 40
1.0
 40
1.0
 10
37.47012480161069
 20
183.5970026154603
 30
0.0
 10
36.87784105407413
 20
183.8736215828264
 30
0.0
 10
36.11052173643056
 20
184.231988798151
 30
0.0
 10
35.12589622198328
 20
185.337442939195
 30
0.0
 10
34.51245295814917
 20
186.6031347819265
 30
0.0
 10
34.01116811695456
 20
188.4424490676173
 30
0.0
 10
33.56441232244803
 20
190.1143224413023
 30
0.0
 10
33.03133874658451
 20
191.552796138049
 30
0.0
 10
32.54848906668498
 20
192.3276504328915
 30
0.0
 10
32.41204692491198
 20
192.5466063190634
 30
0.0
  0
SPLINE
  5
354
330
1F
100
AcDbEntity
  8
0
  6
Continuous
 62
     7
370
    25
100
AcDbSpline
210
0.0
220
0.0
230
1.0
 70
     8
 71
     3
 72
    10
 73
     6
 74
     0
 42
0.00000001
 43
0.00000001
 40
0.0
 40
0.0
 40
0.0
 40
0.0
 40
0.0208786192184286
 40
0.5936280034167074
 40
1.0
 40
1.0
 40
1.0
 40
1.0
 10
35.82756453369637
 20
193.4119762643449
 30
0.0
 10
35.80885035890072
 20
193.4214197474984
 30
0.0
 10
35.27676257554083
 20
193.6899200726875
 30
0.0
 10
34.23924038016882
 20
194.0592094480111
 30
0.0
 10
32.94797171869298
 20
194.2133656285534
 30
0.0
 10
32.41204692490437
 20
194.2773462096151
 30
0.0
  0
SPLINE
  5
355
330
1F
100
AcDbEntity
  8
0
  6
Continuous
 62
     7
370
    25
100
AcDbSpline
210
0.0
220
0.0
230
1.0
 70
     8
 71
     3
 72
    14
 73
    10
 74
     0
 42
0.00000001
 43
0.00000001
 40
0.0
 40
0.0
 40
0.0
 40
0.0
 40
0.0625212926160809
 40
0.2145605287947187
 40
0.3523009272493094
 40
0.4957478785316796
 40
0.7439364340552138
 40
0.9473463738823684
 40
1.0
 40
1.0
 40
1.0
 40
1.0
 10
32.41204692490437
 20
194.2773462096151
 30
0.0
 10
32.55249633926918
 20
194.5033467492224
 30
0.0
 10
33.03449054242954
 20
195.2789352448701
 30
0.0
 10
33.56411253346339
 20
196.7055806266689
 30
0.0
 10
34.00317387737375
 20
198.3740497318192
 30
0.0
 10
34.51340752815044
 20
200.2123037756937
 30
0.0
 10
35.31281574859066
 20
201.8962821972179
 30
0.0
 10
36.47148284079019
 20
202.8527541910674
 30
0.0
 10
37.29980023990024
 20
203.1631285189044
 30
0.0
 10
37.47012480161041
 20
203.2269499132296
 30
0.0
  0
ARC
  5
356
330
1F
100
AcDbEntity
  8
0
  6
Continuous
 62
     7
370
    25
100
AcDbCircle
 10
132.9783307891
 20
209.4464599764
 30
0.0
 40
4.707843776969046
100
AcDbArc
 50
279.2752330304
 51
3.919444943
  0
SPLINE
  5
357
330
1F
100
AcDbEntity
  8
0
  6
Continuous
 62
     7
370
    25
100
AcDbSpline
210
0.0
220
0.0
230
1.0
 70
     8
 71
     3
 72
    10
 73
     6
 74
     0
 42
0.00000001
 43
0.00000001
 40
0.0
 40
0.0
 40
0.0
 40
0.0
 40
0.4002088599189592
 40
0.8141959364606324
 40
0.9999999999999999
 40
0.9999999999999999
 40
0.9999999999999999
 40
0.9999999999999999
 10
137.6751635713233
 20
209.7682593608301
 30
0.0
 10
138.1693937095894
 20
209.833298047313
 30
0.0
 10
139.1748691264358
 20
209.9656145438986
 30
0.0
 10
140.8732317074372
 20
210.3031370145044
 30
0.0
 10
142.0230229315782
 20
210.5700570989253
 30
0.0
 10
142.3792067218862
 20
210.6527439427471
 30
0.0
  0
SPLINE
  5
358
330
1F
100
AcDbEntity
  8
0
  6
Continuous
 62
     7
370
    25
100
AcDbSpline
210
0.0
220
0.0
230
1.0
 70
     8
 71
     3
 72
    10
 73
     6
 74
     0
 42
0.00000001
 43
0.00000001
 40
0.0
 40
0.0
 40
0.0
 40
0.0
 40
0.4002088599189572
 40
0.8141959364606284
 40
1.0
 40
1.0
 40
1.0
 40
1.0
 10
-35.81069807058665
 20
209.768259360827
 30
0.0
 10
-36.30492820885276
 20
209.8332980473099
 30
0.0
 10
-37.31040362569921
 20
209.9656145438957
 30
0.0
 10
-39.00876620670046
 20
210.3031370145011
 30
0.0
 10
-40.15855743084151
 20
210.5700570989221
 30
0.0
 10
-40.51474122114959
 20
210.6527439427441
 30
0.0
  0
ARC
  5
359
330
1F
100
AcDbEntity
  8
0
  6
Continuous
 62
     7
370
    25
100
AcDbCircle
 10
-31.1138652883
 20
209.4464599764
 30
0.0
 40
4.707843776969012
100
AcDbArc
 50
176.080555057
 51
260.7247669696
  0
SPLINE
  5
35A
330
1F
100
AcDbEntity
  8
0
  6
Continuous
 62
     7
370
    25
100
AcDbSpline
210
0.0
220
0.0
230
1.0
 70
     8
 71
     3
 72
    10
 73
     6
 74
     0
 42
0.00000001
 43
0.00000001
 40
0.0
 40
0.0
 40
0.0
 40
0.0
 40
0.3644327143101648
 40
0.7393133379813293
 40
1.0
 40
1.0
 40
1.0
 40
1.0
 10
135.9322327503684
 20
209.5407420403678
 30
0.0
 10
135.9790362305013
 20
209.5461655700719
 30
0.0
 10
136.0739849981818
 20
209.557168116473
 30
0.0
 10
136.7300685640598
 20
209.6349595833822
 30
0.0
 10
137.4002708767204
 20
209.7294874545869
 30
0.0
 10
137.6751635713233
 20
209.7682593608301
 30
0.0
  0
LINE
  5
35B
330
1F
100
AcDbEntity
  8
0
  6
Continuous
 62
     7
370
    25
100
AcDbLine
 10
160.4485255178
 20
211.2619762643
 30
0.0
 11
170.9322327504
 21
211.2619762643
 31
0.0
  0
LINE
  5
35C
330
1F
100
AcDbEntity
  8
0
  6
Continuous
 62
     7
370
    25
100
AcDbLine
 10
135.9322327504
 20
211.2619762643
 30
0.0
 11
144.7907338642
 21
211.2619762643
 31
0.0
  0
SPLINE
  5
35D
330
1F
100
AcDbEntity
  8
0
  6
Continuous
 62
     7
370
    25
100
AcDbSpline
210
0.0
220
0.0
230
1.0
 70
     8
 71
     3
 72
    10
 73
     6
 74
     0
 42
0.00000001
 43
0.00000001
 40
0.0
 40
0.0
 40
0.0
 40
0.0
 40
0.3644327143101642
 40
0.7393133379813295
 40
1.0
 40
1.0
 40
1.0
 40
1.0
 10
-34.0677672496317
 20
209.5407420403648
 30
0.0
 10
-34.11457072976465
 20
209.546165570069
 30
0.0
 10
-34.20951949744519
 20
209.5571681164701
 30
0.0
 10
-34.86560306332292
 20
209.6349595833791
 30
0.0
 10
-35.53580537598381
 20
209.7294874545836
 30
0.0
 10
-35.81069807058665
 20
209.768259360827
 30
0.0
  0
LINE
  5
35E
330
1F
100
AcDbEntity
  8
0
  6
Continuous
 62
     7
370
    25
100
AcDbLine
 10
-58.584060017
 20
211.2619762643
 30
0.0
 11
-69.0677672496
 21
211.2619762643
 31
0.0
  0
LINE
  5
35F
330
1F
100
AcDbEntity
  8
0
  6
Continuous
 62
     7
370
    25
100
AcDbLine
 10
-34.0677672496
 20
211.2619762643
 30
0.0
 11
-42.9262683635
 21
211.2619762643
 31
0.0
  0
ARC
  5
360
330
1F
100
AcDbEntity
  8
0
  6
Continuous
 62
     7
370
    25
100
AcDbCircle
 10
52.059724723
 20
193.4119762644
 30
0.0
 40
17.41420869868281
100
AcDbArc
 50
357.1516090285
 51
2.848390971
  0
ARC
  5
361
330
1F
100
AcDbEntity
  8
0
  6
Continuous
 62
     7
370
    25
100
AcDbCircle
 10
49.8047407778
 20
193.4119762644
 30
0.0
 40
17.41420869872404
100
AcDbArc
 50
177.151609029
 51
182.8483909715
  0
SPLINE
  5
362
330
1F
100
AcDbEntity
  8
0
  6
Continuous
 62
     7
370
    25
100
AcDbSpline
210
0.0
220
0.0
230
1.0
 70
    24
 71
     3
 72
     9
 73
     5
 74
     0
 42
0.00000001
 43
0.00000001
 40
0.0
 40
0.0
 40
0.0
 40
0.0
 40
0.5056315204548594
 40
1.0
 40
1.0
 40
1.0
 40
1.0
 10
108.4416092156703
 20
193.4119762643463
 30
0.0
 10
110.2215100532726
 20
193.4119762643463
 30
0.0
 10
113.7416640895576
 20
193.4119762643463
 30
0.0
 10
117.0998395490419
 20
193.4119762643463
 30
0.0
 10
118.7600156449929
 20
193.4119762643465
 30
0.0
  0
SPLINE
  5
363
330
1F
100
AcDbEntity
  8
0
  6
Continuous
 62
     7
370
    25
100
AcDbSpline
210
0.0
220
0.0
230
1.0
 70
    24
 71
     3
 72
    15
 73
    11
 74
     0
 42
0.00000001
 43
0.00000001
 40
0.0
 40
0.0
 40
0.0
 40
0.0
 40
0.1249999999999999
 40
0.2499999999999997
 40
0.3750000000000011
 40
0.500000000000001
 40
0.6250000000000017
 40
0.7500000000000003
 40
0.8749999999999978
 40
1.0
 40
1.0
 40
1.0
 40
1.0
 10
108.4416092156701
 20
204.1619762643462
 30
0.0
 10
108.4416092156701
 20
204.1219678632321
 30
0.0
 10
108.4416092156701
 20
204.0419510610041
 30
0.0
 10
108.4416092156701
 20
203.4027276637226
 30
0.0
 10
108.4416092156702
 20
202.4092257171607
 30
0.0
 10
108.4416092156701
 20
201.0620170472259
 30
0.0
 10
108.4416092156702
 20
199.4229510665445
 30
0.0
 10
108.4416092156702
 20
197.5523163024367
 30
0.0
 10
108.4416092156702
 20
195.5227226973336
 30
0.0
 10
108.4416092156703
 20
194.1155584086752
 30
0.0
 10
108.4416092156703
 20
193.4119762643462
 30
0.0
  0
SPLINE
  5
364
330
1F
100
AcDbEntity
  8
0
  6
Continuous
 62
     7
370
    25
100
AcDbSpline
210
0.0
220
0.0
230
1.0
 70
    24
 71
     3
 72
     9
 73
     5
 74
     0
 42
0.00000001
 43
0.00000001
 40
0.0
 40
0.0
 40
0.0
 40
0.0
 40
0.4943684795451426
 40
0.9999999999999999
 40
0.9999999999999999
 40
0.9999999999999999
 40
0.9999999999999999
 10
122.4574446154999
 20
204.1619762643464
 30
0.0
 10
120.2023720851664
 20
204.1619762643463
 30
0.0
 10
115.640850419367
 20
204.1619762643462
 30
0.0
 10
110.859307853413
 20
204.1619762643462
 30
0.0
 10
108.4416092156701
 20
204.1619762643462
 30
0.0
  0
SPLINE
  5
365
330
1F
100
AcDbEntity
  8
0
  6
Continuous
 62
     7
370
    25
100
AcDbSpline
210
0.0
220
0.0
230
1.0
 70
    24
 71
     3
 72
     9
 73
     5
 74
     0
 42
0.00000001
 43
0.00000001
 40
0.0
 40
0.0
 40
0.0
 40
0.0
 40
0.4943684795451426
 40
0.9999999999999999
 40
0.9999999999999999
 40
0.9999999999999999
 40
0.9999999999999999
 10
122.4574446155003
 20
182.6619762643463
 30
0.0
 10
120.2023720851668
 20
182.6619762643462
 30
0.0
 10
115.6408504193674
 20
182.6619762643462
 30
0.0
 10
110.8593078534134
 20
182.661976264346
 30
0.0
 10
108.4416092156705
 20
182.6619762643461
 30
0.0
  0
SPLINE
  5
366
330
1F
100
AcDbEntity
  8
0
  6
Continuous
 62
     7
370
    25
100
AcDbSpline
210
0.0
220
0.0
230
1.0
 70
    24
 71
     3
 72
    15
 73
    11
 74
     0
 42
0.00000001
 43
0.00000001
 40
0.0
 40
0.0
 40
0.0
 40
0.0
 40
0.1249999999999999
 40
0.2499999999999997
 40
0.3750000000000004
 40
0.5000000000000003
 40
0.6250000000000016
 40
0.7500000000000002
 40
0.8749999999999977
 40
0.9999999999999999
 40
0.9999999999999999
 40
0.9999999999999999
 40
0.9999999999999999
 10
108.4416092156705
 20
182.6619762643461
 30
0.0
 10
108.4416092156705
 20
182.7019846654601
 30
0.0
 10
108.4416092156705
 20
182.7820014676882
 30
0.0
 10
108.4416092156704
 20
183.4212248649697
 30
0.0
 10
108.4416092156706
 20
184.4147268115318
 30
0.0
 10
108.4416092156704
 20
185.7619354814663
 30
0.0
 10
108.4416092156704
 20
187.4010014621477
 30
0.0
 10
108.4416092156704
 20
189.2716362262555
 30
0.0
 10
108.4416092156703
 20
191.3012298313588
 30
0.0
 10
108.4416092156703
 20
192.7083941200169
 30
0.0
 10
108.4416092156703
 20
193.4119762643462
 30
0.0
  0
SPLINE
  5
367
330
1F
100
AcDbEntity
  8
0
  6
Continuous
 62
     7
370
    25
100
AcDbSpline
210
0.0
220
0.0
230
1.0
 70
    24
 71
     3
 72
     9
 73
     5
 74
     0
 42
0.00000001
 43
0.00000001
 40
0.0
 40
0.0
 40
0.0
 40
0.0
 40
0.4943684795451436
 40
1.0
 40
1.0
 40
1.0
 40
1.0
 10
-20.59297911476307
 20
204.161976264344
 30
0.0
 10
-18.33790658442963
 20
204.161976264344
 30
0.0
 10
-13.77638491863026
 20
204.1619762643441
 30
0.0
 10
-8.994842352676196
 20
204.1619762643442
 30
0.0
 10
-6.577143714933287
 20
204.1619762643442
 30
0.0
  0
SPLINE
  5
368
330
1F
100
AcDbEntity
  8
0
  6
Continuous
 62
     7
370
    25
100
AcDbSpline
210
0.0
220
0.0
230
1.0
 70
    24
 71
     3
 72
    15
 73
    11
 74
     0
 42
0.00000001
 43
0.00000001
 40
0.0
 40
0.0
 40
0.0
 40
0.0
 40
0.1249999999999999
 40
0.2500000000000004
 40
0.3750000000000011
 40
0.5000000000000004
 40
0.6250000000000016
 40
0.7500000000000003
 40
0.8749999999999977
 40
1.0
 40
1.0
 40
1.0
 40
1.0
 10
-6.577143714933287
 20
204.1619762643442
 30
0.0
 10
-6.577143714933259
 20
204.1219678632303
 30
0.0
 10
-6.577143714933287
 20
204.0419510610022
 30
0.0
 10
-6.577143714933315
 20
203.4027276637205
 30
0.0
 10
-6.577143714933259
 20
202.4092257171587
 30
0.0
 10
-6.577143714933259
 20
201.062017047224
 30
0.0
 10
-6.577143714933231
 20
199.4229510665425
 30
0.0
 10
-6.577143714933175
 20
197.5523163024349
 30
0.0
 10
-6.577143714933093
 20
195.5227226973316
 30
0.0
 10
-6.57714371493312
 20
194.1155584086732
 30
0.0
 10
-6.57714371493312
 20
193.4119762643441
 30
0.0
  0
SPLINE
  5
369
330
1F
100
AcDbEntity
  8
0
  6
Continuous
 62
     7
370
    25
100
AcDbSpline
210
0.0
220
0.0
230
1.0
 70
    24
 71
     3
 72
     9
 73
     5
 74
     0
 42
0.00000001
 43
0.00000001
 40
0.0
 40
0.0
 40
0.0
 40
0.0
 40
0.5056315204548582
 40
1.0
 40
1.0
 40
1.0
 40
1.0
 10
-6.57714371493312
 20
193.4119762643441
 30
0.0
 10
-8.357044552535331
 20
193.411976264344
 30
0.0
 10
-11.8771985888205
 20
193.4119762643439
 30
0.0
 10
-15.23537404830466
 20
193.411976264344
 30
0.0
 10
-16.89555014425567
 20
193.4119762643439
 30
0.0
  0
SPLINE
  5
36A
330
1F
100
AcDbEntity
  8
0
  6
Continuous
 62
     7
370
    25
100
AcDbSpline
210
0.0
220
0.0
230
1.0
 70
    24
 71
     3
 72
    15
 73
    11
 74
     0
 42
0.00000001
 43
0.00000001
 40
0.0
 40
0.0
 40
0.0
 40
0.0
 40
0.1249999999999999
 40
0.2499999999999997
 40
0.3750000000000011
 40
0.5000000000000004
 40
0.6250000000000016
 40
0.7500000000000003
 40
0.8749999999999977
 40
1.0
 40
1.0
 40
1.0
 40
1.0
 10
-6.577143714932926
 20
182.6619762643441
 30
0.0
 10
-6.577143714932953
 20
182.7019846654581
 30
0.0
 10
-6.577143714932953
 20
182.7820014676861
 30
0.0
 10
-6.577143714932953
 20
183.4212248649678
 30
0.0
 10
-6.577143714932871
 20
184.4147268115298
 30
0.0
 10
-6.577143714932982
 20
185.7619354814643
 30
0.0
 10
-6.577143714933009
 20
187.4010014621458
 30
0.0
 10
-6.577143714933037
 20
189.2716362262536
 30
0.0
 10
-6.577143714933009
 20
191.3012298313568
 30
0.0
 10
-6.577143714933093
 20
192.708394120015
 30
0.0
 10
-6.57714371493312
 20
193.4119762643441
 30
0.0
  0
SPLINE
  5
36B
330
1F
100
AcDbEntity
  8
0
  6
Continuous
 62
     7
370
    25
100
AcDbSpline
210
0.0
220
0.0
230
1.0
 70
    24
 71
     3
 72
     9
 73
     5
 74
     0
 42
0.00000001
 43
0.00000001
 40
0.0
 40
0.0
 40
0.0
 40
0.0
 40
0.4943684795451436
 40
1.0
 40
1.0
 40
1.0
 40
1.0
 10
-20.59297911476271
 20
182.6619762643439
 30
0.0
 10
-18.33790658442927
 20
182.6619762643438
 30
0.0
 10
-13.7763849186299
 20
182.6619762643441
 30
0.0
 10
-8.994842352675835
 20
182.6619762643441
 30
0.0
 10
-6.577143714932926
 20
182.6619762643441
 30
0.0
  0
ARC
  5
36C
330
1F
100
AcDbEntity
  8
0
  6
Continuous
 62
     7
370
    25
100
AcDbCircle
 10
64.313955531
 20
179.9020933609
 30
0.0
 40
3.695783567042275
100
AcDbArc
 50
71.647830712
 51
88.7536894373
  0
SPLINE
  5
36D
330
1F
100
AcDbEntity
  8
0
  6
Continuous
 62
     7
370
    25
100
AcDbSpline
210
0.0
220
0.0
230
1.0
 70
     8
 71
     3
 72
    12
 73
     8
 74
     0
 42
0.00000001
 43
0.00000001
 40
0.0
 40
0.0
 40
0.0
 40
0.0
 40
0.0083795365781601
 40
0.0958567924053477
 40
0.1830705552997318
 40
0.3564922358642379
 40
0.9999999999999999
 40
0.9999999999999999
 40
0.9999999999999999
 40
0.9999999999999999
 10
71.78714792185784
 20
193.4119762643455
 30
0.0
 10
71.78113371956948
 20
193.4082920847118
 30
0.0
 10
71.71233491012937
 20
193.3661473146477
 30
0.0
 10
71.57681019769821
 20
193.2924374431012
 30
0.0
 10
71.3125946184516
 20
193.1660270580482
 30
0.0
 10
70.60953426301344
 20
192.8722870689031
 30
0.0
 10
69.96227475054049
 20
192.690109983503
 30
0.0
 10
69.4524185758252
 20
192.546606319064
 30
0.0
  0
SPLINE
  5
36E
330
1F
100
AcDbEntity
  8
0
  6
Continuous
 62
     7
370
    25
100
AcDbSpline
210
0.0
220
0.0
230
1.0
 70
     8
 71
     3
 72
    14
 73
    10
 74
     0
 42
0.00000001
 43
0.00000001
 40
0.0
 40
0.0
 40
0.0
 40
0.0
 40
0.0036519633757383
 40
0.1287488180035151
 40
0.2542734475680392
 40
0.5068715809684015
 40
0.7404998306596399
 40
0.8703390027579804
 40
0.9999999999999999
 40
0.9999999999999999
 40
0.9999999999999999
 40
0.9999999999999999
 10
71.78714792185784
 20
193.4119762643455
 30
0.0
 10
71.78073803220816
 20
193.3953997108453
 30
0.0
 10
71.5547593924936
 20
192.8109985408086
 30
0.0
 10
71.29200628485641
 20
191.5927672253318
 30
0.0
 10
70.83660119464061
 20
189.2540343023198
 30
0.0
 10
69.83905824819827
 20
186.7357437484349
 30
0.0
 10
68.42273008488262
 20
184.8921862028519
 30
0.0
 10
66.94329909034715
 20
183.8878247454481
 30
0.0
 10
65.96594142712928
 20
183.5691395558416
 30
0.0
 10
65.47759812624778
 20
183.4099063669166
 30
0.0
  0
SPLINE
  5
36F
330
1F
100
AcDbEntity
  8
0
  6
Continuous
 62
     7
370
    25
100
AcDbSpline
210
0.0
220
0.0
230
1.0
 70
     8
 71
     3
 72
    12
 73
     8
 74
     0
 42
0.00000001
 43
0.00000001
 40
0.0
 40
0.0
 40
0.0
 40
0.0
 40
0.0083795365781602
 40
0.095856792405349
 40
0.1830705552997342
 40
0.3564922358642426
 40
1.0
 40
1.0
 40
1.0
 40
1.0
 10
30.07731757887935
 20
193.4119762643448
 30
0.0
 10
30.0833317811677
 20
193.4082920847111
 30
0.0
 10
30.15213059060764
 20
193.3661473146466
 30
0.0
 10
30.28765530303898
 20
193.2924374431008
 30
0.0
 10
30.55187088228564
 20
193.1660270580476
 30
0.0
 10
31.25493123772363
 20
192.8722870689019
 30
0.0
 10
31.90219075019671
 20
192.6901099835022
 30
0.0
 10
32.41204692491198
 20
192.5466063190634
 30
0.0
  0
ARC
  5
370
330
1F
100
AcDbEntity
  8
0
  6
Continuous
 62
     7
370
    25
100
AcDbCircle
 10
37.5505099697
 20
179.9020933609
 30
0.0
 40
3.695783567039394
100
AcDbArc
 50
91.2463105627
 51
108.352169288
  0
SPLINE
  5
371
330
1F
100
AcDbEntity
  8
0
  6
Continuous
 62
     7
370
    25
100
AcDbSpline
210
0.0
220
0.0
230
1.0
 70
     8
 71
     3
 72
    14
 73
    10
 74
     0
 42
0.00000001
 43
0.00000001
 40
0.0
 40
0.0
 40
0.0
 40
0.0
 40
0.0036519633757383
 40
0.1287488180035151
 40
0.2542734475680392
 40
0.5068715809684015
 40
0.7404998306596399
 40
0.8703390027579804
 40
0.9999999999999999
 40
0.9999999999999999
 40
0.9999999999999999
 40
0.9999999999999999
 10
30.07731757887935
 20
193.4119762643448
 30
0.0
 10
30.08372746852908
 20
193.3953997108446
 30
0.0
 10
30.30970610824332
 20
192.810998540808
 30
0.0
 10
30.57245921588117
 20
191.5927672253311
 30
0.0
 10
31.02786430609669
 20
189.2540343023191
 30
0.0
 10
32.02540725253903
 20
186.7357437484343
 30
0.0
 10
33.44173541585507
 20
184.8921862028512
 30
0.0
 10
34.9211664103902
 20
183.8878247454475
 30
0.0
 10
35.89852407360824
 20
183.5691395558412
 30
0.0
 10
36.38686737448973
 20
183.4099063669161
 30
0.0
  0
ARC
  5
372
330
1F
100
AcDbEntity
  8
0
  6
Continuous
 62
     7
370
    25
100
AcDbCircle
 10
64.313955531
 20
206.9218591678
 30
0.0
 40
3.69578356703937
100
AcDbArc
 50
271.2463105627
 51
288.352169288
  0
SPLINE
  5
373
330
1F
100
AcDbEntity
  8
0
  6
Continuous
 62
     7
370
    25
100
AcDbSpline
210
0.0
220
0.0
230
1.0
 70
     8
 71
     3
 72
    13
 73
     9
 74
     0
 42
0.00000001
 43
0.00000001
 40
0.0
 40
0.0
 40
0.0
 40
0.0
 40
0.1296625909659293
 40
0.2595033589782112
 40
0.4931344803034457
 40
0.7457357185055095
 40
0.8731652299838693
 40
1.0
 40
1.0
 40
1.0
 40
1.0
 10
65.47759812624746
 20
203.4140461617742
 30
0.0
 10
65.96588934833117
 20
203.2547962588754
 30
0.0
 10
66.94314278238907
 20
202.9360776183537
 30
0.0
 10
68.42356492731102
 20
201.9320342570328
 30
0.0
 10
69.83281335640937
 20
200.0862045681403
 30
0.0
 10
70.85935407250396
 20
197.5683893339716
 30
0.0
 10
71.26232653656758
 20
195.19409564295
 30
0.0
 10
71.6124804713906
 20
194.0050890013901
 30
0.0
 10
71.78714792185784
 20
193.4119762643455
 30
0.0
  0
SPLINE
  5
374
330
1F
100
AcDbEntity
  8
0
  6
Continuous
 62
     7
370
    25
100
AcDbSpline
210
0.0
220
0.0
230
1.0
 70
     8
 71
     3
 72
    12
 73
     8
 74
     0
 42
0.00000001
 43
0.00000001
 40
0.0
 40
0.0
 40
0.0
 40
0.0
 40
0.6435077641343233
 40
0.816929444699491
 40
0.9041432075942079
 40
0.9916204634217516
 40
1.0
 40
1.0
 40
1.0
 40
1.0
 10
69.45241857583281
 20
194.2773462096158
 30
0.0
 10
69.96227475054658
 20
194.1338425451827
 30
0.0
 10
70.60953426301877
 20
193.95166545979
 30
0.0
 10
71.31259461845016
 20
193.6579254706409
 30
0.0
 10
71.57681019770048
 20
193.5315150855933
 30
0.0
 10
71.71233491012343
 20
193.4578052140343
 30
0.0
 10
71.78113371956898
 20
193.4156604439784
 30
0.0
 10
71.78714792185784
 20
193.4119762643455
 30
0.0
  0
SPLINE
  5
375
330
1F
100
AcDbEntity
  8
0
  6
Continuous
 62
     7
370
    25
100
AcDbSpline
210
0.0
220
0.0
230
1.0
 70
     8
 71
     3
 72
    12
 73
     8
 74
     0
 42
0.00000001
 43
0.00000001
 40
0.0
 40
0.0
 40
0.0
 40
0.0
 40
0.6435077641343233
 40
0.816929444699491
 40
0.9041432075942079
 40
0.9916204634217516
 40
1.0
 40
1.0
 40
1.0
 40
1.0
 10
32.41204692490437
 20
194.2773462096151
 30
0.0
 10
31.90219075019055
 20
194.1338425451821
 30
0.0
 10
31.25493123771864
 20
193.9516654597894
 30
0.0
 10
30.55187088228714
 20
193.6579254706402
 30
0.0
 10
30.28765530303648
 20
193.5315150855926
 30
0.0
 10
30.15213059061398
 20
193.4578052140337
 30
0.0
 10
30.08333178116821
 20
193.4156604439777
 30
0.0
 10
30.07731757887935
 20
193.4119762643448
 30
0.0
  0
SPLINE
  5
376
330
1F
100
AcDbEntity
  8
0
  6
Continuous
 62
     7
370
    25
100
AcDbSpline
210
0.0
220
0.0
230
1.0
 70
     8
 71
     3
 72
    13
 73
     9
 74
     0
 42
0.00000001
 43
0.00000001
 40
0.0
 40
0.0
 40
0.0
 40
0.0
 40
0.1296625909659293
 40
0.2595033589782112
 40
0.4931344803034457
 40
0.7457357185055095
 40
0.8731652299838693
 40
1.0
 40
1.0
 40
1.0
 40
1.0
 10
36.3868673744894
 20
203.4140461617737
 30
0.0
 10
35.89857615240569
 20
203.254796258875
 30
0.0
 10
34.92132271834772
 20
202.9360776183532
 30
0.0
 10
33.44090057342594
 20
201.9320342570321
 30
0.0
 10
32.03165214432737
 20
200.0862045681396
 30
0.0
 10
31.00511142823317
 20
197.5683893339709
 30
0.0
 10
30.60213896416955
 20
195.1940956429493
 30
0.0
 10
30.25198502934654
 20
194.0050890013895
 30
0.0
 10
30.07731757887935
 20
193.4119762643448
 30
0.0
  0
ARC
  5
377
330
1F
100
AcDbEntity
  8
0
  6
Continuous
 62
     7
370
    25
100
AcDbCircle
 10
37.5505099697
 20
206.9218591678
 30
0.0
 40
3.695783567042447
100
AcDbArc
 50
251.647830712
 51
268.7536894373
  0
LINE
  5
378
330
1F
100
AcDbEntity
  8
0
  6
Continuous
 62
     7
370
    25
100
AcDbLine
 10
108.4416092157
 20
182.6619762643
 30
0.0
 11
60.6832873127
 21
182.6619762643
 31
0.0
  0
LINE
  5
379
330
1F
100
AcDbEntity
  8
0
  6
Continuous
 62
     7
370
    25
100
AcDbLine
 10
108.4416092157
 20
204.1619762643
 30
0.0
 11
61.2301153746
 21
204.1619762643
 31
0.0
  0
LINE
  5
37A
330
1F
100
AcDbEntity
  8
0
  6
Continuous
 62
     7
370
    25
100
AcDbLine
 10
-6.5771437149
 20
182.6619762643
 30
0.0
 11
40.6343501261
 21
182.6619762643
 31
0.0
  0
LINE
  5
37B
330
1F
100
AcDbEntity
  8
0
  6
Continuous
 62
     7
370
    25
100
AcDbLine
 10
-6.5771437149
 20
204.1619762643
 30
0.0
 11
41.1811781881
 21
204.1619762643
 31
0.0
  0
ARC
  5
37C
330
1F
100
AcDbEntity
  8
0
  6
Continuous
 62
     7
370
    25
100
AcDbCircle
 10
130.9322327504
 20
209.5407420404
 30
0.0
 40
5.000000000000053
100
AcDbArc
 50
275.1180625961
 51
0.0
  0
ARC
  5
37D
330
1F
100
AcDbEntity
  8
0
  6
Continuous
 62
     7
370
    25
100
AcDbCircle
 10
-29.0677672496
 20
209.5407420404
 30
0.0
 40
5.000000000000011
100
AcDbArc
 50
180.0
 51
264.8819374039
  0
ARC
  5
37E
330
1F
100
AcDbEntity
  8
0
  6
Continuous
 62
     7
370
    25
100
AcDbCircle
 10
140.5333439529
 20
175.9264489383
 30
0.0
 40
5.000000000000058
100
AcDbArc
 50
55.0204557102
 51
79.031305318
  0
ARC
  5
37F
330
1F
100
AcDbEntity
  8
0
  6
Continuous
 62
     8
370
    25
100
AcDbCircle
 10
50.979414944
 20
-19.3710333197
 30
0.0
 40
7.852911808525825
100
AcDbArc
 50
269.6557510264
 51
359.7196557283
  0
ARC
  5
380
330
1F
100
AcDbEntity
  8
0
  6
Continuous
 62
     8
370
    25
100
AcDbCircle
 10
50.8850505567
 20
-19.3710333197
 30
0.0
 40
7.85291180852592
100
AcDbArc
 50
180.2803442717
 51
270.3442489736
  0
ARC
  5
381
330
1F
100
AcDbEntity
  8
0
  6
Continuous
 62
     8
370
    25
100
AcDbCircle
 10
51.0278069946
 20
-19.8551504504
 30
0.0
 40
9.721901268305016
100
AcDbArc
 50
269.4367265329
 51
36.6048083592
  0
ARC
  5
382
330
1F
100
AcDbEntity
  8
0
  6
Continuous
 62
     8
370
    25
100
AcDbCircle
 10
50.8366585061
 20
-19.8551504504
 30
0.0
 40
9.721901268305047
100
AcDbArc
 50
143.3951916408
 51
270.5632734671
  0
LINE
  5
383
330
1F
100
AcDbEntity
  8
0
  6
Continuous
 62
     8
370
    25
100
AcDbLine
 10
61.2386181698
 20
-22.1503075938
 30
0.0
 11
61.4943111203
 21
-22.2263833127
 31
0.0
  0
ARC
  5
384
330
1F
100
AcDbEntity
  8
0
  6
Continuous
 62
     8
370
    25
100
AcDbCircle
 10
50.9322327504
 20
193.4119762643
 30
0.0
 40
11.05993649053894
100
AcDbArc
 50
182.3675813795
 51
224.4149728023
  0
ARC
  5
385
330
1F
100
AcDbEntity
  8
0
  6
Continuous
 62
     8
370
    25
100
AcDbCircle
 10
50.9322327504
 20
193.4119762643
 30
0.0
 40
11.05993649053894
100
AcDbArc
 50
315.5850271977
 51
182.3675813795
  0
ARC
  5
386
330
1F
100
AcDbEntity
  8
0
  6
Continuous
 62
     8
370
    25
100
AcDbCircle
 10
50.9322327504
 20
193.4119762643
 30
0.0
 40
11.30993649053893
100
AcDbArc
 50
314.3068486059
 51
182.3675813795
  0
ARC
  5
387
330
1F
100
AcDbEntity
  8
0
  6
Continuous
 62
     8
370
    25
100
AcDbCircle
 10
50.9322327504
 20
193.4119762643
 30
0.0
 40
11.3099364905389
100
AcDbArc
 50
182.3675813795
 51
225.6931513941
  0
SPLINE
  5
388
330
1F
100
AcDbEntity
  8
0
  6
Continuous
 62
     8
370
    25
100
AcDbSpline
210
0.0
220
0.0
230
1.0
 70
     8
 71
     3
 72
     9
 73
     5
 74
     0
 42
0.00000001
 43
0.00000001
 40
0.0
 40
0.0
 40
0.0
 40
0.0
 40
0.5050734883510883
 40
1.0
 40
1.0
 40
1.0
 40
1.0
 10
41.35866567361521
 20
182.5649769968813
 30
0.0
 10
41.6336364835738
 20
182.376178298836
 30
0.0
 10
42.17805391252325
 20
182.0023738873992
 30
0.0
 10
42.74943908175324
 20
181.6704369284017
 30
0.0
 10
43.03223275036807
 20
181.5061525271976
 30
0.0
  0
SPLINE
  5
389
330
1F
100
AcDbEntity
  8
0
  6
Continuous
 62
     8
370
    25
100
AcDbSpline
210
0.0
220
0.0
230
1.0
 70
     8
 71
     3
 72
     9
 73
     5
 74
     0
 42
0.00000001
 43
0.00000001
 40
0.0
 40
0.0
 40
0.0
 40
0.0
 40
0.1103590486144216
 40
1.0
 40
1.0
 40
1.0
 40
1.0
 10
58.83223275036806
 20
181.5428687485661
 30
0.0
 10
58.93015964192996
 20
181.6041543969512
 30
0.0
 10
59.81750773700181
 20
182.1594840156335
 30
0.0
 10
60.6383186587858
 20
182.8118904906919
 30
0.0
 10
61.36854566814939
 20
183.392298007853
 30
0.0
  0
ARC
  5
38A
330
1F
100
AcDbEntity
  8
0
  6
Continuous
 62
     8
370
    25
100
AcDbCircle
 10
50.9322327504
 20
193.4119762643
 30
0.0
 40
9.374999999999925
100
AcDbArc
 50
119.4063269879
 51
212.5772063232
  0
ARC
  5
38B
330
1F
100
AcDbEntity
  8
0
  6
Continuous
 62
     8
370
    25
100
AcDbCircle
 10
50.9322327504
 20
193.4119762643
 30
0.0
 40
9.375000000000014
100
AcDbArc
 50
327.4227936768
 51
119.4063269879
  0
LINE
  5
38C
330
1F
100
AcDbEntity
  8
0
  6
Continuous
 62
     8
370
    25
100
AcDbLine
 10
-25.7677672496
 20
250.8619762643
 30
0.0
 11
-77.3677672496
 21
250.8619762643
 31
0.0
  0
LINE
  5
38D
330
1F
100
AcDbEntity
  8
0
  6
Continuous
 62
     8
370
    25
100
AcDbLine
 10
-25.7781114746
 20
248.3619762643
 30
0.0
 11
-25.7677672496
 21
248.3619762643
 31
0.0
  0
LINE
  5
38E
330
1F
100
AcDbEntity
  8
0
  6
Continuous
 62
     8
370
    25
100
AcDbLine
 10
-77.3677672496
 20
248.3619762643
 30
0.0
 11
-25.7781114746
 21
248.3619762643
 31
0.0
  0
LINE
  5
38F
330
1F
100
AcDbEntity
  8
0
  6
Continuous
 62
     8
370
    25
100
AcDbLine
 10
-61.3375980044
 20
232.9102219767
 30
0.0
 11
-61.510138939
 21
232.8915280478
 31
0.0
  0
SPLINE
  5
390
330
1F
100
AcDbEntity
  8
0
  6
Continuous
 62
     8
370
    25
100
AcDbSpline
210
0.0
220
0.0
230
1.0
 70
     8
 71
     3
 72
    10
 73
     6
 74
     0
 42
0.00000001
 43
0.00000001
 40
0.0
 40
0.0
 40
0.0
 40
0.0
 40
0.2203464856976093
 40
0.6217776090421351
 40
1.0
 40
1.0
 40
1.0
 40
1.0
 10
-33.77729068837623
 20
232.9102219767446
 30
0.0
 10
-33.74827936175509
 20
232.9156162790534
 30
0.0
 10
-33.66641468737861
 20
232.9308380166795
 30
0.0
 10
-33.60676100335683
 20
232.9408929501886
 30
0.0
 10
-33.64979937502277
 20
232.9312871552686
 30
0.0
 10
-33.67067797755047
 20
232.9266272305006
 30
0.0
  0
LINE
  5
391
330
1F
100
AcDbEntity
  8
0
  6
Continuous
 62
     8
370
    25
100
AcDbLine
 10
-65.3649303663
 20
232.0771029099
 30
0.0
 11
-37.7706041329
 21
232.0771029099
 31
0.0
  0
LINE
  5
392
330
1F
100
AcDbEntity
  8
0
  6
Continuous
 62
     8
370
    25
100
AcDbLine
 10
-38.5677672496
 20
231.0978903698
 30
0.0
 11
-64.5677672496
 21
231.0978903698
 31
0.0
  0
LINE
  5
393
330
1F
100
AcDbEntity
  8
0
  6
Continuous
 62
     8
370
    25
100
AcDbLine
 10
-32.8313226546
 20
246.3619762643
 30
0.0
 11
-33.1282806766
 21
246.3619762643
 31
0.0
  0
SPLINE
  5
394
330
1F
100
AcDbEntity
  8
0
  6
Continuous
 62
     8
370
    25
100
AcDbSpline
210
0.0
220
0.0
230
1.0
 70
     8
 71
     3
 72
    10
 73
     6
 74
     0
 42
0.00000001
 43
0.00000001
 40
0.0
 40
0.0
 40
0.0
 40
0.0
 40
0.0595198163307544
 40
0.6668412068398877
 40
1.0
 40
1.0
 40
1.0
 40
1.0
 10
-32.84107828517801
 20
233.9146869624851
 30
0.0
 10
-32.83790272066689
 20
233.9150574651527
 30
0.0
 10
-32.80232469973984
 20
233.9192084599188
 30
0.0
 10
-32.91200901864869
 20
233.9095413970533
 30
0.0
 10
-33.07170828373049
 20
233.8946940794844
 30
0.0
 10
-33.12828067658591
 20
233.8894345168814
 30
0.0
  0
SPLINE
  5
395
330
1F
100
AcDbEntity
  8
0
  6
Continuous
 62
     8
370
    25
100
AcDbSpline
210
0.0
220
0.0
230
1.0
 70
     8
 71
     3
 72
     9
 73
     5
 74
     0
 42
0.00000001
 43
0.00000001
 40
0.0
 40
0.0
 40
0.0
 40
0.0
 40
0.3980127522004955
 40
1.0
 40
1.0
 40
1.0
 40
1.0
 10
-70.0638830431334
 20
233.8894345168818
 30
0.0
 10
-70.12113577458429
 20
233.8953882125688
 30
0.0
 10
-70.26498224968927
 20
233.9103467676759
 30
0.0
 10
-70.28338018724453
 20
233.9130559724077
 30
0.0
 10
-70.29445551103863
 20
233.9146868791079
 30
0.0
  0
LINE
  5
396
330
1F
100
AcDbEntity
  8
0
  6
Continuous
 62
     8
370
    25
100
AcDbLine
 10
-70.0638830431
 20
246.3619762643
 30
0.0
 11
-70.304212072
 21
246.3619762643
 31
0.0
  0
LINE
  5
397
330
1F
100
AcDbEntity
  8
0
  6
Continuous
 62
     8
370
    25
100
AcDbLine
 10
179.2322176025
 20
250.8619762643
 30
0.0
 11
127.6322327504
 21
250.8619762643
 31
0.0
  0
LINE
  5
398
330
1F
100
AcDbEntity
  8
0
  6
Continuous
 62
     8
370
    25
100
AcDbLine
 10
127.6322478982
 20
248.3619762643
 30
0.0
 11
179.2322327504
 21
248.3619762643
 31
0.0
  0
SPLINE
  5
399
330
1F
100
AcDbEntity
  8
0
  6
Continuous
 62
     8
370
    25
100
AcDbSpline
210
0.0
220
0.0
230
1.0
 70
     8
 71
     3
 72
     9
 73
     5
 74
     0
 42
0.00000001
 43
0.00000001
 40
0.0
 40
0.0
 40
0.0
 40
0.0
 40
0.8503475205276124
 40
1.0
 40
1.0
 40
1.0
 40
1.0
 10
171.3543178564435
 20
232.9318582383281
 30
0.0
 10
171.3687834872713
 20
232.9346785625068
 30
0.0
 10
171.3857949213951
 20
232.9379952349386
 30
0.0
 10
171.3758187295616
 20
232.9360322023096
 30
0.0
 10
171.3743257677179
 20
232.9357384296092
 30
0.0
  0
LINE
  5
39A
330
1F
100
AcDbEntity
  8
0
  6
Continuous
 62
     8
370
    25
100
AcDbLine
 10
139.6350696337
 20
232.0771029099
 30
0.0
 11
167.2293877664
 21
232.0771029099
 31
0.0
  0
LINE
  5
39B
330
1F
100
AcDbEntity
  8
0
  6
Continuous
 62
     8
370
    25
100
AcDbLine
 10
166.4322251177
 20
231.0978903698
 30
0.0
 11
140.4322327504
 21
231.0978903698
 31
0.0
  0
LINE
  5
39C
330
1F
100
AcDbEntity
  8
0
  6
Continuous
 62
     8
370
    25
100
AcDbLine
 10
172.1753803291
 20
246.3619762643
 30
0.0
 11
171.9063468893
 21
246.3619762643
 31
0.0
  0
SPLINE
  5
39D
330
1F
100
AcDbEntity
  8
0
  6
Continuous
 62
     8
370
    25
100
AcDbSpline
210
0.0
220
0.0
230
1.0
 70
     8
 71
     3
 72
    10
 73
     6
 74
     0
 42
0.00000001
 43
0.00000001
 40
0.0
 40
0.0
 40
0.0
 40
0.0
 40
0.0110620927799945
 40
0.6496753835087538
 40
0.9999999999999999
 40
0.9999999999999999
 40
0.9999999999999999
 40
0.9999999999999999
 10
172.173503915681
 20
233.9155325088707
 30
0.0
 10
172.1741279135393
 20
233.9155939827149
 30
0.0
 10
172.210775232994
 20
233.9192043342206
 30
0.0
 10
172.1103151492608
 20
233.9094388010501
 30
0.0
 10
171.9597009563448
 20
233.8946672424017
 30
0.0
 10
171.906346889334
 20
233.889434516888
 30
0.0
  0
SPLINE
  5
39E
330
1F
100
AcDbEntity
  8
0
  6
Continuous
 62
     8
370
    25
100
AcDbSpline
210
0.0
220
0.0
230
1.0
 70
     8
 71
     3
 72
     9
 73
     5
 74
     0
 42
0.00000001
 43
0.00000001
 40
0.0
 40
0.0
 40
0.0
 40
0.0
 40
0.3774889695044417
 40
1.0
 40
1.0
 40
1.0
 40
1.0
 10
134.9559513557151
 20
233.8894345168854
 30
0.0
 10
134.8958188213019
 20
233.8953548587052
 30
0.0
 10
134.7365226848023
 20
233.9110383416624
 30
0.0
 10
134.7084597243664
 20
233.9138064865582
 30
0.0
 10
134.6909902219468
 20
233.9155296872899
 30
0.0
  0
LINE
  5
39F
330
1F
100
AcDbEntity
  8
0
  6
Continuous
 62
     8
370
    25
100
AcDbLine
 10
134.9559513557
 20
246.3619762643
 30
0.0
 11
134.6890847742
 21
246.3619762643
 31
0.0
  0
SPLINE
  5
3A0
330
1F
100
AcDbEntity
  8
0
  6
Continuous
 62
     8
370
    25
100
AcDbSpline
210
0.0
220
0.0
230
1.0
 70
     8
 71
     3
 72
    13
 73
     9
 74
     0
 42
0.00000001
 43
0.00000001
 40
0.0
 40
0.0
 40
0.0
 40
0.0
 40
0.1896269386792339
 40
0.379291109764179
 40
0.5788446253056952
 40
0.7786725249372743
 40
0.9522882487192532
 40
1.0
 40
1.0
 40
1.0
 40
1.0
 10
118.7600156449928
 20
193.4119762643464
 30
0.0
 10
120.2650526915307
 20
193.3735651302307
 30
0.0
 10
123.2754222919344
 20
193.2967353201444
 30
0.0
 10
127.380720760289
 20
192.6643059412415
 30
0.0
 10
130.993591050777
 20
191.5972851797046
 30
0.0
 10
133.9563903298985
 20
190.0463599869404
 30
0.0
 10
135.8148869360637
 20
188.5806213341398
 30
0.0
 10
136.7842497228906
 20
187.6463771734904
 30
0.0
 10
136.993216079972
 20
187.4449813684022
 30
0.0
  0
SPLINE
  5
3A1
330
1F
100
AcDbEntity
  8
0
  6
Continuous
 62
     8
370
    25
100
AcDbSpline
210
0.0
220
0.0
230
1.0
 70
     8
 71
     3
 72
    14
 73
    10
 74
     0
 42
0.00000001
 43
0.00000001
 40
0.0
 40
0.0
 40
0.0
 40
0.0
 40
0.1586892998889442
 40
0.3226994796250599
 40
0.490175693141466
 40
0.6625115993806052
 40
0.8097228148047182
 40
0.9580334483029658
 40
1.0
 40
1.0
 40
1.0
 40
1.0
 10
-16.89555014425562
 20
193.4119762643439
 30
0.0
 10
-18.37779328513856
 20
193.3751263696225
 30
0.0
 10
-21.39197943742152
 20
193.3001909967954
 30
0.0
 10
-25.47327688825482
 20
192.6722039739429
 30
0.0
 10
-29.12856952900322
 20
191.6047067290896
 30
0.0
 10
-32.06681923551119
 20
190.0680197559074
 30
0.0
 10
-34.5271425085818
 20
188.1083039794265
 30
0.0
 10
-36.18097548958563
 20
186.4276281248216
 30
0.0
 10
-37.25075904029945
 20
185.4325859857572
 30
0.0
 10
-37.48670496644713
 20
185.2131246387392
 30
0.0
  0
SPLINE
  5
3A2
330
1F
100
AcDbEntity
  8
0
  6
Continuous
 62
     8
370
    25
100
AcDbSpline
210
0.0
220
0.0
230
1.0
 70
     8
 71
     3
 72
    13
 73
     9
 74
     0
 42
0.00000001
 43
0.00000001
 40
0.0
 40
0.0
 40
0.0
 40
0.0
 40
0.1799003222414495
 40
0.3658327336015987
 40
0.5556944621520713
 40
0.7510654486514159
 40
0.9179534814985408
 40
0.9999999999999999
 40
0.9999999999999999
 40
0.9999999999999999
 40
0.9999999999999999
 10
118.7600156449928
 20
193.4119762643464
 30
0.0
 10
120.2422222898888
 20
193.4487681978764
 30
0.0
 10
123.256334226481
 20
193.5235857048716
 30
0.0
 10
127.3382066797702
 20
194.1524859192888
 30
0.0
 10
130.9912329273172
 20
195.2163837862042
 30
0.0
 10
133.937795968639
 20
196.7662736025212
 30
0.0
 10
135.9762105046287
 20
198.3720564898994
 30
0.0
 10
137.1051635259903
 20
199.4728354842897
 30
0.0
 10
137.4772559673674
 20
199.8356420277768
 30
0.0
  0
SPLINE
  5
3A3
330
1F
100
AcDbEntity
  8
0
  6
Continuous
 62
     8
370
    25
100
AcDbSpline
210
0.0
220
0.0
230
1.0
 70
     8
 71
     3
 72
    14
 73
    10
 74
     0
 42
0.00000001
 43
0.00000001
 40
0.0
 40
0.0
 40
0.0
 40
0.0
 40
0.1584297727246407
 40
0.3221717233054598
 40
0.4893740391689515
 40
0.6614281000090297
 40
0.8083985600115773
 40
0.9564666400536386
 40
1.0
 40
1.0
 40
1.0
 40
1.0
 10
-16.89555014425562
 20
193.4119762643439
 30
0.0
 10
-18.37779291015837
 20
193.4488260294611
 30
0.0
 10
-21.3919782999078
 20
193.5237611387343
 30
0.0
 10
-25.47328165863802
 20
194.1517502035292
 30
0.0
 10
-29.12855101319509
 20
195.2192393999902
 30
0.0
 10
-32.06688613555431
 20
196.7559558954017
 30
0.0
 10
-34.52693251946953
 20
198.715575970851
 30
0.0
 10
-36.18956036615064
 20
200.4046748230436
 30
0.0
 10
-37.26885062582674
 20
201.4083859936585
 30
0.0
 10
-37.51407389431544
 20
201.6364370963808
 30
0.0
  0
ARC
  5
3A4
330
1F
100
AcDbEntity
  8
0
  6
Continuous
 62
     8
370
    25
100
AcDbCircle
 10
129.6586599025
 20
206.8478106151
 30
0.0
 40
20.03781437488297
100
AcDbArc
 50
8.0360447263
 51
12.7261707796
  0
LINE
  5
3A5
330
1F
100
AcDbEntity
  8
0
  6
Continuous
 62
     8
370
    25
100
AcDbLine
 10
-51.5677672496
 20
211.2619762643
 30
0.0
 11
-51.5677672496
 21
209.696921686
 31
0.0
  0
LWPOLYLINE
  5
3A6
330
1F
100
AcDbEntity
  8
0
  6
Continuous
 62
     8
370
    25
100
AcDbPolyline
 90
        3
 70
   128
 43
0.0
 10
-47.3397603066
 20
211.2619762643
 10
-47.4819936009
 20
210.5727859295
 10
-47.5915339144
 20
209.9458689715
  0
ARC
  5
3A7
330
1F
100
AcDbEntity
  8
0
  6
Continuous
 62
     8
370
    25
100
AcDbCircle
 10
169.1341128508
 20
207.38457379
 30
0.0
 40
9.511765202577628
100
AcDbArc
 50
155.94315588
 51
172.5543197163
  0
ARC
  5
3A8
330
1F
100
AcDbEntity
  8
0
  6
Continuous
 62
     8
370
    25
100
AcDbCircle
 10
-68.3812652144
 20
207.010308329
 30
0.0
 40
10.67997705575026
100
AcDbArc
 50
11.98578437
 51
23.4592730309
  0
ARC
  5
3A9
330
1F
100
AcDbEntity
  8
0
  6
Continuous
 62
     8
370
    25
100
AcDbCircle
 10
139.7655432978
 20
209.7706381254
 30
0.0
 40
5.24181549403789
100
AcDbArc
 50
325.7757798728
 51
16.5294381717
  0
ARC
  5
3AA
330
1F
100
AcDbEntity
  8
0
  6
Continuous
 62
     8
370
    25
100
AcDbCircle
 10
-34.3876226203
 20
209.8009545223
 30
0.0
 40
8.662739500783085
100
AcDbArc
 50
170.2903231443
 51
186.6466132075
  0
SPLINE
  5
3AB
330
1F
100
AcDbEntity
  8
0
  6
Continuous
 62
     8
370
    25
100
AcDbSpline
210
0.0
220
0.0
230
1.0
 70
     8
 71
     3
 72
    10
 73
     6
 74
     0
 42
0.00000001
 43
0.00000001
 40
0.0
 40
0.0
 40
0.0
 40
0.0
 40
0.4182737147096627
 40
0.738244778055182
 40
0.9999999999999999
 40
0.9999999999999999
 40
0.9999999999999999
 40
0.9999999999999999
 10
160.448525517763
 20
211.2619762643471
 30
0.0
 10
161.4908118571839
 20
210.4586729225831
 30
0.0
 10
163.3304264929012
 20
209.0408585192492
 30
0.0
 10
165.1990415658725
 20
206.6331400896607
 30
0.0
 10
166.0265485939486
 20
205.0843422378027
 30
0.0
 10
166.3988960213765
 20
204.3874407298051
 30
0.0
  0
SPLINE
  5
3AC
330
1F
100
AcDbEntity
  8
0
  6
Continuous
 62
     8
370
    25
100
AcDbSpline
210
0.0
220
0.0
230
1.0
 70
     8
 71
     3
 72
    11
 73
     7
 74
     0
 42
0.00000001
 43
0.00000001
 40
0.0
 40
0.0
 40
0.0
 40
0.0
 40
0.3924482723024056
 40
0.6954681406405608
 40
0.9987514703352354
 40
1.0
 40
1.0
 40
1.0
 40
1.0
 10
-58.58406001702643
 20
211.2619762643433
 30
0.0
 10
-59.63217403567214
 20
210.4620126083609
 30
0.0
 10
-61.48956508354289
 20
209.0443754936854
 30
0.0
 10
-63.41195693041418
 20
206.4426327543437
 30
0.0
 10
-64.4564398290316
 20
204.7917450981764
 30
0.0
 10
-64.8255153787092
 20
203.8723746287064
 30
0.0
 10
-64.82702852670383
 20
203.8686053636239
 30
0.0
  0
SPLINE
  5
3AD
330
1F
100
AcDbEntity
  8
0
  6
Continuous
 62
     8
370
    25
100
AcDbSpline
210
0.0
220
0.0
230
1.0
 70
     8
 71
     3
 72
     9
 73
     5
 74
     0
 42
0.00000001
 43
0.00000001
 40
0.0
 40
0.0
 40
0.0
 40
0.0
 40
0.5738366063401444
 40
1.0
 40
1.0
 40
1.0
 40
1.0
 10
65.1889711888998
 20
194.753810759102
 30
0.0
 10
65.32585730837646
 20
194.4617186760849
 30
0.0
 10
65.5644027723016
 20
193.952702555834
 30
0.0
 10
65.8957099681249
 20
193.5735550514931
 30
0.0
 10
66.03690096704088
 20
193.4119762643455
 30
0.0
  0
SPLINE
  5
3AE
330
1F
100
AcDbEntity
  8
0
  6
Continuous
 62
     8
370
    25
100
AcDbSpline
210
0.0
220
0.0
230
1.0
 70
     8
 71
     3
 72
     9
 73
     5
 74
     0
 42
0.00000001
 43
0.00000001
 40
0.0
 40
0.0
 40
0.0
 40
0.0
 40
0.5079750542488912
 40
1.0
 40
1.0
 40
1.0
 40
1.0
 10
65.2918902369077
 20
192.2645740873877
 30
0.0
 10
65.39774110647737
 20
192.4872757813334
 30
0.0
 10
65.60611919253553
 20
192.9256864711556
 30
0.0
 10
65.8948420960849
 20
193.2516125185548
 30
0.0
 10
66.03690096704082
 20
193.4119762643454
 30
0.0
  0
SPLINE
  5
3AF
330
1F
100
AcDbEntity
  8
0
  6
Continuous
 62
     8
370
    25
100
AcDbSpline
210
0.0
220
0.0
230
1.0
 70
     8
 71
     3
 72
     9
 73
     5
 74
     0
 42
0.00000001
 43
0.00000001
 40
0.0
 40
0.0
 40
0.0
 40
0.0
 40
0.5079750542488078
 40
1.0
 40
1.0
 40
1.0
 40
1.0
 10
36.57257526382937
 20
194.5593784413023
 30
0.0
 10
36.46672439425966
 20
194.3366767473566
 30
0.0
 10
36.25834630820155
 20
193.8982660575347
 30
0.0
 10
35.96962340465229
 20
193.5723400101353
 30
0.0
 10
35.82756453369637
 20
193.4119762643449
 30
0.0
  0
SPLINE
  5
3B0
330
1F
100
AcDbEntity
  8
0
  6
Continuous
 62
     8
370
    25
100
AcDbSpline
210
0.0
220
0.0
230
1.0
 70
     8
 71
     3
 72
     9
 73
     5
 74
     0
 42
0.00000001
 43
0.00000001
 40
0.0
 40
0.0
 40
0.0
 40
0.0
 40
0.5738366063400753
 40
0.9999999999999999
 40
0.9999999999999999
 40
0.9999999999999999
 40
0.9999999999999999
 10
36.67549431183728
 20
192.0701417695885
 30
0.0
 10
36.53860819236057
 20
192.3622338526054
 30
0.0
 10
36.30006272843547
 20
192.8712499728562
 30
0.0
 10
35.96875553261228
 20
193.2503974771971
 30
0.0
 10
35.82756453369637
 20
193.4119762643449
 30
0.0
  0
SPLINE
  5
3B1
330
1F
100
AcDbEntity
  8
0
  6
Continuous
 62
     8
370
    25
100
AcDbSpline
210
0.0
220
0.0
230
1.0
 70
     8
 71
     3
 72
    10
 73
     6
 74
     0
 42
0.00000001
 43
0.00000001
 40
0.0
 40
0.0
 40
0.0
 40
0.0
 40
0.5677067731368479
 40
0.9054932039816918
 40
1.0
 40
1.0
 40
1.0
 40
1.0
 10
64.39434069912683
 20
183.5970026154608
 30
0.0
 10
63.74160130517506
 20
183.516330298139
 30
0.0
 10
62.70048093606498
 20
183.3876578240008
 30
0.0
 10
61.80040695890407
 20
183.2866991938348
 30
0.0
 10
61.4335838171319
 20
183.2174723304255
 30
0.0
 10
61.35338991706593
 20
183.2023381375845
 30
0.0
  0
LWPOLYLINE
  5
3B2
330
1F
100
AcDbEntity
  8
0
  6
Continuous
 62
     8
370
    25
100
AcDbPolyline
 90
        4
 70
   128
 43
0.0
 10
60.8229543542
 20
182.7505008519
 10
61.538734472
 20
182.8054276535
 10
61.538775035
 20
182.8054339797
 10
61.538775035
 20
182.8054339797
  0
LINE
  5
3B3
330
1F
100
AcDbEntity
  8
0
  6
Continuous
 62
     8
370
    25
100
AcDbLine
 10
64.3943406991
 20
203.2269499132
 30
0.0
 11
62.5990799707
 21
203.4453123038
 31
0.0
  0
SPLINE
  5
3B4
330
1F
100
AcDbEntity
  8
0
  6
Continuous
 62
     8
370
    25
100
AcDbSpline
210
0.0
220
0.0
230
1.0
 70
     8
 71
     3
 72
    10
 73
     6
 74
     0
 42
0.00000001
 43
0.00000001
 40
0.0
 40
0.0
 40
0.0
 40
0.0
 40
0.5543824547490378
 40
0.8842408950103101
 40
1.0
 40
1.0
 40
1.0
 40
1.0
 10
37.47012480161035
 20
203.2269499132295
 30
0.0
 10
38.12299930805455
 20
203.3074670363407
 30
0.0
 10
39.16433518180448
 20
203.4358919754667
 30
0.0
 10
40.08511953808877
 20
203.5403366751171
 30
0.0
 10
40.47202307629147
 20
203.6137732247901
 30
0.0
 10
40.5725299072657
 20
203.6328500079068
 30
0.0
  0
SPLINE
  5
3B5
330
1F
100
AcDbEntity
  8
0
  6
Continuous
 62
     8
370
    25
100
AcDbSpline
210
0.0
220
0.0
230
1.0
 70
     8
 71
     3
 72
     9
 73
     5
 74
     0
 42
0.00000001
 43
0.00000001
 40
0.0
 40
0.0
 40
0.0
 40
0.0
 40
0.0000556119485949
 40
1.0
 40
1.0
 40
1.0
 40
1.0
 10
40.32569046577125
 20
204.018518548942
 30
0.0
 10
40.32570398674032
 20
204.0185206577151
 30
0.0
 10
40.5688346343118
 20
204.0564400832607
 30
0.0
 10
40.82739599933247
 20
204.0790275330453
 30
0.0
 10
41.08594298525178
 20
204.1016137266977
 30
0.0
  0
LINE
  5
3B6
330
1F
100
AcDbEntity
  8
0
  6
Continuous
 62
     8
370
    25
100
AcDbLine
 10
37.4701248016
 20
183.5970026155
 30
0.0
 11
39.26538553
 21
183.3786402249
 31
0.0
  0
SPLINE
  5
3B7
330
1F
100
AcDbEntity
  8
0
  6
Continuous
 62
     8
370
    25
100
AcDbSpline
210
0.0
220
0.0
230
1.0
 70
     8
 71
     3
 72
    10
 73
     6
 74
     0
 42
0.00000001
 43
0.00000001
 40
0.0
 40
0.0
 40
0.0
 40
0.0
 40
0.6136284386597624
 40
0.9350951221610266
 40
0.9999999999999999
 40
0.9999999999999999
 40
0.9999999999999999
 40
0.9999999999999999
 10
65.47759812624778
 20
183.4099063669166
 30
0.0
 10
64.51820535986583
 20
183.1959140965053
 30
0.0
 10
63.05620744783994
 20
182.8698158982556
 30
0.0
 10
61.48117120900989
 20
182.7163656450801
 30
0.0
 10
60.84315726498443
 20
182.6983933852086
 30
0.0
 10
60.73598007794487
 20
182.6953743034537
 30
0.0
  0
SPLINE
  5
3B8
330
1F
100
AcDbEntity
  8
0
  6
Continuous
 62
     8
370
    25
100
AcDbSpline
210
0.0
220
0.0
230
1.0
 70
     8
 71
     3
 72
     9
 73
     5
 74
     0
 42
0.00000001
 43
0.00000001
 40
0.0
 40
0.0
 40
0.0
 40
0.0
 40
0.2947141499538006
 40
1.0
 40
1.0
 40
1.0
 40
1.0
 10
61.36793141527089
 20
204.0898284602307
 30
0.0
 10
61.77796610725664
 20
204.0583878122352
 30
0.0
 10
63.16926235838685
 20
203.9517059715415
 30
0.0
 10
64.52289803641584
 20
203.6364158342586
 30
0.0
 10
65.47759812624746
 20
203.4140461617742
 30
0.0
  0
SPLINE
  5
3B9
330
1F
100
AcDbEntity
  8
0
  6
Continuous
 62
     8
370
    25
100
AcDbSpline
210
0.0
220
0.0
230
1.0
 70
     8
 71
     3
 72
    10
 73
     6
 74
     0
 42
0.00000001
 43
0.00000001
 40
0.0
 40
0.0
 40
0.0
 40
0.0
 40
0.0649048778388769
 40
0.3863715613401738
 40
1.0
 40
1.0
 40
1.0
 40
1.0
 10
41.12848542279188
 20
204.1285782252367
 30
0.0
 10
41.02130823575248
 20
204.1255591434818
 30
0.0
 10
40.38329429172713
 20
204.10758688361
 30
0.0
 10
38.8082580528972
 20
203.9541366304347
 30
0.0
 10
37.34626014087131
 20
203.6280384321849
 30
0.0
 10
36.3868673744894
 20
203.4140461617737
 30
0.0
  0
SPLINE
  5
3BA
330
1F
100
AcDbEntity
  8
0
  6
Continuous
 62
     8
370
    25
100
AcDbSpline
210
0.0
220
0.0
230
1.0
 70
     8
 71
     3
 72
     9
 73
     5
 74
     0
 42
0.00000001
 43
0.00000001
 40
0.0
 40
0.0
 40
0.0
 40
0.0
 40
0.7052858500461523
 40
0.9999999999999999
 40
0.9999999999999999
 40
0.9999999999999999
 40
0.9999999999999999
 10
36.38686737448973
 20
183.4099063669161
 30
0.0
 10
37.34156746432129
 20
183.1875366944314
 30
0.0
 10
38.69520314235028
 20
182.8722465571486
 30
0.0
 10
40.08649939348071
 20
182.765564716455
 30
0.0
 10
40.49653408546658
 20
182.7341240684596
 30
0.0
  0
SPLINE
  5
3BB
330
1F
100
AcDbEntity
  8
0
  6
Continuous
 62
     8
370
    25
100
AcDbSpline
210
0.0
220
0.0
230
1.0
 70
     8
 71
     3
 72
     9
 73
     5
 74
     0
 42
0.00000001
 43
0.00000001
 40
0.0
 40
0.0
 40
0.0
 40
0.0
 40
0.4341123552591188
 40
1.0
 40
1.0
 40
1.0
 40
1.0
 10
144.5838035586495
 20
179.7822049131728
 30
0.0
 10
144.2707896936418
 20
179.8471202393832
 30
0.0
 10
143.5497462558874
 20
179.9966560114569
 30
0.0
 10
143.4539650734288
 20
180.0136283511627
 30
0.0
 10
143.3997636856769
 20
180.0232327885049
 30
0.0
  0
ENDSEC
  0
SECTION
  2
OBJECTS
  0
DICTIONARY
  5
C
330
0
100
AcDbDictionary
281
     1
  3
ACAD_GROUP
350
D
  3
ACAD_LAYOUT
350
1A
  3
ACAD_MLINESTYLE
350
17
  3
ACAD_PLOTSETTINGS
350
19
  3
ACAD_PLOTSTYLENAME
350
E
  3
ACAD_SCALELIST
350
47
  3
DWGPROPS
350
3BC
  0
DICTIONARY
  5
D
102
{ACAD_REACTORS
330
C
102
}
330
C
100
AcDbDictionary
281
     1
  0
DICTIONARY
  5
1A
102
{ACAD_REACTORS
330
C
102
}
330
C
100
AcDbDictionary
281
     1
  3
Layout1
350
1E
  3
Layout2
350
26
  3
Model
350
22
  0
DICTIONARY
  5
17
102
{ACAD_REACTORS
330
C
102
}
330
C
100
AcDbDictionary
281
     1
  3
Standard
350
18
  0
DICTIONARY
  5
19
102
{ACAD_REACTORS
330
C
102
}
330
C
100
AcDbDictionary
281
     1
  0
ACDBDICTIONARYWDFLT
  5
E
102
{ACAD_REACTORS
330
C
102
}
330
C
100
AcDbDictionary
281
     1
  3
Normal
350
F
100
AcDbDictionaryWithDefault
340
F
  0
DICTIONARY
  5
47
102
{ACAD_REACTORS
330
C
102
}
330
C
100
AcDbDictionary
281
     1
  3
A0
350
48
  3
A1
350
49
  3
A2
350
4A
  3
A3
350
4B
  3
A4
350
4C
  3
A5
350
4D
  3
A6
350
4E
  3
A7
350
4F
  3
A8
350
50
  3
A9
350
51
  3
B0
350
52
  3
B1
350
53
  3
B2
350
54
  3
B3
350
55
  3
B4
350
56
  3
B5
350
57
  3
B6
350
58
  3
B7
350
59
  3
B8
350
5A
  3
B9
350
5B
  3
C0
350
5C
  3
C1
350
5D
  3
C2
350
5E
  3
C3
350
5F
  3
C4
350
60
  3
C5
350
61
  3
C6
350
62
  3
C7
350
63
  3
C8
350
64
  3
C9
350
65
  3
D0
350
66
  3
D1
350
67
  3
D2
350
68
  0
XRECORD
  5
3BC
102
{ACAD_REACTORS
330
C
102
}
330
C
100
AcDbXrecord
280
     1
  1
DWGPROPS COOKIE
  2

  3

  4

  6

  7

  8
vishesh
  9

300
=
301
=
302
=
303
=
304
=
305
=
306
=
307
=
308
=
309
=
 40
0.0
 41
2460383.481424456
 42
2460383.481424803
  1

 90
        0
  0
LAYOUT
  5
1E
102
{ACAD_REACTORS
330
1A
102
}
330
1A
100
AcDbPlotSettings
  1

  2
none_device
  4

  6

 40
0.0
 41
0.0
 42
0.0
 43
0.0
 44
0.0
 45
0.0
 46
0.0
 47
0.0
 48
0.0
 49
0.0
140
0.0
141
0.0
142
1.0
143
1.0
 70
   688
 72
     1
 73
     0
 74
     5
  7

 75
    16
147
1.0
148
0.0
149
0.0
100
AcDbLayout
  1
Layout1
 70
     1
 71
     1
 10
0.0
 20
0.0
 11
420.0
 21
297.0
 12
0.0
 22
0.0
 32
0.0
 14
1.0000000000E+20
 24
1.0000000000E+20
 34
1.0000000000E+20
 15
-1.0000000000E+20
 25
-1.0000000000E+20
 35
-1.0000000000E+20
146
0.0
 13
0.0
 23
0.0
 33
0.0
 16
1.0
 26
0.0
 36
0.0
 17
0.0
 27
1.0
 37
0.0
 76
     0
330
1B
  0
LAYOUT
  5
26
102
{ACAD_REACTORS
330
1A
102
}
330
1A
100
AcDbPlotSettings
  1

  2
none_device
  4

  6

 40
0.0
 41
0.0
 42
0.0
 43
0.0
 44
0.0
 45
0.0
 46
0.0
 47
0.0
 48
0.0
 49
0.0
140
0.0
141
0.0
142
1.0
143
1.0
 70
   688
 72
     1
 73
     0
 74
     5
  7

 75
    16
147
1.0
148
0.0
149
0.0
100
AcDbLayout
  1
Layout2
 70
     1
 71
     2
 10
0.0
 20
0.0
 11
0.0
 21
0.0
 12
0.0
 22
0.0
 32
0.0
 14
0.0
 24
0.0
 34
0.0
 15
0.0
 25
0.0
 35
0.0
146
0.0
 13
0.0
 23
0.0
 33
0.0
 16
1.0
 26
0.0
 36
0.0
 17
0.0
 27
1.0
 37
0.0
 76
     0
330
23
  0
LAYOUT
  5
22
102
{ACAD_REACTORS
330
1A
102
}
330
1A
100
AcDbPlotSettings
  1

  2
none_device
  4
Letter_(8.50_x_11.00_Inches)
  6

 40
6.35
 41
6.35
 42
6.35000508
 43
6.35000508
 44
215.9
 45
279.4
 46
0.0
 47
0.0
 48
0.0
 49
0.0
140
0.0
141
0.0
142
1.0
143
1.0
 70
  1712
 72
     1
 73
     0
 74
     0
  7

 75
     0
147
1.0
148
0.0
149
0.0
100
AcDbLayout
  1
Model
 70
     1
 71
     0
 10
0.0
 20
0.0
 11
279.4
 21
215.9
 12
0.0
 22
0.0
 32
0.0
 14
0.0
 24
0.0
 34
0.0
 15
279.4
 25
215.9
 35
0.0
146
0.0
 13
0.0
 23
0.0
 33
0.0
 16
1.0
 26
0.0
 36
0.0
 17
0.0
 27
1.0
 37
0.0
 76
     0
330
1F
331
29
  0
MLINESTYLE
  5
18
102
{ACAD_REACTORS
330
17
102
}
330
17
100
AcDbMlineStyle
  2
Standard
 70
     0
  3

 62
   256
 51
90.0
 52
90.0
 71
     2
 49
0.5
 62
   256
  6
BYLAYER
 49
-0.5
 62
   256
  6
BYLAYER
  0
ACDBPLACEHOLDER
  5
F
102
{ACAD_REACTORS
330
E
102
}
330
E
  0
SCALE
  5
48
102
{ACAD_REACTORS
330
47
102
}
330
47
100
AcDbScale
 70
     0
300
1:1
140
1.0
141
1.0
290
     1
  0
SCALE
  5
49
102
{ACAD_REACTORS
330
47
102
}
330
47
100
AcDbScale
 70
     0
300
1:2
140
1.0
141
2.0
290
     0
  0
SCALE
  5
4A
102
{ACAD_REACTORS
330
47
102
}
330
47
100
AcDbScale
 70
     0
300
1:4
140
1.0
141
4.0
290
     0
  0
SCALE
  5
4B
102
{ACAD_REACTORS
330
47
102
}
330
47
100
AcDbScale
 70
     0
300
1:5
140
1.0
141
5.0
290
     0
  0
SCALE
  5
4C
102
{ACAD_REACTORS
330
47
102
}
330
47
100
AcDbScale
 70
     0
300
1:8
140
1.0
141
8.0
290
     0
  0
SCALE
  5
4D
102
{ACAD_REACTORS
330
47
102
}
330
47
100
AcDbScale
 70
     0
300
1:10
140
1.0
141
10.0
290
     0
  0
SCALE
  5
4E
102
{ACAD_REACTORS
330
47
102
}
330
47
100
AcDbScale
 70
     0
300
1:16
140
1.0
141
16.0
290
     0
  0
SCALE
  5
4F
102
{ACAD_REACTORS
330
47
102
}
330
47
100
AcDbScale
 70
     0
300
1:20
140
1.0
141
20.0
290
     0
  0
SCALE
  5
50
102
{ACAD_REACTORS
330
47
102
}
330
47
100
AcDbScale
 70
     0
300
1:30
140
1.0
141
30.0
290
     0
  0
SCALE
  5
51
102
{ACAD_REACTORS
330
47
102
}
330
47
100
AcDbScale
 70
     0
300
1:40
140
1.0
141
40.0
290
     0
  0
SCALE
  5
52
102
{ACAD_REACTORS
330
47
102
}
330
47
100
AcDbScale
 70
     0
300
1:50
140
1.0
141
50.0
290
     0
  0
SCALE
  5
53
102
{ACAD_REACTORS
330
47
102
}
330
47
100
AcDbScale
 70
     0
300
1:100
140
1.0
141
100.0
290
     0
  0
SCALE
  5
54
102
{ACAD_REACTORS
330
47
102
}
330
47
100
AcDbScale
 70
     0
300
2:1
140
2.0
141
1.0
290
     0
  0
SCALE
  5
55
102
{ACAD_REACTORS
330
47
102
}
330
47
100
AcDbScale
 70
     0
300
4:1
140
4.0
141
1.0
290
     0
  0
SCALE
  5
56
102
{ACAD_REACTORS
330
47
102
}
330
47
100
AcDbScale
 70
     0
300
8:1
140
8.0
141
1.0
290
     0
  0
SCALE
  5
57
102
{ACAD_REACTORS
330
47
102
}
330
47
100
AcDbScale
 70
     0
300
10:1
140
10.0
141
1.0
290
     0
  0
SCALE
  5
58
102
{ACAD_REACTORS
330
47
102
}
330
47
100
AcDbScale
 70
     0
300
100:1
140
100.0
141
1.0
290
     0
  0
SCALE
  5
59
102
{ACAD_REACTORS
330
47
102
}
330
47
100
AcDbScale
 70
     0
300
1/128" = 1'-0"
140
0.0078125
141
12.0
290
     0
  0
SCALE
  5
5A
102
{ACAD_REACTORS
330
47
102
}
330
47
100
AcDbScale
 70
     0
300
1/64" = 1'-0"
140
0.015625
141
12.0
290
     0
  0
SCALE
  5
5B
102
{ACAD_REACTORS
330
47
102
}
330
47
100
AcDbScale
 70
     0
300
1/32" = 1'-0"
140
0.03125
141
12.0
290
     0
  0
SCALE
  5
5C
102
{ACAD_REACTORS
330
47
102
}
330
47
100
AcDbScale
 70
     0
300
1/16" = 1'-0"
140
0.0625
141
12.0
290
     0
  0
SCALE
  5
5D
102
{ACAD_REACTORS
330
47
102
}
330
47
100
AcDbScale
 70
     0
300
3/32" = 1'-0"
140
0.09375
141
12.0
290
     0
  0
SCALE
  5
5E
102
{ACAD_REACTORS
330
47
102
}
330
47
100
AcDbScale
 70
     0
300
1/8" = 1'-0"
140
0.125
141
12.0
290
     0
  0
SCALE
  5
5F
102
{ACAD_REACTORS
330
47
102
}
330
47
100
AcDbScale
 70
     0
300
3/16" = 1'-0"
140
0.1875
141
12.0
290
     0
  0
SCALE
  5
60
102
{ACAD_REACTORS
330
47
102
}
330
47
100
AcDbScale
 70
     0
300
1/4" = 1'-0"
140
0.25
141
12.0
290
     0
  0
SCALE
  5
61
102
{ACAD_REACTORS
330
47
102
}
330
47
100
AcDbScale
 70
     0
300
3/8" = 1'-0"
140
0.375
141
12.0
290
     0
  0
SCALE
  5
62
102
{ACAD_REACTORS
330
47
102
}
330
47
100
AcDbScale
 70
     0
300
1/2" = 1'-0"
140
0.5
141
12.0
290
     0
  0
SCALE
  5
63
102
{ACAD_REACTORS
330
47
102
}
330
47
100
AcDbScale
 70
     0
300
3/4" = 1'-0"
140
0.75
141
12.0
290
     0
  0
SCALE
  5
64
102
{ACAD_REACTORS
330
47
102
}
330
47
100
AcDbScale
 70
     0
300
1" = 1'-0"
140
1.0
141
12.0
290
     0
  0
SCALE
  5
65
102
{ACAD_REACTORS
330
47
102
}
330
47
100
AcDbScale
 70
     0
300
1-1/2" = 1'-0"
140
1.5
141
12.0
290
     0
  0
SCALE
  5
66
102
{ACAD_REACTORS
330
47
102
}
330
47
100
AcDbScale
 70
     0
300
3" = 1'-0"
140
3.0
141
12.0
290
     0
  0
SCALE
  5
67
102
{ACAD_REACTORS
330
47
102
}
330
47
100
AcDbScale
 70
     0
300
6" = 1'-0"
140
6.0
141
12.0
290
     0
  0
SCALE
  5
68
102
{ACAD_REACTORS
330
47
102
}
330
47
100
AcDbScale
 70
     0
300
1'-0" = 1'-0"
140
12.0
141
12.0
290
     0
  0
ENDSEC
  0
EOF
