  0
SECTION
  2
HEADER
  9
$ACADVER
  1
AC1015
  9
$ACADMAINTVER
 70
     6
  9
$DWGCODEPAGE
  3
ANSI_1252
  9
$INSBASE
 10
0.0
 20
0.0
 30
0.0
  9
$EXTMIN
 10
0.0
 20
0.0
 30
0.0
  9
$EXTMAX
 10
279.4
 20
215.9
 30
0.0
  9
$LIMMIN
 10
0.0
 20
0.0
  9
$LIMMAX
 10
279.4
 20
215.9
  9
$ORTHOMODE
 70
     0
  9
$REGENMODE
 70
     1
  9
$FILLMODE
 70
     1
  9
$QTEXTMODE
 70
     0
  9
$MIRRTEXT
 70
     1
  9
$LTSCALE
 40
1.0
  9
$ATTMODE
 70
     1
  9
$TEXTSIZE
 40
3.5277777778
  9
$TRACEWID
 40
1.0
  9
$TEXTSTYLE
  7
Standard
  9
$CLAYER
  8
0
  9
$CELTYPE
  6
ByLayer
  9
$CECOLOR
 62
   256
  9
$CELTSCALE
 40
1.0
  9
$DISPSILH
 70
     0
  9
$DIMSCALE
 40
1.0
  9
$DIMASZ
 40
3.556
  9
$DIMEXO
 40
1.0
  9
$DIMDLI
 40
3.75
  9
$DIMRND
 40
0.0
  9
$DIMDLE
 40
0.0
  9
$DIMEXE
 40
1.0
  9
$DIMTP
 40
0.0
  9
$DIMTM
 40
0.0
  9
$DIMTXT
 40
3.5277777778
  9
$DIMCEN
 40
2.5
  9
$DIMTSZ
 40
0.0
  9
$DIMTOL
 70
     0
  9
$DIMLIM
 70
     0
  9
$DIMTIH
 70
     1
  9
$DIMTOH
 70
     1
  9
$DIMSE1
 70
     0
  9
$DIMSE2
 70
     0
  9
$DIMTAD
 70
     1
  9
$DIMZIN
 70
     0
  9
$DIMBLK
  1

  9
$DIMASO
 70
     1
  9
$DIMSHO
 70
     1
  9
$DIMPOST
  1

  9
$DIMAPOST
  1

  9
$DIMALT
 70
     0
  9
$DIMALTD
 70
     3
  9
$DIMALTF
 40
0.0393700787
  9
$DIMLFAC
 40
2.0
  9
$DIMTOFL
 70
     1
  9
$DIMTVP
 40
0.0
  9
$DIMTIX
 70
     0
  9
$DIMSOXD
 70
     0
  9
$DIMSAH
 70
     0
  9
$DIMBLK1
  1

  9
$DIMBLK2
  1

  9
$DIMSTYLE
  2
ISO-25
  9
$DIMCLRD
 70
     0
  9
$DIMCLRE
 70
     0
  9
$DIMCLRT
 70
     0
  9
$DIMTFAC
 40
1.0
  9
$DIMGAP
 40
1.524
  9
$DIMJUST
 70
     0
  9
$DIMSD1
 70
     0
  9
$DIMSD2
 70
     0
  9
$DIMTOLJ
 70
     0
  9
$DIMTZIN
 70
     0
  9
$DIMALTZ
 70
     0
  9
$DIMALTTZ
 70
     0
  9
$DIMUPT
 70
     0
  9
$DIMDEC
 70
     2
  9
$DIMTDEC
 70
     2
  9
$DIMALTU
 70
     2
  9
$DIMALTTD
 70
     3
  9
$DIMTXSTY
  7
Standard
  9
$DIMAUNIT
 70
     0
  9
$DIMADEC
 70
     2
  9
$DIMALTRND
 40
0.0
  9
$DIMAZIN
 70
     0
  9
$DIMDSEP
 70
    44
  9
$DIMATFIT
 70
     3
  9
$DIMFRAC
 70
     0
  9
$DIMLDRBLK
  1

  9
$DIMLUNIT
 70
     2
  9
$DIMLWD
 70
    -2
  9
$DIMLWE
 70
    -2
  9
$DIMTMOVE
 70
     0
  9
$LUNITS
 70
     2
  9
$LUPREC
 70
     2
  9
$SKETCHINC
 40
1.0
  9
$FILLETRAD
 40
10.0
  9
$AUNITS
 70
     0
  9
$AUPREC
 70
     2
  9
$MENU
  1
.
  9
$ELEVATION
 40
0.0
  9
$PELEVATION
 40
0.0
  9
$THICKNESS
 40
0.0
  9
$LIMCHECK
 70
     0
  9
$CHAMFERA
 40
0.0
  9
$CHAMFERB
 40
0.0
  9
$CHAMFERC
 40
0.0
  9
$CHAMFERD
 40
0.0
  9
$SKPOLY
 70
     0
  9
$TDCREATE
 40
2460383.735403125
  9
$TDUCREATE
 40
2460383.506236458
  9
$TDUPDATE
 40
2460383.735403623
  9
$TDUUPDATE
 40
2460383.506236956
  9
$TDINDWG
 40
0.0000000116
  9
$TDUSRTIMER
 40
0.0000000116
  9
$USRTIMER
 70
     1
  9
$ANGBASE
 50
0.0
  9
$ANGDIR
 70
     0
  9
$PDMODE
 70
     0
  9
$PDSIZE
 40
-1.0
  9
$PLINEWID
 40
0.0
  9
$SPLFRAME
 70
     0
  9
$SPLINETYPE
 70
     6
  9
$SPLINESEGS
 70
     8
  9
$HANDSEED
  5
335
  9
$SURFTAB1
 70
     6
  9
$SURFTAB2
 70
     6
  9
$SURFTYPE
 70
     6
  9
$SURFU
 70
     6
  9
$SURFV
 70
     6
  9
$UCSBASE
  2

  9
$UCSNAME
  2

  9
$UCSORG
 10
0.0
 20
0.0
 30
0.0
  9
$UCSXDIR
 10
1.0
 20
0.0
 30
0.0
  9
$UCSYDIR
 10
0.0
 20
1.0
 30
0.0
  9
$UCSORTHOREF
  2

  9
$UCSORTHOVIEW
 70
     0
  9
$UCSORGTOP
 10
0.0
 20
0.0
 30
0.0
  9
$UCSORGBOTTOM
 10
0.0
 20
0.0
 30
0.0
  9
$UCSORGLEFT
 10
0.0
 20
0.0
 30
0.0
  9
$UCSORGRIGHT
 10
0.0
 20
0.0
 30
0.0
  9
$UCSORGFRONT
 10
0.0
 20
0.0
 30
0.0
  9
$UCSORGBACK
 10
0.0
 20
0.0
 30
0.0
  9
$PUCSBASE
  2

  9
$PUCSNAME
  2

  9
$PUCSORG
 10
0.0
 20
0.0
 30
0.0
  9
$PUCSXDIR
 10
1.0
 20
0.0
 30
0.0
  9
$PUCSYDIR
 10
0.0
 20
1.0
 30
0.0
  9
$PUCSORTHOREF
  2

  9
$PUCSORTHOVIEW
 70
     0
  9
$PUCSORGTOP
 10
0.0
 20
0.0
 30
0.0
  9
$PUCSORGBOTTOM
 10
0.0
 20
0.0
 30
0.0
  9
$PUCSORGLEFT
 10
0.0
 20
0.0
 30
0.0
  9
$PUCSORGRIGHT
 10
0.0
 20
0.0
 30
0.0
  9
$PUCSORGFRONT
 10
0.0
 20
0.0
 30
0.0
  9
$PUCSORGBACK
 10
0.0
 20
0.0
 30
0.0
  9
$USERI1
 70
     0
  9
$USERI2
 70
     0
  9
$USERI3
 70
     0
  9
$USERI4
 70
     0
  9
$USERI5
 70
     0
  9
$USERR1
 40
0.0
  9
$USERR2
 40
0.0
  9
$USERR3
 40
0.0
  9
$USERR4
 40
0.0
  9
$USERR5
 40
0.0
  9
$WORLDVIEW
 70
     1
  9
$SHADEDGE
 70
     3
  9
$SHADEDIF
 70
    70
  9
$TILEMODE
 70
     1
  9
$MAXACTVP
 70
    64
  9
$PINSBASE
 10
0.0
 20
0.0
 30
0.0
  9
$PLIMCHECK
 70
     0
  9
$PEXTMIN
 10
1.0000000000E+20
 20
1.0000000000E+20
 30
1.0000000000E+20
  9
$PEXTMAX
 10
-1.0000000000E+20
 20
-1.0000000000E+20
 30
-1.0000000000E+20
  9
$PLIMMIN
 10
0.0
 20
0.0
  9
$PLIMMAX
 10
420.0
 20
297.0
  9
$UNITMODE
 70
     0
  9
$VISRETAIN
 70
     1
  9
$PLINEGEN
 70
     0
  9
$PSLTSCALE
 70
     1
  9
$TREEDEPTH
 70
  3020
  9
$CMLSTYLE
  2
Standard
  9
$CMLJUST
 70
     0
  9
$CMLSCALE
 40
20.0
  9
$PROXYGRAPHICS
 70
     1
  9
$MEASUREMENT
 70
     1
  9
$CELWEIGHT
370
    -1
  9
$ENDCAPS
280
     0
  9
$JOINSTYLE
280
     0
  9
$LWDISPLAY
290
     1
  9
$INSUNITS
 70
     4
  9
$HYPERLINKBASE
  1

  9
$STYLESHEET
  1

  9
$XEDIT
290
     1
  9
$CEPSNTYPE
380
     0
  9
$PSTYLEMODE
290
     1
  9
$FINGERPRINTGUID
  2
{e0a0009c-6476-475b-8d62-1cbdf1941ef3}
  9
$VERSIONGUID
  2
{FAEB1C32-E019-11D5-929B-00C0DF256EC4}
  9
$EXTNAMES
290
     1
  9
$PSVPSCALE
 40
0.0
  9
$OLESTARTUP
290
     0
  0
ENDSEC
  0
SECTION
  2
CLASSES
  0
CLASS
  1
ACDBDICTIONARYWDFLT
  2
AcDbDictionaryWithDefault
  3
ObjectDBX Classes
 90
        0
280
     0
281
     0
  0
CLASS
  1
VISUALSTYLE
  2
AcDbVisualStyle
  3
ObjectDBX Classes
 90
     4095
280
     0
281
     0
  0
CLASS
  1
MATERIAL
  2
AcDbMaterial
  3
ObjectDBX Classes
 90
     1153
280
     0
281
     0
  0
CLASS
  1
SCALE
  2
AcDbScale
  3
ObjectDBX Classes
 90
     1153
280
     0
281
     0
  0
CLASS
  1
TABLESTYLE
  2
AcDbTableStyle
  3
ObjectDBX Classes
 90
     4095
280
     0
281
     0
  0
CLASS
  1
MLEADERSTYLE
  2
AcDbMLeaderStyle
  3
ACDB_MLEADERSTYLE_CLASS
 90
     4095
280
     0
281
     0
  0
CLASS
  1
SUN
  2
AcDbSun
  3
SCENEOE
 90
     1153
280
     0
281
     0
  0
CLASS
  1
ACDBPLACEHOLDER
  2
AcDbPlaceHolder
  3
ObjectDBX Classes
 90
        0
280
     0
281
     0
  0
CLASS
  1
LAYOUT
  2
AcDbLayout
  3
ObjectDBX Classes
 90
        0
280
     0
281
     0
  0
ENDSEC
  0
SECTION
  2
TABLES
  0
TABLE
  2
VPORT
  5
8
330
0
100
AcDbSymbolTable
 70
     1
  0
VPORT
  5
29
330
8
100
AcDbSymbolTableRecord
100
AcDbViewportTableRecord
  2
*Active
 70
     0
 10
0.0
 20
0.0
 11
1.0
 21
1.0
 12
139.7
 22
107.95
 13
0.0
 23
0.0
 14
10.0
 24
10.0
 15
10.0
 25
10.0
 16
0.0
 26
0.0
 36
1.0
 17
0.0
 27
0.0
 37
0.0
 40
215.9
 41
1.2941176471
 42
50.0
 43
0.0
 44
0.0
 50
0.0
 51
0.0
 71
     0
 72
  2000
 73
     1
 74
     3
 75
     0
 76
     0
 77
     0
 78
     0
281
     0
 65
     1
110
0.0
120
0.0
130
0.0
111
1.0
121
0.0
131
0.0
112
0.0
122
1.0
132
0.0
 79
     0
146
0.0
  0
ENDTAB
  0
TABLE
  2
LTYPE
  5
5
330
0
100
AcDbSymbolTable
 70
     6
  0
LTYPE
  5
14
330
5
100
AcDbSymbolTableRecord
100
AcDbLinetypeTableRecord
  2
ByBlock
 70
     0
  3

 72
    65
 73
     0
 40
0.0
  0
LTYPE
  5
15
330
5
100
AcDbSymbolTableRecord
100
AcDbLinetypeTableRecord
  2
ByLayer
 70
     0
  3

 72
    65
 73
     0
 40
0.0
  0
LTYPE
  5
16
330
5
100
AcDbSymbolTableRecord
100
AcDbLinetypeTableRecord
  2
Continuous
 70
     0
  3
Solid line
 72
    65
 73
     0
 40
0.0
  0
LTYPE
  5
6E
330
5
100
AcDbSymbolTableRecord
100
AcDbLinetypeTableRecord
  2
HIDDEN
 70
     0
  3
Hidden __ __ __ __ __ __ __ __ __ __ __ __ __ __
 72
    65
 73
     2
 40
1.905
 49
1.27
 74
     0
 49
-0.635
 74
     0
  0
LTYPE
  5
6F
330
5
100
AcDbSymbolTableRecord
100
AcDbLinetypeTableRecord
  2
PHANTOM
 70
     0
  3
Phantom ______  __  __  ______  __  __  ______
 72
    65
 73
     6
 40
12.7
 49
6.35
 74
     0
 49
-1.27
 74
     0
 49
1.27
 74
     0
 49
-1.27
 74
     0
 49
1.27
 74
     0
 49
-1.27
 74
     0
  0
LTYPE
  5
70
330
5
100
AcDbSymbolTableRecord
100
AcDbLinetypeTableRecord
  2
CENTER
 70
     0
  3
Center ____ _ ____ _ ____ _ ____ _ ____ _ ____
 72
    65
 73
     4
 40
10.16
 49
6.35
 74
     0
 49
-1.27
 74
     0
 49
1.27
 74
     0
 49
-1.27
 74
     0
  0
LTYPE
  5
71
330
5
100
AcDbSymbolTableRecord
100
AcDbLinetypeTableRecord
  2
CENTERX2
 70
     0
  3
Center (2x) ________  __  ________  __  _____
 72
    65
 73
     4
 40
20.32
 49
12.7
 74
     0
 49
-2.54
 74
     0
 49
2.54
 74
     0
 49
-2.54
 74
     0
  0
LTYPE
  5
72
330
5
100
AcDbSymbolTableRecord
100
AcDbLinetypeTableRecord
  2
DOT2
 70
     0
  3
Dot (.5x) ........................................
 72
    65
 73
     2
 40
0.635
 49
0.0
 74
     0
 49
-0.635
 74
     0
  0
ENDTAB
  0
TABLE
  2
LAYER
  5
2
330
0
100
AcDbSymbolTable
 70
     5
  0
LAYER
  5
10
330
2
100
AcDbSymbolTableRecord
100
AcDbLayerTableRecord
  2
0
 70
     0
 62
     7
  6
Continuous
370
    -3
390
F
  0
LAYER
  5
73
330
2
100
AcDbSymbolTableRecord
100
AcDbLayerTableRecord
  2
FORMAT
 70
     0
 62
     7
  6
Continuous
370
    -3
390
F
  0
LAYER
  5
74
330
2
100
AcDbSymbolTableRecord
100
AcDbLayerTableRecord
  2
OUT_LINE
 70
     0
 62
     7
  6
Continuous
370
    50
390
F
  0
LAYER
  5
75
330
2
100
AcDbSymbolTableRecord
100
AcDbLayerTableRecord
  2
WATERMARK
 70
     0
 62
   254
  6
Continuous
370
    -3
390
F
  0
LAYER
  5
76
330
2
100
AcDbSymbolTableRecord
100
AcDbLayerTableRecord
  2
LAYER3
 70
     0
 62
     7
  6
Continuous
370
    35
390
F
  0
ENDTAB
  0
TABLE
  2
STYLE
  5
3
330
0
100
AcDbSymbolTable
 70
     1
  0
STYLE
  5
11
330
3
100
AcDbSymbolTableRecord
100
AcDbTextStyleTableRecord
  2
Standard
 70
     0
 40
0.0
 41
1.0
 50
0.0
 71
     0
 42
3.5277777778
  3
txt
  4

  0
ENDTAB
  0
TABLE
  2
VIEW
  5
6
330
0
100
AcDbSymbolTable
 70
     0
  0
ENDTAB
  0
TABLE
  2
UCS
  5
7
330
0
100
AcDbSymbolTable
 70
     0
  0
ENDTAB
  0
TABLE
  2
APPID
  5
9
330
0
100
AcDbSymbolTable
 70
     1
  0
APPID
  5
12
330
9
100
AcDbSymbolTableRecord
100
AcDbRegAppTableRecord
  2
ACAD
 70
     0
  0
ENDTAB
  0
TABLE
  2
DIMSTYLE
  5
A
330
0
100
AcDbSymbolTable
 70
     1
100
AcDbDimStyleTable
  0
DIMSTYLE
105
27
330
A
100
AcDbSymbolTableRecord
100
AcDbDimStyleTableRecord
  2
ISO-25
 70
     0
 41
2.5
 42
0.625
 43
3.75
 44
1.25
 73
     0
 74
     0
 77
     1
 78
     8
140
2.5
141
2.5
143
0.0393700787
147
0.625
171
     3
172
     1
178
     0
271
     2
272
     2
274
     3
278
    44
283
     0
284
     8
340
11
  0
ENDTAB
  0
TABLE
  2
BLOCK_RECORD
  5
1
330
0
100
AcDbSymbolTable
 70
     4
  0
BLOCK_RECORD
  5
1F
330
1
100
AcDbSymbolTableRecord
100
AcDbBlockTableRecord
  2
*Model_Space
340
22
  0
BLOCK_RECORD
  5
1B
330
1
100
AcDbSymbolTableRecord
100
AcDbBlockTableRecord
  2
*Paper_Space
340
1E
  0
BLOCK_RECORD
  5
23
330
1
100
AcDbSymbolTableRecord
100
AcDbBlockTableRecord
  2
*Paper_Space0
340
26
  0
BLOCK_RECORD
  5
77
330
1
100
AcDbSymbolTableRecord
100
AcDbBlockTableRecord
  2
Block5
340
0
  0
BLOCK_RECORD
  5
85
330
1
100
AcDbSymbolTableRecord
100
AcDbBlockTableRecord
  2
Block2
340
0
  0
BLOCK_RECORD
  5
90
330
1
100
AcDbSymbolTableRecord
100
AcDbBlockTableRecord
  2
Block7
340
0
  0
ENDTAB
  0
ENDSEC
  0
SECTION
  2
BLOCKS
  0
BLOCK
  5
20
330
1F
100
AcDbEntity
  8
0
100
AcDbBlockBegin
  2
*Model_Space
 70
     0
 10
0.0
 20
0.0
 30
0.0
  3
*Model_Space
  1

  0
ENDBLK
  5
21
330
1F
100
AcDbEntity
  8
0
100
AcDbBlockEnd
  0
BLOCK
  5
1C
330
1B
100
AcDbEntity
 67
     1
  8
0
100
AcDbBlockBegin
  2
*Paper_Space
 70
     0
 10
0.0
 20
0.0
 30
0.0
  3
*Paper_Space
  1

  0
ENDBLK
  5
1D
330
1B
100
AcDbEntity
 67
     1
  8
0
100
AcDbBlockEnd
  0
BLOCK
  5
24
330
23
100
AcDbEntity
  8
0
100
AcDbBlockBegin
  2
*Paper_Space0
 70
     0
 10
0.0
 20
0.0
 30
0.0
  3
*Paper_Space0
  1

  0
ENDBLK
  5
25
330
23
100
AcDbEntity
  8
0
100
AcDbBlockEnd
  0
BLOCK
  5
78
330
77
100
AcDbEntity
  8
0
100
AcDbBlockBegin
  2
Block5
 70
     0
 10
0.0
 20
0.0
 30
0.0
  3
Block5
  1

  0
LINE
  5
7A
330
77
100
AcDbEntity
  8
LAYER3
100
AcDbLine
 10
251.0883122991
 20
64.4632252413
 30
0.0
 11
250.3611798328
 21
64.9733337839
 31
0.0
  0
LINE
  5
7B
330
77
100
AcDbEntity
  8
LAYER3
100
AcDbLine
 10
250.3611798328
 20
64.9733337839
 30
0.0
 11
251.0883122991
 21
65.4834423266
 31
0.0
  0
LINE
  5
7C
330
77
100
AcDbEntity
  8
LAYER3
100
AcDbLine
 10
250.3611798328
 20
65.6106440044
 30
0.0
 11
250.3611798328
 21
64.3360235634
 31
0.0
  0
LINE
  5
7D
330
77
100
AcDbEntity
  8
LAYER3
100
AcDbLine
 10
251.0883122991
 20
65.4834423266
 30
0.0
 11
251.0883122991
 21
64.4632252413
 31
0.0
  0
LINE
  5
7E
330
77
100
AcDbEntity
  8
LAYER3
  6
Continuous
 62
     7
370
    18
100
AcDbLine
 10
254.0738326611
 20
65.4834423266
 30
0.0
 11
254.0738326611
 21
64.4632252413
 31
0.0
  0
LINE
  5
7F
330
77
100
AcDbEntity
  8
LAYER3
100
AcDbLine
 10
251.0883122991
 20
64.9733337839
 30
0.0
 11
254.0738326611
 21
64.9733337839
 31
0.0
  0
LINE
  5
80
330
77
100
AcDbEntity
  8
LAYER3
100
AcDbLine
 10
254.0738326611
 20
64.9733337839
 30
0.0
 11
254.0738326611
 21
64.4632252413
 31
0.0
  0
LINE
  5
81
330
77
100
AcDbEntity
  8
LAYER3
100
AcDbLine
 10
254.0738326611
 20
65.4834423266
 30
0.0
 11
254.8009651274
 21
64.9733337839
 31
0.0
  0
LINE
  5
82
330
77
100
AcDbEntity
  8
LAYER3
100
AcDbLine
 10
254.8009651274
 20
64.9733337839
 30
0.0
 11
254.0738326611
 21
64.4632252413
 31
0.0
  0
LINE
  5
83
330
77
100
AcDbEntity
  8
LAYER3
100
AcDbLine
 10
254.0738326611
 20
65.4834423266
 30
0.0
 11
254.0738326611
 21
64.9733337839
 31
0.0
  0
LINE
  5
84
330
77
100
AcDbEntity
  8
LAYER3
100
AcDbLine
 10
254.8009651274
 20
65.6106440044
 30
0.0
 11
254.8009651274
 21
64.3360235634
 31
0.0
  0
ENDBLK
  5
79
330
77
100
AcDbEntity
  8
0
100
AcDbBlockEnd
  0
BLOCK
  5
86
330
85
100
AcDbEntity
  8
0
100
AcDbBlockBegin
  2
Block2
 70
     0
 10
0.0
 20
0.0
 30
0.0
  3
Block2
  1

  0
CIRCLE
  5
88
330
85
100
AcDbEntity
  8
FORMAT
100
AcDbCircle
 10
44.9757425281
 20
71.5551333392
 30
0.0
 40
3.500000000000012
  0
CIRCLE
  5
89
330
85
100
AcDbEntity
  8
FORMAT
100
AcDbCircle
 10
44.9757425281
 20
71.5551333392
 30
0.0
 40
1.664444312410222
  0
LINE
  5
8A
330
85
100
AcDbEntity
  8
FORMAT
100
AcDbLine
 10
50.8419693267
 20
74.6444962432
 30
0.0
 11
58.8419693267
 21
73.6204905773
 31
0.0
  0
LINE
  5
8B
330
85
100
AcDbEntity
  8
FORMAT
100
AcDbLine
 10
58.8419693267
 20
73.6204905773
 30
0.0
 11
58.8419693267
 21
69.4897761011
 31
0.0
  0
LINE
  5
8C
330
85
100
AcDbEntity
  8
FORMAT
100
AcDbLine
 10
58.8419693267
 20
69.4897761011
 30
0.0
 11
50.8419693267
 21
68.4657704351
 31
0.0
  0
LINE
  5
8D
330
85
100
AcDbEntity
  8
FORMAT
100
AcDbLine
 10
50.8419693267
 20
68.4657704351
 30
0.0
 11
50.8419693267
 21
74.6444962432
 31
0.0
  0
LINE
  5
8E
330
85
100
AcDbEntity
  8
FORMAT
  6
CENTERX2
100
AcDbLine
 10
58.8419693267
 20
71.5551333392
 30
0.0
 11
40.5246830005
 21
71.5551333392
 31
0.0
  0
LINE
  5
8F
330
85
100
AcDbEntity
  8
FORMAT
100
AcDbLine
 10
44.9757425281
 20
77.2283416432
 30
0.0
 11
44.9757425281
 21
65.8819250352
 31
0.0
  0
ENDBLK
  5
87
330
85
100
AcDbEntity
  8
0
100
AcDbBlockEnd
  0
BLOCK
  5
91
330
90
100
AcDbEntity
  8
0
100
AcDbBlockBegin
  2
Block7
 70
     0
 10
0.0
 20
0.0
 30
0.0
  3
Block7
  1

  0
LINE
  5
93
330
90
100
AcDbEntity
  8
FORMAT
100
AcDbLine
 10
221.8284763776
 20
80.2705155621
 30
0.0
 11
222.3963943455
 21
79.286852787
 31
0.0
  0
LINE
  5
94
330
90
100
AcDbEntity
  8
FORMAT
100
AcDbLine
 10
222.3963943455
 20
79.286852787
 30
0.0
 11
222.9643123135
 21
80.2705155621
 31
0.0
  0
LINE
  5
95
330
90
100
AcDbEntity
  8
FORMAT
100
AcDbLine
 10
221.8284763776
 20
80.2705155621
 30
0.0
 11
222.9643123135
 21
80.2705155621
 31
0.0
  0
LINE
  5
96
330
90
100
AcDbEntity
  8
FORMAT
100
AcDbLine
 10
222.9643123135
 20
80.2705155621
 30
0.0
 11
223.3725273771
 21
80.9775647926
 31
0.0
  0
LINE
  5
97
330
90
100
AcDbEntity
  8
FORMAT
100
AcDbLine
 10
223.3725273771
 20
80.9775647926
 30
0.0
 11
224.1023154201
 21
80.9775647926
 31
0.0
  0
ENDBLK
  5
92
330
90
100
AcDbEntity
  8
0
100
AcDbBlockEnd
  0
ENDSEC
  0
SECTION
  2
ENTITIES
  0
LINE
  5
98
330
1F
100
AcDbEntity
  8
0
  6
Continuous
 62
     7
370
    25
100
AcDbLine
 10
241.8411454354
 20
196.1574723862
 30
0.0
 11
243.4461504249
 21
197.3823446151
 31
0.0
  0
LINE
  5
99
330
1F
100
AcDbEntity
  8
0
  6
Continuous
 62
     7
370
    25
100
AcDbLine
 10
243.4461504249
 20
209.2326001574
 30
0.0
 11
241.8411454354
 21
210.4574723862
 31
0.0
  0
ARC
  5
9A
330
1F
100
AcDbEntity
  8
0
  6
Continuous
 62
     7
370
    25
100
AcDbCircle
 10
242.9911454354
 20
197.9785580496
 30
0.0
 40
0.7500000000000014
100
AcDbArc
 50
307.3493490446
 51
0.0
  0
ARC
  5
9B
330
1F
100
AcDbEntity
  8
0
  6
Continuous
 62
     7
370
    25
100
AcDbCircle
 10
242.9911454354
 20
208.6363867229
 30
0.0
 40
0.7500000000000014
100
AcDbArc
 50
0.0
 51
52.6506509554
  0
ARC
  5
9C
330
1F
100
AcDbEntity
  8
0
  6
Continuous
 62
     7
370
    25
100
AcDbCircle
 10
243.7411454354
 20
199.3074723862
 30
0.0
 40
0.5
100
AcDbArc
 50
270.0
 51
336.742337232
  0
ARC
  5
9D
330
1F
100
AcDbEntity
  8
0
  6
Continuous
 62
     7
370
    25
100
AcDbCircle
 10
243.7411454354
 20
207.3074723862
 30
0.0
 40
0.5
100
AcDbArc
 50
23.257662768
 51
90.0
  0
LINE
  5
9E
330
1F
100
AcDbEntity
  8
0
  6
Continuous
 62
     7
370
    25
100
AcDbLine
 10
241.8411454354
 20
199.8841040156
 30
0.0
 11
242.9232137512
 21
198.9320816125
 31
0.0
  0
ARC
  5
9F
330
1F
100
AcDbEntity
  8
0
  6
Continuous
 62
     7
370
    25
100
AcDbCircle
 10
234.4343253555
 20
203.3074723862
 30
0.0
 40
10.62999999999999
100
AcDbArc
 50
6.6431237694
 51
23.257662768
  0
ARC
  5
A0
330
1F
100
AcDbEntity
  8
0
  6
Continuous
 62
     7
370
    25
100
AcDbCircle
 10
234.4343253555
 20
203.3074723862
 30
0.0
 40
10.62999999999999
100
AcDbArc
 50
336.742337232
 51
353.3915325368
  0
LINE
  5
A1
330
1F
100
AcDbEntity
  8
0
  6
Continuous
 62
     7
370
    25
100
AcDbLine
 10
244.7330764033
 20
204.4341702899
 30
0.0
 11
244.9974210982
 21
204.4341702899
 31
0.0
  0
LINE
  5
A2
330
1F
100
AcDbEntity
  8
0
  6
Continuous
 62
     7
370
    25
100
AcDbLine
 10
244.9974210982
 20
202.1807744825
 30
0.0
 11
244.8975892966
 21
202.1807744825
 31
0.0
  0
ARC
  5
A3
330
1F
100
AcDbEntity
  8
0
  6
Continuous
 62
     7
370
    25
100
AcDbCircle
 10
59.3411454354
 20
207.3074723862
 30
0.0
 40
0.5
100
AcDbArc
 50
90.0
 51
156.742337232
  0
ARC
  5
A4
330
1F
100
AcDbEntity
  8
0
  6
Continuous
 62
     7
370
    25
100
AcDbCircle
 10
59.3411454354
 20
199.3074723862
 30
0.0
 40
0.5
100
AcDbArc
 50
203.257662768
 51
270.0
  0
ARC
  5
A5
330
1F
100
AcDbEntity
  8
0
  6
Continuous
 62
     7
370
    25
100
AcDbCircle
 10
68.6479655153
 20
203.3074723862
 30
0.0
 40
10.63000000000003
100
AcDbArc
 50
186.6454578524
 51
203.257662768
  0
ARC
  5
A6
330
1F
100
AcDbEntity
  8
0
  6
Continuous
 62
     7
370
    25
100
AcDbCircle
 10
68.6479655153
 20
203.3074723862
 30
0.0
 40
10.63000000000001
100
AcDbArc
 50
156.742337232
 51
173.3788698941
  0
LINE
  5
A7
330
1F
100
AcDbEntity
  8
0
  6
Continuous
 62
     7
370
    25
100
AcDbLine
 10
58.0843432907
 20
204.4341702899
 30
0.0
 11
58.3492144675
 21
204.4341702899
 31
0.0
  0
LINE
  5
A8
330
1F
100
AcDbEntity
  8
0
  6
Continuous
 62
     7
370
    25
100
AcDbLine
 10
58.1847015742
 20
202.1807744825
 30
0.0
 11
58.0843432907
 21
202.1807744825
 31
0.0
  0
LINE
  5
A9
330
1F
100
AcDbEntity
  8
0
  6
Continuous
 62
     7
370
    25
100
AcDbLine
 10
61.2411454354
 20
210.4574723862
 30
0.0
 11
59.6361404459
 21
209.2326001574
 31
0.0
  0
LINE
  5
AA
330
1F
100
AcDbEntity
  8
0
  6
Continuous
 62
     7
370
    25
100
AcDbLine
 10
59.6361404459
 20
197.3823446151
 30
0.0
 11
61.2411454354
 21
196.1574723862
 31
0.0
  0
ARC
  5
AB
330
1F
100
AcDbEntity
  8
0
  6
Continuous
 62
     7
370
    25
100
AcDbCircle
 10
60.0911454354
 20
208.6363867229
 30
0.0
 40
0.7500000000000014
100
AcDbArc
 50
127.3493490446
 51
180.0
  0
ARC
  5
AC
330
1F
100
AcDbEntity
  8
0
  6
Continuous
 62
     7
370
    25
100
AcDbCircle
 10
60.0911454354
 20
197.9785580496
 30
0.0
 40
0.7500000000000014
100
AcDbArc
 50
180.0
 51
232.6506509554
  0
LINE
  5
AD
330
1F
100
AcDbEntity
  8
0
  6
Continuous
 62
     7
370
    25
100
AcDbLine
 10
66.1031014783
 20
212.2831304305
 30
0.0
 11
61.7324192322
 21
212.2068398881
 31
0.0
  0
LINE
  5
AE
330
1F
100
AcDbEntity
  8
0
  6
Continuous
 62
     7
370
    25
100
AcDbLine
 10
61.7324192322
 20
194.4081048844
 30
0.0
 11
67.0365216922
 21
194.3155214316
 31
0.0
  0
ARC
  5
AF
330
1F
100
AcDbEntity
  8
0
  6
Continuous
 62
     7
370
    25
100
AcDbCircle
 10
61.7411454354
 20
211.7069160405
 30
0.0
 40
0.5000000000000048
100
AcDbArc
 50
91.0
 51
180.0
  0
ARC
  5
B0
330
1F
100
AcDbEntity
  8
0
  6
Continuous
 62
     7
370
    25
100
AcDbCircle
 10
61.7411454354
 20
194.908028732
 30
0.0
 40
0.5000000000000048
100
AcDbArc
 50
180.0
 51
269.0
  0
SPLINE
  5
B1
330
1F
100
AcDbEntity
  8
0
  6
Continuous
 62
     7
370
    25
100
AcDbSpline
210
0.0
220
0.0
230
1.0
 70
     8
 71
     3
 72
    12
 73
     8
 74
     0
 42
0.00000001
 43
0.00000001
 40
0.0
 40
0.0
 40
0.0
 40
0.0
 40
0.1110213958485484
 40
0.4537544599013409
 40
0.730499587047022
 40
0.9573202587385997
 40
1.0
 40
1.0
 40
1.0
 40
1.0
 10
68.31476950567134
 20
193.9485341189449
 30
0.0
 10
68.40887386249176
 20
193.892759239408
 30
0.0
 10
68.79348685782527
 20
193.6648022753755
 30
0.0
 10
69.27386544522474
 20
193.3357612349275
 30
0.0
 10
69.66518947642557
 20
193.0412884173928
 30
0.0
 10
69.80774632256006
 20
192.8773150939169
 30
0.0
 10
69.78509231869432
 20
192.911240994625
 30
0.0
 10
69.78150469145127
 20
192.9166137087088
 30
0.0
  0
ARC
  5
B2
330
1F
100
AcDbEntity
  8
0
  6
Continuous
 62
     7
370
    25
100
AcDbCircle
 10
66.9911454354
 20
191.7159174242
 30
0.0
 40
2.600000000000013
100
AcDbArc
 50
59.4420525213
 51
89.0
  0
SPLINE
  5
B3
330
1F
100
AcDbEntity
  8
0
  6
Continuous
 62
     7
370
    25
100
AcDbSpline
210
0.0
220
0.0
230
1.0
 70
     8
 71
     3
 72
    13
 73
     9
 74
     0
 42
0.00000001
 43
0.00000001
 40
0.0
 40
0.0
 40
0.0
 40
0.0
 40
0.0257777025631122
 40
0.188992481979516
 40
0.3912819398086742
 40
0.63912533502418
 40
0.9333979274773946
 40
1.0
 40
1.0
 40
1.0
 40
1.0
 10
69.81903795322789
 20
214.0453608483492
 30
0.0
 10
69.82195314168973
 20
214.0494194554973
 30
0.0
 10
69.84332621407628
 20
214.0791756463927
 30
0.0
 10
69.72524088746815
 20
213.9483220821211
 30
0.0
 10
69.42282654225458
 20
213.7184628554764
 30
0.0
 10
68.82774163122933
 20
213.3290251782228
 30
0.0
 10
68.2359835442567
 20
212.9848557161299
 30
0.0
 10
67.81149669300676
 20
212.7581285711858
 30
0.0
 10
67.73315452383916
 20
212.7162844097193
 30
0.0
  0
ARC
  5
B4
330
1F
100
AcDbEntity
  8
0
  6
Continuous
 62
     7
370
    25
100
AcDbCircle
 10
66.0411454354
 20
215.8325897483
 30
0.0
 40
3.549999999999984
100
AcDbArc
 50
271.0
 51
298.1920130769
  0
ARC
  5
B5
330
1F
100
AcDbEntity
  8
0
  6
Continuous
 62
     7
370
    25
100
AcDbCircle
 10
75.5911454354
 20
191.8355827715
 30
0.0
 40
0.5
100
AcDbArc
 50
269.0
 51
0.0
  0
ARC
  5
B6
330
1F
100
AcDbEntity
  8
0
  6
Continuous
 62
     7
370
    25
100
AcDbCircle
 10
75.5911454354
 20
214.779362001
 30
0.0
 40
0.5000000000000063
100
AcDbArc
 50
0.0
 51
91.0
  0
LINE
  5
B7
330
1F
100
AcDbEntity
  8
0
  6
Continuous
 62
     7
370
    25
100
AcDbLine
 10
71.5562406225
 20
191.405936133
 30
0.0
 11
75.5824192322
 21
191.3356589239
 31
0.0
  0
LINE
  5
B8
330
1F
100
AcDbEntity
  8
0
  6
Continuous
 62
     7
370
    25
100
AcDbLine
 10
75.5824192322
 20
215.2792858485
 30
0.0
 11
71.5562406225
 21
215.2090086395
 31
0.0
  0
ARC
  5
B9
330
1F
100
AcDbEntity
  8
0
  6
Continuous
 62
     7
370
    25
100
AcDbCircle
 10
71.5911454354
 20
193.4056315233
 30
0.0
 40
2.000000000000006
100
AcDbArc
 50
194.5234270308
 51
269.0
  0
LINE
  5
BA
330
1F
100
AcDbEntity
  8
0
  6
Continuous
 62
     7
370
    25
100
AcDbLine
 10
61.2411454354
 20
208.0666710686
 30
0.0
 11
61.1656798814
 21
207.8115321821
 31
0.0
  0
LINE
  5
BB
330
1F
100
AcDbEntity
  8
0
  6
Continuous
 62
     7
370
    25
100
AcDbLine
 10
61.1695292055
 20
198.804091326
 30
0.0
 11
61.2411454354
 21
198.5585057098
 31
0.0
  0
ARC
  5
BC
330
1F
100
AcDbEntity
  8
0
  6
Continuous
 62
     7
370
    25
100
AcDbCircle
 10
71.5911454354
 20
213.2093132492
 30
0.0
 40
2.000000000000007
100
AcDbArc
 50
91.0
 51
154.3886051651
  0
LINE
  5
BD
330
1F
100
AcDbEntity
  8
0
  6
Continuous
 62
     7
370
    25
100
AcDbLine
 10
236.9791893926
 20
194.5772356308
 30
0.0
 11
241.3498716386
 21
194.6535261732
 31
0.0
  0
LINE
  5
BE
330
1F
100
AcDbEntity
  8
0
  6
Continuous
 62
     7
370
    25
100
AcDbLine
 10
241.3498716386
 20
212.4522611769
 30
0.0
 11
236.0457691787
 21
212.5448446297
 31
0.0
  0
ARC
  5
BF
330
1F
100
AcDbEntity
  8
0
  6
Continuous
 62
     7
370
    25
100
AcDbCircle
 10
241.3411454354
 20
195.1534500208
 30
0.0
 40
0.5
100
AcDbArc
 50
271.0
 51
0.0
  0
ARC
  5
C0
330
1F
100
AcDbEntity
  8
0
  6
Continuous
 62
     7
370
    25
100
AcDbCircle
 10
241.3411454354
 20
211.9523373293
 30
0.0
 40
0.5
100
AcDbArc
 50
0.0
 51
89.0
  0
SPLINE
  5
C1
330
1F
100
AcDbEntity
  8
0
  6
Continuous
 62
     7
370
    25
100
AcDbSpline
210
0.0
220
0.0
230
1.0
 70
     8
 71
     3
 72
    12
 73
     8
 74
     0
 42
0.00000001
 43
0.00000001
 40
0.0
 40
0.0
 40
0.0
 40
0.0
 40
0.111021395848553
 40
0.4537544599013409
 40
0.7304995870469854
 40
0.957320258738588
 40
0.9999999999999999
 40
0.9999999999999999
 40
0.9999999999999999
 40
0.9999999999999999
 10
234.7675213651594
 20
212.9118319423627
 30
0.0
 10
234.673417008339
 20
212.9676068218995
 30
0.0
 10
234.2888040130055
 20
213.1955637859321
 30
0.0
 10
233.808425425606
 20
213.5246048263801
 30
0.0
 10
233.4171013944053
 20
213.8190776439148
 30
0.0
 10
233.2745445482707
 20
213.9830509673907
 30
0.0
 10
233.2971985521364
 20
213.9491250666826
 30
0.0
 10
233.3007861793795
 20
213.9437523525988
 30
0.0
  0
ARC
  5
C2
330
1F
100
AcDbEntity
  8
0
  6
Continuous
 62
     7
370
    25
100
AcDbCircle
 10
236.0911454354
 20
215.1444486371
 30
0.0
 40
2.599999999999994
100
AcDbArc
 50
239.4420525213
 51
269.0
  0
SPLINE
  5
C3
330
1F
100
AcDbEntity
  8
0
  6
Continuous
 62
     7
370
    25
100
AcDbSpline
210
0.0
220
0.0
230
1.0
 70
     8
 71
     3
 72
    13
 73
     9
 74
     0
 42
0.00000001
 43
0.00000001
 40
0.0
 40
0.0
 40
0.0
 40
0.0
 40
0.0257777025631259
 40
0.1889924819795299
 40
0.3912819398086738
 40
0.6391253350241691
 40
0.9333979274773748
 40
0.9999999999999999
 40
0.9999999999999999
 40
0.9999999999999999
 40
0.9999999999999999
 10
233.2632529176029
 20
192.8150052129584
 30
0.0
 10
233.260337729141
 20
192.8109466058102
 30
0.0
 10
233.2389646567545
 20
192.7811904149148
 30
0.0
 10
233.3570499833626
 20
192.9120439791864
 30
0.0
 10
233.6594643285761
 20
193.1419032058312
 30
0.0
 10
234.2545492396014
 20
193.5313408830847
 30
0.0
 10
234.846307326574
 20
193.8755103451776
 30
0.0
 10
235.2707941778239
 20
194.1022374901218
 30
0.0
 10
235.3491363469916
 20
194.1440816515883
 30
0.0
  0
ARC
  5
C4
330
1F
100
AcDbEntity
  8
0
  6
Continuous
 62
     7
370
    25
100
AcDbCircle
 10
237.0411454354
 20
191.027776313
 30
0.0
 40
3.550000000000041
100
AcDbArc
 50
91.0
 51
118.1920130769
  0
ARC
  5
C5
330
1F
100
AcDbEntity
  8
0
  6
Continuous
 62
     7
370
    25
100
AcDbCircle
 10
227.4911454354
 20
215.0247832898
 30
0.0
 40
0.5000000000000347
100
AcDbArc
 50
89.0
 51
180.0
  0
ARC
  5
C6
330
1F
100
AcDbEntity
  8
0
  6
Continuous
 62
     7
370
    25
100
AcDbCircle
 10
227.4911454354
 20
192.0810040603
 30
0.0
 40
0.5
100
AcDbArc
 50
180.0
 51
271.0
  0
LINE
  5
C7
330
1F
100
AcDbEntity
  8
0
  6
Continuous
 62
     7
370
    25
100
AcDbLine
 10
227.4998716386
 20
191.5810802128
 30
0.0
 11
231.5260502483
 21
191.6513574218
 31
0.0
  0
LINE
  5
C8
330
1F
100
AcDbEntity
  8
0
  6
Continuous
 62
     7
370
    25
100
AcDbLine
 10
231.5260502483
 20
215.4544299283
 30
0.0
 11
227.4998716386
 21
215.5247071374
 31
0.0
  0
ARC
  5
C9
330
1F
100
AcDbEntity
  8
0
  6
Continuous
 62
     7
370
    25
100
AcDbCircle
 10
231.4911454354
 20
213.454734538
 30
0.0
 40
2.000000000000013
100
AcDbArc
 50
14.5234270308
 51
89.0
  0
SPLINE
  5
CA
330
1F
100
AcDbEntity
  8
0
  6
Continuous
 62
     7
370
    25
100
AcDbSpline
210
0.0
220
0.0
230
1.0
 70
     8
 71
     3
 72
     9
 73
     5
 74
     0
 42
0.00000001
 43
0.00000001
 40
0.0
 40
0.0
 40
0.0
 40
0.0
 40
0.6627403955522362
 40
1.0
 40
1.0
 40
1.0
 40
1.0
 10
241.8411454354154
 20
198.793694992711
 30
0.0
 10
241.8841180522569
 20
198.9482342993465
 30
0.0
 10
241.948958851354
 20
199.1814165644877
 30
0.0
 10
242.0671986276396
 20
199.5319222037307
 30
0.0
 10
242.1070761278197
 20
199.6501335969786
 30
0.0
  0
LINE
  5
CB
330
1F
100
AcDbEntity
  8
0
  6
Continuous
 62
     7
370
    25
100
AcDbLine
 10
241.981641301
 20
207.8200734194
 30
0.0
 11
241.8411454354
 21
208.3018603515
 31
0.0
  0
ARC
  5
CC
330
1F
100
AcDbEntity
  8
0
  6
Continuous
 62
     7
370
    25
100
AcDbCircle
 10
231.4911454354
 20
193.6510528121
 30
0.0
 40
2.00000000000002
100
AcDbArc
 50
271.0
 51
334.3886051651
  0
LINE
  5
CD
330
1F
100
AcDbEntity
  8
0
  6
Continuous
 62
     7
370
    25
100
AcDbLine
 10
226.9911454354
 20
208.9574723862
 30
0.0
 11
220.3411454354
 21
208.9574723862
 31
0.0
  0
LINE
  5
CE
330
1F
100
AcDbEntity
  8
0
  6
Continuous
 62
     7
370
    25
100
AcDbLine
 10
220.3411454354
 20
197.6574723862
 30
0.0
 11
226.9911454354
 21
197.6574723862
 31
0.0
  0
LINE
  5
CF
330
1F
100
AcDbEntity
  8
0
  6
Continuous
 62
     7
370
    25
100
AcDbLine
 10
219.0611399042
 20
193.7454667168
 30
0.0
 11
220.3411454354
 21
195.0574723862
 31
0.0
  0
LINE
  5
D0
330
1F
100
AcDbEntity
  8
0
  6
Continuous
 62
     7
370
    25
100
AcDbLine
 10
220.3411454354
 20
211.5574723862
 30
0.0
 11
219.0611399042
 21
212.8694780557
 31
0.0
  0
LINE
  5
D1
330
1F
100
AcDbEntity
  8
0
  6
Continuous
 62
     7
370
    25
100
AcDbLine
 10
213.21810081
 20
212.7074723862
 30
0.0
 11
212.8911454354
 21
212.7074723862
 31
0.0
  0
SPLINE
  5
D2
330
1F
100
AcDbEntity
  8
0
  6
Continuous
 62
     7
370
    25
100
AcDbSpline
210
0.0
220
0.0
230
1.0
 70
     8
 71
     3
 72
     9
 73
     5
 74
     0
 42
0.00000001
 43
0.00000001
 40
0.0
 40
0.0
 40
0.0
 40
0.0
 40
0.492159739404312
 40
0.9999999999999999
 40
0.9999999999999999
 40
0.9999999999999999
 40
0.9999999999999999
 10
212.5298715523796
 20
193.9289413501962
 30
0.0
 10
212.6010484928664
 20
194.0521291285028
 30
0.0
 10
212.7456701162704
 20
194.3024295258002
 30
0.0
 10
212.890320233687
 20
194.552703924296
 30
0.0
 10
212.9637793870109
 20
194.6798033400485
 30
0.0
  0
SPLINE
  5
D3
330
1F
100
AcDbEntity
  8
0
  6
Continuous
 62
     7
370
    25
100
AcDbSpline
210
0.0
220
0.0
230
1.0
 70
     8
 71
     3
 72
     9
 73
     5
 74
     0
 42
0.00000001
 43
0.00000001
 40
0.0
 40
0.0
 40
0.0
 40
0.0
 40
0.4981873554341416
 40
1.0
 40
1.0
 40
1.0
 40
1.0
 10
213.6693363283354
 20
211.9351390399534
 30
0.0
 10
213.5959617602972
 20
212.0620769729261
 30
0.0
 10
213.4486786804722
 20
212.3168765610491
 30
0.0
 10
213.3014444533806
 20
212.5717293984785
 30
0.0
 10
213.2275604565132
 20
212.6996177748042
 30
0.0
  0
SPLINE
  5
D4
330
1F
100
AcDbEntity
  8
0
  6
Continuous
 62
     7
370
    25
100
AcDbSpline
210
0.0
220
0.0
230
1.0
 70
     8
 71
     3
 72
     9
 73
     5
 74
     0
 42
0.00000001
 43
0.00000001
 40
0.0
 40
0.0
 40
0.0
 40
0.0
 40
0.5011659921197231
 40
1.0
 40
1.0
 40
1.0
 40
1.0
 10
213.1200841809826
 20
194.6799346246844
 30
0.0
 10
213.1938999601501
 20
194.5522293268554
 30
0.0
 10
213.3411880449929
 20
194.2974129589513
 30
0.0
 10
213.4884408898056
 20
194.0425540425736
 30
0.0
 10
213.5618956165553
 20
193.915421747873
 30
0.0
  0
LINE
  5
D5
330
1F
100
AcDbEntity
  8
0
  6
Continuous
 62
     7
370
    25
100
AcDbLine
 10
213.9877317121
 20
212.2154302484
 30
0.0
 11
213.8256394298
 21
211.9350096247
 31
0.0
  0
LINE
  5
D6
330
1F
100
AcDbEntity
  8
0
  6
Continuous
 62
     7
370
    25
100
AcDbLine
 10
213.5814049462
 20
193.9477318971
 30
0.0
 11
214.0411454354
 21
194.4074723862
 31
0.0
  0
LINE
  5
D7
330
1F
100
AcDbEntity
  8
0
  6
Continuous
 62
     7
370
    25
100
AcDbLine
 10
214.0411454354
 20
212.2074723862
 30
0.0
 11
214.0230169673
 21
212.2256008543
 31
0.0
  0
SPLINE
  5
D8
330
1F
100
AcDbEntity
  8
0
  6
Continuous
 62
     7
370
    25
100
AcDbSpline
210
0.0
220
0.0
230
1.0
 70
     8
 71
     3
 72
     9
 73
     5
 74
     0
 42
0.00000001
 43
0.00000001
 40
0.0
 40
0.0
 40
0.0
 40
0.0
 40
0.5178081832965679
 40
1.0
 40
1.0
 40
1.0
 40
1.0
 10
212.9538089056022
 20
194.6712587074385
 30
0.0
 10
212.9833868717371
 20
194.6712699138232
 30
0.0
 10
213.0405083446859
 20
194.6712915557847
 30
0.0
 10
213.0975789449546
 20
194.6712702614126
 30
0.0
 10
213.1250979213785
 20
194.6712599934408
 30
0.0
  0
SPLINE
  5
D9
330
1F
100
AcDbEntity
  8
0
  6
Continuous
 62
     7
370
    25
100
AcDbSpline
210
0.0
220
0.0
230
1.0
 70
     8
 71
     3
 72
     9
 73
     5
 74
     0
 42
0.00000001
 43
0.00000001
 40
0.0
 40
0.0
 40
0.0
 40
0.0
 40
0.5105586537199035
 40
1.0
 40
1.0
 40
1.0
 40
1.0
 10
213.8357527450248
 20
211.9436860632826
 30
0.0
 10
213.8066314988786
 20
211.9436605640927
 30
0.0
 10
213.7495934956364
 20
211.9436106203894
 30
0.0
 10
213.692393833364
 20
211.9436593434826
 30
0.0
 10
213.6643979536545
 20
211.943683190579
 30
0.0
  0
LINE
  5
DA
330
1F
100
AcDbEntity
  8
0
  6
Continuous
 62
     7
370
    25
100
AcDbLine
 10
214.0411454354
 20
195.1824723862
 30
0.0
 11
215.5411454354
 21
195.1824723862
 31
0.0
  0
LINE
  5
DB
330
1F
100
AcDbEntity
  8
0
  6
Continuous
 62
     7
370
    25
100
AcDbLine
 10
215.5411454354
 20
211.4324723862
 30
0.0
 11
214.0411454354
 21
211.4324723862
 31
0.0
  0
LINE
  5
DC
330
1F
100
AcDbEntity
  8
0
  6
Continuous
 62
     7
370
    25
100
AcDbLine
 10
85.27181662
 20
212.8701603504
 30
0.0
 11
83.9911454354
 21
211.5574723862
 31
0.0
  0
LINE
  5
DD
330
1F
100
AcDbEntity
  8
0
  6
Continuous
 62
     7
370
    25
100
AcDbLine
 10
83.9911454354
 20
195.0574723862
 30
0.0
 11
85.27181662
 21
193.744784422
 31
0.0
  0
LINE
  5
DE
330
1F
100
AcDbEntity
  8
0
  6
Continuous
 62
     7
370
    25
100
AcDbLine
 10
91.390606936
 20
193.9074723862
 30
0.0
 11
91.4411454354
 21
193.9074723862
 31
0.0
  0
LINE
  5
DF
330
1F
100
AcDbEntity
  8
0
  6
Continuous
 62
     7
370
    25
100
AcDbLine
 10
91.0375833036
 20
212.7074723862
 30
0.0
 11
90.7911454354
 21
212.7074723862
 31
0.0
  0
SPLINE
  5
E0
330
1F
100
AcDbEntity
  8
0
  6
Continuous
 62
     7
370
    25
100
AcDbSpline
210
0.0
220
0.0
230
1.0
 70
     8
 71
     3
 72
     9
 73
     5
 74
     0
 42
0.00000001
 43
0.00000001
 40
0.0
 40
0.0
 40
0.0
 40
0.0
 40
0.188823038340184
 40
1.0
 40
1.0
 40
1.0
 40
1.0
 10
90.50526517659068
 20
212.4044121402275
 30
0.0
 10
90.48819224905307
 20
212.374863810242
 30
0.0
 10
90.39777464065264
 20
212.2183769204788
 30
0.0
 10
90.30731330489702
 20
212.0618847772604
 30
0.0
 10
90.23393315341107
 20
211.9349419560008
 30
0.0
  0
SPLINE
  5
E1
330
1F
100
AcDbEntity
  8
0
  6
Continuous
 62
     7
370
    25
100
AcDbSpline
210
0.0
220
0.0
230
1.0
 70
     8
 71
     3
 72
     9
 73
     5
 74
     0
 42
0.00000001
 43
0.00000001
 40
0.0
 40
0.0
 40
0.0
 40
0.0
 40
0.4987433617574073
 40
1.0
 40
1.0
 40
1.0
 40
1.0
 10
90.9394898568275
 20
194.680000851608
 30
0.0
 10
91.01295297850695
 20
194.5528952961713
 30
0.0
 10
91.16024941854491
 20
194.2980436727055
 30
0.0
 10
91.30750126250351
 20
194.0432075442736
 30
0.0
 10
91.38131222678122
 20
193.915469243233
 30
0.0
  0
SPLINE
  5
E2
330
1F
100
AcDbEntity
  8
0
  6
Continuous
 62
     7
370
    25
100
AcDbSpline
210
0.0
220
0.0
230
1.0
 70
     8
 71
     3
 72
     9
 73
     5
 74
     0
 42
0.00000001
 43
0.00000001
 40
0.0
 40
0.0
 40
0.0
 40
0.0
 40
0.5011130755725027
 40
1.0
 40
1.0
 40
1.0
 40
1.0
 10
91.48874124499726
 20
211.9352071428116
 30
0.0
 10
91.41493742888802
 20
212.0629007529209
 30
0.0
 10
91.26765766368752
 20
212.3177207054106
 30
0.0
 10
91.12043040938158
 20
212.572535678289
 30
0.0
 10
91.046980657289
 20
212.6996595364064
 30
0.0
  0
SPLINE
  5
E3
330
1F
100
AcDbEntity
  8
0
  6
Continuous
 62
     7
370
    25
100
AcDbSpline
210
0.0
220
0.0
230
1.0
 70
     8
 71
     3
 72
     9
 73
     5
 74
     0
 42
0.00000001
 43
0.00000001
 40
0.0
 40
0.0
 40
0.0
 40
0.0
 40
0.1964851983542631
 40
1.0
 40
1.0
 40
1.0
 40
1.0
 10
90.51248062823039
 20
194.2130437467086
 30
0.0
 10
90.53047793434385
 20
194.2441288984622
 30
0.0
 10
90.6220741780518
 20
194.4023349720696
 30
0.0
 10
90.71390726643637
 20
194.5614487455476
 30
0.0
 10
90.78769651223422
 20
194.6892990176829
 30
0.0
  0
LINE
  5
E4
330
1F
100
AcDbEntity
  8
0
  6
Continuous
 62
     7
370
    25
100
AcDbLine
 10
90.7911454354
 20
212.7074723862
 30
0.0
 11
90.5235213435
 21
212.4398482943
 31
0.0
  0
LINE
  5
E5
330
1F
100
AcDbEntity
  8
0
  6
Continuous
 62
     7
370
    25
100
AcDbLine
 10
90.2911454354
 20
194.4074723862
 30
0.0
 11
90.486874121
 21
194.2117437006
 31
0.0
  0
SPLINE
  5
E6
330
1F
100
AcDbEntity
  8
0
  6
Continuous
 62
     7
370
    25
100
AcDbSpline
210
0.0
220
0.0
230
1.0
 70
     8
 71
     3
 72
     9
 73
     5
 74
     0
 42
0.00000001
 43
0.00000001
 40
0.0
 40
0.0
 40
0.0
 40
0.0
 40
0.5166266336148583
 40
1.0
 40
1.0
 40
1.0
 40
1.0
 10
91.6555264767283
 20
211.9436777803053
 30
0.0
 10
91.62594846741028
 20
211.9436800094064
 30
0.0
 10
91.56869627134934
 20
211.9436843241297
 30
0.0
 10
91.51149508874278
 20
211.9436800720017
 30
0.0
 10
91.48384556054503
 20
211.9436780166363
 30
0.0
  0
SPLINE
  5
E7
330
1F
100
AcDbEntity
  8
0
  6
Continuous
 62
     7
370
    25
100
AcDbSpline
210
0.0
220
0.0
230
1.0
 70
     8
 71
     3
 72
     9
 73
     5
 74
     0
 42
0.00000001
 43
0.00000001
 40
0.0
 40
0.0
 40
0.0
 40
0.0
 40
0.4973303336687774
 40
1.0
 40
1.0
 40
1.0
 40
1.0
 10
90.80415938431244
 20
194.7557124865963
 30
0.0
 10
90.8333887502464
 20
194.7543480067246
 30
0.0
 10
90.89216128824611
 20
194.7516043979412
 30
0.0
 10
90.95098125842027
 20
194.7543382580484
 30
0.0
 10
90.98054827320132
 20
194.7557124865963
 30
0.0
  0
LINE
  5
E8
330
1F
100
AcDbEntity
  8
0
  6
Continuous
 62
     7
370
    25
100
AcDbLine
 10
90.2911454354
 20
211.4324723862
 30
0.0
 11
88.7911454354
 21
211.4324723862
 31
0.0
  0
LINE
  5
E9
330
1F
100
AcDbEntity
  8
0
  6
Continuous
 62
     7
370
    25
100
AcDbLine
 10
88.7911454354
 20
195.1824723862
 30
0.0
 11
90.2911454354
 21
195.1824723862
 31
0.0
  0
LINE
  5
EA
330
1F
100
AcDbEntity
  8
0
  6
Continuous
 62
     7
370
    25
100
AcDbLine
 10
195.8051280724
 20
219.6214550232
 30
0.0
 11
195.6911454354
 21
219.5074723862
 31
0.0
  0
LINE
  5
EB
330
1F
100
AcDbEntity
  8
0
  6
Continuous
 62
     7
370
    25
100
AcDbLine
 10
195.6911454354
 20
187.1074723862
 30
0.0
 11
195.8051280724
 21
186.9934897493
 31
0.0
  0
LINE
  5
EC
330
1F
100
AcDbEntity
  8
0
  6
Continuous
 62
     7
370
    25
100
AcDbLine
 10
205.0271627985
 20
186.9934897493
 30
0.0
 11
205.1411454354
 21
187.1074723862
 31
0.0
  0
LINE
  5
ED
330
1F
100
AcDbEntity
  8
0
  6
Continuous
 62
     7
370
    25
100
AcDbLine
 10
205.1411454354
 20
219.5074723862
 30
0.0
 11
205.0271627985
 21
219.6214550232
 31
0.0
  0
ARC
  5
EE
330
1F
100
AcDbEntity
  8
0
  6
Continuous
 62
     7
370
    25
100
AcDbCircle
 10
205.1411454354
 20
197.5664840141
 30
0.0
 40
9.134011627906984
100
AcDbArc
 50
270.0
 51
328.0464183091
  0
ARC
  5
EF
330
1F
100
AcDbEntity
  8
0
  6
Continuous
 62
     7
370
    25
100
AcDbCircle
 10
205.1411454354
 20
209.0484607583
 30
0.0
 40
9.134011627906972
100
AcDbArc
 50
31.9535816909
 51
90.0
  0
LINE
  5
F0
330
1F
100
AcDbEntity
  8
0
  6
Continuous
 62
     7
370
    25
100
AcDbLine
 10
203.9477920708
 20
220.0347571177
 30
0.0
 11
196.897492519
 21
220.0347571177
 31
0.0
  0
LINE
  5
F1
330
1F
100
AcDbEntity
  8
0
  6
Continuous
 62
     7
370
    25
100
AcDbLine
 10
196.897492519
 20
186.5801876548
 30
0.0
 11
203.9477920708
 21
186.5801876548
 31
0.0
  0
LINE
  5
F2
330
1F
100
AcDbEntity
  8
0
  6
Continuous
 62
     7
370
    25
100
AcDbLine
 10
108.4910722342
 20
186.957399185
 30
0.0
 11
108.6411454354
 21
187.1074723862
 31
0.0
  0
LINE
  5
F3
330
1F
100
AcDbEntity
  8
0
  6
Continuous
 62
     7
370
    25
100
AcDbLine
 10
108.6411454354
 20
219.5074723862
 30
0.0
 11
108.4910722342
 21
219.6575455875
 31
0.0
  0
LINE
  5
F4
330
1F
100
AcDbEntity
  8
0
  6
Continuous
 62
     7
370
    25
100
AcDbLine
 10
99.3340073396
 20
219.6503342904
 30
0.0
 11
99.1911454354
 21
219.5074723862
 31
0.0
  0
LINE
  5
F5
330
1F
100
AcDbEntity
  8
0
  6
Continuous
 62
     7
370
    25
100
AcDbLine
 10
99.1911454354
 20
187.1074723862
 30
0.0
 11
99.3340073396
 21
186.9646104821
 31
0.0
  0
ARC
  5
F6
330
1F
100
AcDbEntity
  8
0
  6
Continuous
 62
     7
370
    25
100
AcDbCircle
 10
99.1911454354
 20
209.0484607583
 30
0.0
 40
9.134011627906972
100
AcDbArc
 50
90.0
 51
148.0464183091
  0
ARC
  5
F7
330
1F
100
AcDbEntity
  8
0
  6
Continuous
 62
     7
370
    25
100
AcDbCircle
 10
99.1911454354
 20
197.5664840141
 30
0.0
 40
9.134011627906984
100
AcDbArc
 50
211.9535816909
 51
270.0
  0
LINE
  5
F8
330
1F
100
AcDbEntity
  8
0
  6
Continuous
 62
     7
370
    25
100
AcDbLine
 10
107.4477920708
 20
220.0347571177
 30
0.0
 11
100.397492519
 21
220.0347571177
 31
0.0
  0
LINE
  5
F9
330
1F
100
AcDbEntity
  8
0
  6
Continuous
 62
     7
370
    25
100
AcDbLine
 10
100.397492519
 20
186.5801876548
 30
0.0
 11
107.4477920708
 21
186.5801876548
 31
0.0
  0
LINE
  5
FA
330
1F
100
AcDbEntity
  8
0
  6
Continuous
 62
     7
370
    25
100
AcDbLine
 10
76.0911454354
 20
197.6574723862
 30
0.0
 11
83.9911454354
 21
197.6574723862
 31
0.0
  0
LINE
  5
FB
330
1F
100
AcDbEntity
  8
0
  6
Continuous
 62
     7
370
    25
100
AcDbLine
 10
83.9911454354
 20
208.9574723862
 30
0.0
 11
76.0911454354
 21
208.9574723862
 31
0.0
  0
SPLINE
  5
FC
330
1F
100
AcDbEntity
  8
0
  6
Continuous
 62
     7
370
    25
100
AcDbSpline
210
0.0
220
0.0
230
1.0
 70
     8
 71
     3
 72
     9
 73
     5
 74
     0
 42
0.00000001
 43
0.00000001
 40
0.0
 40
0.0
 40
0.0
 40
0.0
 40
0.5000043425884696
 40
0.9999999999999999
 40
0.9999999999999999
 40
0.9999999999999999
 40
0.9999999999999999
 10
109.2974537337592
 20
217.8021062323135
 30
0.0
 10
109.2192664213798
 20
217.6667330995841
 30
0.0
 10
109.0628931547506
 20
217.3959891855839
 30
0.0
 10
108.906515726232
 20
217.1252473519418
 30
0.0
 10
108.8283276910555
 20
216.9898776108411
 30
0.0
  0
SPLINE
  5
FD
330
1F
100
AcDbEntity
  8
0
  6
Continuous
 62
     7
370
    25
100
AcDbSpline
210
0.0
220
0.0
230
1.0
 70
     8
 71
     3
 72
     9
 73
     5
 74
     0
 42
0.00000001
 43
0.00000001
 40
0.0
 40
0.0
 40
0.0
 40
0.0
 40
0.496464475505401
 40
1.0
 40
1.0
 40
1.0
 40
1.0
 10
109.5816175961558
 20
189.6193711987396
 30
0.0
 10
109.6587089890195
 20
189.4859001082998
 30
0.0
 10
109.8139897727759
 20
189.2170569240942
 30
0.0
 10
109.9692664238293
 20
188.9482116741195
 30
0.0
 10
110.0474537337592
 20
188.8128385401657
 30
0.0
  0
SPLINE
  5
FE
330
1F
100
AcDbEntity
  8
0
  6
Continuous
 62
     7
370
    25
100
AcDbSpline
210
0.0
220
0.0
230
1.0
 70
     8
 71
     3
 72
     9
 73
     5
 74
     0
 42
0.00000001
 43
0.00000001
 40
0.0
 40
0.0
 40
0.0
 40
0.0
 40
0.5036319833775863
 40
1.0
 40
1.0
 40
1.0
 40
1.0
 10
195.0848604888902
 20
217.8019442804371
 30
0.0
 10
195.0066738708002
 20
217.6665722917252
 30
0.0
 10
194.8514283330454
 20
217.3977808067127
 30
0.0
 10
194.6961787561511
 20
217.1289918077904
 30
0.0
 10
194.6191178315867
 20
216.9955735455054
 30
0.0
  0
SPLINE
  5
FF
330
1F
100
AcDbEntity
  8
0
  6
Continuous
 62
     7
370
    25
100
AcDbSpline
210
0.0
220
0.0
230
1.0
 70
     8
 71
     3
 72
     9
 73
     5
 74
     0
 42
0.00000001
 43
0.00000001
 40
0.0
 40
0.0
 40
0.0
 40
0.0
 40
0.4999957547773067
 40
1.0
 40
1.0
 40
1.0
 40
1.0
 10
195.3657386459422
 20
189.6252217628955
 30
0.0
 10
195.4439259730301
 20
189.4898533264685
 30
0.0
 10
195.6003019549077
 20
189.2191141549182
 30
0.0
 10
195.7566738683403
 20
188.9483724792399
 30
0.0
 10
195.8348604888902
 20
188.8130004920421
 30
0.0
  0
LINE
  5
100
330
1F
100
AcDbEntity
  8
0
  6
Continuous
 62
     7
370
    25
100
AcDbLine
 10
193.7786454395
 20
217.8074723862
 30
0.0
 11
192.7411454354
 21
217.8074723862
 31
0.0
  0
LINE
  5
101
330
1F
100
AcDbEntity
  8
0
  6
Continuous
 62
     7
370
    25
100
AcDbLine
 10
195.2786454395
 20
217.8074723862
 30
0.0
 11
195.0911454354
 21
217.8074723862
 31
0.0
  0
LINE
  5
102
330
1F
100
AcDbEntity
  8
0
  6
Continuous
 62
     7
370
    25
100
AcDbLine
 10
194.3411454354
 20
188.8074723862
 30
0.0
 11
194.5286454395
 21
188.8074723862
 31
0.0
  0
LINE
  5
103
330
1F
100
AcDbEntity
  8
0
  6
Continuous
 62
     7
370
    25
100
AcDbLine
 10
192.7411454354
 20
188.8074723862
 30
0.0
 11
193.0286454395
 21
188.8074723862
 31
0.0
  0
SPLINE
  5
104
330
1F
100
AcDbEntity
  8
0
  6
Continuous
 62
     7
370
    25
100
AcDbSpline
210
0.0
220
0.0
230
1.0
 70
     8
 71
     3
 72
     9
 73
     5
 74
     0
 42
0.00000001
 43
0.00000001
 40
0.0
 40
0.0
 40
0.0
 40
0.0
 40
0.499995657411536
 40
1.0
 40
1.0
 40
1.0
 40
1.0
 10
195.7539631797752
 20
216.9898776108411
 30
0.0
 10
195.6757751445987
 20
217.1252473519418
 30
0.0
 10
195.5193977160801
 20
217.3959891855838
 30
0.0
 10
195.3630244494509
 20
217.666733099584
 30
0.0
 10
195.2848371370716
 20
217.8021062323135
 30
0.0
  0
SPLINE
  5
105
330
1F
100
AcDbEntity
  8
0
  6
Continuous
 62
     7
370
    25
100
AcDbSpline
210
0.0
220
0.0
230
1.0
 70
     8
 71
     3
 72
     9
 73
     5
 74
     0
 42
0.00000001
 43
0.00000001
 40
0.0
 40
0.0
 40
0.0
 40
0.0
 40
0.4999956574115359
 40
1.0
 40
1.0
 40
1.0
 40
1.0
 10
194.2539631797752
 20
216.9898776108411
 30
0.0
 10
194.1757751445987
 20
217.1252473519417
 30
0.0
 10
194.0193977160801
 20
217.3959891855838
 30
0.0
 10
193.8630244494509
 20
217.666733099584
 30
0.0
 10
193.7848371370716
 20
217.8021062323135
 30
0.0
  0
SPLINE
  5
106
330
1F
100
AcDbEntity
  8
0
  6
Continuous
 62
     7
370
    25
100
AcDbSpline
210
0.0
220
0.0
230
1.0
 70
     8
 71
     3
 72
     9
 73
     5
 74
     0
 42
0.00000001
 43
0.00000001
 40
0.0
 40
0.0
 40
0.0
 40
0.0
 40
0.5035355068673576
 40
1.0
 40
1.0
 40
1.0
 40
1.0
 10
194.5348371370716
 20
188.8128385401657
 30
0.0
 10
194.6130244470015
 20
188.9482116741196
 30
0.0
 10
194.7683011034906
 20
189.2170569335056
 30
0.0
 10
194.923581892683
 20
189.4859001271225
 30
0.0
 10
195.0006732909826
 20
189.6193712269738
 30
0.0
  0
SPLINE
  5
107
330
1F
100
AcDbEntity
  8
0
  6
Continuous
 62
     7
370
    25
100
AcDbSpline
210
0.0
220
0.0
230
1.0
 70
     8
 71
     3
 72
     9
 73
     5
 74
     0
 42
0.00000001
 43
0.00000001
 40
0.0
 40
0.0
 40
0.0
 40
0.0
 40
0.5035355244945954
 40
1.0
 40
1.0
 40
1.0
 40
1.0
 10
193.0348371370716
 20
188.8128385401657
 30
0.0
 10
193.1130244470015
 20
188.9482116741195
 30
0.0
 10
193.2683010980548
 20
189.2170569240942
 30
0.0
 10
193.4235818818112
 20
189.4859001082998
 30
0.0
 10
193.5006732746749
 20
189.6193711987396
 30
0.0
  0
LINE
  5
108
330
1F
100
AcDbEntity
  8
0
  6
Continuous
 62
     7
370
    25
100
AcDbLine
 10
110.0536454313
 20
188.8074723862
 30
0.0
 11
110.3411454354
 21
188.8074723862
 31
0.0
  0
LINE
  5
109
330
1F
100
AcDbEntity
  8
0
  6
Continuous
 62
     7
370
    25
100
AcDbLine
 10
108.6411454354
 20
188.8074723862
 30
0.0
 11
108.7411454354
 21
188.8074723862
 31
0.0
  0
LINE
  5
10A
330
1F
100
AcDbEntity
  8
0
  6
Continuous
 62
     7
370
    25
100
AcDbLine
 10
110.3411454354
 20
217.8074723862
 30
0.0
 11
109.3036454313
 21
217.8074723862
 31
0.0
  0
LINE
  5
10B
330
1F
100
AcDbEntity
  8
0
  6
Continuous
 62
     7
370
    25
100
AcDbLine
 10
108.8316175798
 20
216.9955735455
 30
0.0
 11
108.4599099707
 21
216.9955735455
 31
0.0
  0
LINE
  5
10C
330
1F
100
AcDbEntity
  8
0
  6
Continuous
 62
     7
370
    25
100
AcDbLine
 10
194.6223809002
 20
216.9955735455
 30
0.0
 11
194.250673291
 21
216.9955735455
 31
0.0
  0
LINE
  5
10D
330
1F
100
AcDbEntity
  8
0
  6
Continuous
 62
     7
370
    25
100
AcDbLine
 10
194.9973809002
 20
189.619371227
 30
0.0
 11
195.3691178316
 21
189.619371227
 31
0.0
  0
SPLINE
  5
10E
330
1F
100
AcDbEntity
  8
0
  6
Continuous
 62
     7
370
    25
100
AcDbSpline
210
0.0
220
0.0
230
1.0
 70
     8
 71
     3
 72
    60
 73
    56
 74
     0
 42
0.00000001
 43
0.00000001
 40
0.0
 40
0.0
 40
0.0
 40
0.0
 40
0.009531113969126
 40
0.031971605314807
 40
0.0528475943223479
 40
0.0691852474022321
 40
0.0814903040634058
 40
0.0975113097879287
 40
0.1172566103893977
 40
0.1407382199982002
 40
0.1584807435177757
 40
0.1772690588161054
 40
0.1951124215474446
 40
0.2198178801743048
 40
0.2420532522766947
 40
0.2678382521469903
 40
0.2892451271500583
 40
0.3099580664359129
 40
0.3323494459342213
 40
0.3555828221485076
 40
0.3772547020454087
 40
0.3926317612735357
 40
0.4103441732768802
 40
0.4241460372706746
 40
0.4393044641854154
 40
0.4546814830176416
 40
0.4663866549299616
 40
0.4772881336823371
 40
0.4867875374849321
 40
0.4948352653029417
 40
0.5034705319210316
 40
0.5124146848193477
 40
0.5227114399197129
 40
0.5407194052044002
 40
0.5601820558988831
 40
0.5795762371753532
 40
0.5989906532903951
 40
0.6240539631093582
 40
0.6479345635670233
 40
0.6711508609742184
 40
0.6955573008909337
 40
0.7213368035457756
 40
0.7484847475118722
 40
0.7765794357567731
 40
0.8036667718476397
 40
0.8295086208815937
 40
0.8480832997982714
 40
0.8659681781659034
 40
0.8831675160737715
 40
0.9007587699548094
 40
0.9218682101397508
 40
0.946681892323829
 40
0.9652824307397112
 40
0.9855191212644926
 40
1.0
 40
1.0
 40
1.0
 40
1.0
 10
165.1372651875301
 20
227.9141646280135
 30
0.0
 10
165.1367873150753
 20
228.5488958586485
 30
0.0
 10
165.1351843178216
 20
230.678067375491
 30
0.0
 10
165.1127103688204
 20
234.3958943053348
 30
0.0
 10
165.0634336284967
 20
238.7409750663848
 30
0.0
 10
165.0013453954998
 20
242.4464834757827
 30
0.0
 10
164.9302454153038
 20
245.8338528897476
 30
0.0
 10
164.8367129171044
 20
249.5179776699359
 30
0.0
 10
164.6934930403658
 20
254.0923560810441
 30
0.0
 10
164.5087299236885
 20
258.8020011204791
 30
0.0
 10
164.2901147894826
 20
263.3895023395739
 30
0.0
 10
164.0619257607269
 20
267.4826335076102
 30
0.0
 10
163.7696527429092
 20
271.9952339140752
 30
0.0
 10
163.4168301159047
 20
276.6000590249379
 30
0.0
 10
162.9649724202285
 20
281.5010874568652
 30
0.0
 10
162.4789702259721
 20
285.8805013881657
 30
0.0
 10
161.9520118840269
 20
289.8223552270732
 30
0.0
 10
161.4014957215409
 20
293.2830199024214
 30
0.0
 10
160.7760129554039
 20
296.5228662986302
 30
0.0
 10
160.076725249354
 20
299.4332808834229
 30
0.0
 10
159.364053361357
 20
301.7460750533413
 30
0.0
 10
158.6479409228606
 20
303.5938834956264
 30
0.0
 10
157.8505617536635
 20
305.2026196859461
 30
0.0
 10
156.8256048102877
 20
306.7046186249476
 30
0.0
 10
155.614180803778
 20
307.9845145962285
 30
0.0
 10
154.041841702235
 20
309.0457167120658
 30
0.0
 10
152.2277939047001
 20
309.6691500754008
 30
0.0
 10
150.5928207901164
 20
309.8173281478719
 30
0.0
 10
149.1792622013504
 20
309.6432553352743
 30
0.0
 10
147.9530543932958
 20
309.267296592431
 30
0.0
 10
146.855902645104
 20
308.7246907251172
 30
0.0
 10
145.8954948900162
 20
308.056814927623
 30
0.0
 10
144.830423682674
 20
307.090755246526
 30
0.0
 10
143.7305940356703
 20
305.7236338832816
 30
0.0
 10
142.6472428962247
 20
303.8953963447554
 30
0.0
 10
141.6950345301236
 20
301.8355307349984
 30
0.0
 10
140.7629939510424
 20
299.3978745511494
 30
0.0
 10
139.8042999317444
 20
296.4021940751479
 30
0.0
 10
138.8297339542973
 20
292.8205106157816
 30
0.0
 10
137.8963563478771
 20
288.9088132674395
 30
0.0
 10
136.958139133482
 20
284.4887686909146
 30
0.0
 10
136.0005420153616
 20
279.4472095378173
 30
0.0
 10
135.0357792686822
 20
273.8134777773391
 30
0.0
 10
134.1028020851163
 20
267.7984418424069
 30
0.0
 10
133.2385770461927
 20
261.6846137453546
 30
0.0
 10
132.5251065440684
 20
256.2053757700457
 30
0.0
 10
131.9420927913077
 20
251.4270571654341
 30
0.0
 10
131.4683410349629
 20
247.3349544538872
 30
0.0
 10
131.0313298239352
 20
243.366818150372
 30
0.0
 10
130.5973363958304
 20
239.2318788128637
 30
0.0
 10
130.1431415223764
 20
234.668413964894
 30
0.0
 10
129.7284117975411
 20
230.2347084968476
 30
0.0
 10
129.3662886244709
 20
226.1233560162788
 30
0.0
 10
129.0913126587565
 20
222.8505558970925
 30
0.0
 10
128.9420916874604
 20
220.9414523993972
 30
0.0
 10
128.8798508441014
 20
220.1451553995585
 30
0.0
  0
SPLINE
  5
10F
330
1F
100
AcDbEntity
  8
0
  6
Continuous
 62
     7
370
    25
100
AcDbSpline
210
0.0
220
0.0
230
1.0
 70
     8
 71
     3
 72
    27
 73
    23
 74
     0
 42
0.00000001
 43
0.00000001
 40
0.0
 40
0.0
 40
0.0
 40
0.0
 40
0.01996748963113
 40
0.0741503532041994
 40
0.1203734718057682
 40
0.1602385318234882
 40
0.2008751628997406
 40
0.2431385613030596
 40
0.3019947326844017
 40
0.363701027081166
 40
0.4282282530508254
 40
0.4944376547261318
 40
0.5579500528190411
 40
0.6183180599739977
 40
0.6755506450914447
 40
0.7302281893541153
 40
0.7867960038387793
 40
0.8310345327575956
 40
0.8766418295690914
 40
0.9224805143119433
 40
0.9682845013838747
 40
1.0
 40
1.0
 40
1.0
 40
1.0
 10
141.7286264407691
 20
229.6203997051543
 30
0.0
 10
141.7753698297131
 20
230.1404848038484
 30
0.0
 10
141.948953933884
 20
232.0718489601257
 30
0.0
 10
142.2782117811656
 20
235.4516276340817
 30
0.0
 10
142.6854168113455
 20
239.4665022519725
 30
0.0
 10
143.0824978924178
 20
243.1899007590369
 30
0.0
 10
143.4909171265374
 20
246.8531924145306
 30
0.0
 10
143.9908833579932
 20
251.1283321035403
 30
0.0
 10
144.6028711215303
 20
256.0650783567756
 30
0.0
 10
145.3458994706265
 20
261.6410875554038
 30
0.0
 10
146.1661068387078
 20
267.3212590281308
 30
0.0
 10
147.0386646486699
 20
272.8440883409585
 30
0.0
 10
147.92818594345
 20
277.9627898679502
 30
0.0
 10
148.8018154053018
 20
282.5108030734656
 30
0.0
 10
149.6496430056001
 20
286.4738193881975
 30
0.0
 10
150.489508288992
 20
289.9726588960524
 30
0.0
 10
151.255449938656
 20
292.7733076067302
 30
0.0
 10
151.9527725472845
 20
295.0032987277502
 30
0.0
 10
152.5868543539114
 20
296.7430343388863
 30
0.0
 10
153.1163118264879
 20
297.9673343449593
 30
0.0
 10
153.4863753843067
 20
298.6381373790058
 30
0.0
 10
153.4866294739458
 20
298.6767069866778
 30
0.0
 10
153.4867334294807
 20
298.6924869461021
 30
0.0
  0
SPLINE
  5
110
330
1F
100
AcDbEntity
  8
0
  6
Continuous
 62
     7
370
    25
100
AcDbSpline
210
0.0
220
0.0
230
1.0
 70
     8
 71
     3
 72
    24
 73
    20
 74
     0
 42
0.00000001
 43
0.00000001
 40
0.0
 40
0.0
 40
0.0
 40
0.0
 40
0.030250864018331
 40
0.1109450993324509
 40
0.1810756187310465
 40
0.259454804560025
 40
0.3461104251320798
 40
0.4410762725871788
 40
0.5362142143482055
 40
0.6187853175143668
 40
0.6885875627260296
 40
0.7455759463310869
 40
0.7897100851952062
 40
0.8254508919332781
 40
0.8651952661399476
 40
0.9096668826827741
 40
0.9430726614364024
 40
0.9849271988420922
 40
1.0
 40
1.0
 40
1.0
 40
1.0
 10
150.0538096820681
 20
288.0904306534132
 30
0.0
 10
150.1176792601802
 20
287.6685574573212
 30
0.0
 10
150.3519210551804
 20
286.1213367360299
 30
0.0
 10
150.7005675696202
 20
283.2445518421216
 30
0.0
 10
151.1105251686157
 20
279.4074631248104
 30
0.0
 10
151.4903337732354
 20
275.2045682710285
 30
0.0
 10
151.8612640729644
 20
270.3097957817155
 30
0.0
 10
152.1991007709977
 20
264.8704986946221
 30
0.0
 10
152.4749914722206
 20
259.3561391855692
 30
0.0
 10
152.678357337317
 20
254.283847671019
 30
0.0
 10
152.817714708627
 20
249.98720779384
 30
0.0
 10
152.9107185066404
 20
246.4995652119089
 30
0.0
 10
152.9725894754316
 20
243.7323440983964
 30
0.0
 10
153.0183380544832
 20
241.3387848026259
 30
0.0
 10
153.0565877087981
 20
238.9667256472797
 30
0.0
 10
153.0862912146904
 20
236.6760589894824
 30
0.0
 10
153.1089113267452
 20
234.3902550177227
 30
0.0
 10
153.1226170898824
 20
232.6864227737696
 30
0.0
 10
153.1266021604451
 20
231.6535362930161
 30
0.0
 10
153.1276572980593
 20
231.380056222879
 30
0.0
  0
SPLINE
  5
111
330
1F
100
AcDbEntity
  8
0
  6
Continuous
 62
     7
370
    25
100
AcDbSpline
210
0.0
220
0.0
230
1.0
 70
     8
 71
     3
 72
    17
 73
    13
 74
     0
 42
0.00000001
 43
0.00000001
 40
0.0
 40
0.0
 40
0.0
 40
0.0
 40
0.0945559122344752
 40
0.2168932501307514
 40
0.3126350607124653
 40
0.3847450754306694
 40
0.4786312711961073
 40
0.5943425560924968
 40
0.7319493352502567
 40
0.8359239586399735
 40
0.9460271243545779
 40
0.9999999999999999
 40
0.9999999999999999
 40
0.9999999999999999
 40
0.9999999999999999
 10
149.4791658432897
 20
231.408304599305
 30
0.0
 10
149.4240204926682
 20
232.5255464334801
 30
0.0
 10
149.2975275633181
 20
235.0882863708346
 30
0.0
 10
149.0764620043485
 20
238.9920671307198
 30
0.0
 10
148.850030579297
 20
242.6859371972268
 30
0.0
 10
148.6277958419028
 20
246.0677570748047
 30
0.0
 10
148.3701503643959
 20
249.7437847341515
 30
0.0
 10
148.0229948820696
 20
254.3070018529662
 30
0.0
 10
147.6287831054241
 20
259.0051364177789
 30
0.0
 10
147.2047219447073
 20
263.5739381045268
 30
0.0
 10
146.8627926700392
 20
267.0186101499353
 30
0.0
 10
146.6357214682864
 20
269.0612518627113
 30
0.0
 10
146.5610263108871
 20
269.7331796239979
 30
0.0
  0
SPLINE
  5
112
330
1F
100
AcDbEntity
  8
0
  6
Continuous
 62
     7
370
    25
100
AcDbSpline
210
0.0
220
0.0
230
1.0
 70
     8
 71
     3
 72
    42
 73
    38
 74
     0
 42
0.00000001
 43
0.00000001
 40
0.0
 40
0.0
 40
0.0
 40
0.0
 40
0.0232991835441114
 40
0.0473039893772796
 40
0.0749544656269666
 40
0.0965002670960017
 40
0.1201637705934083
 40
0.1441685133653793
 40
0.1624412126397068
 40
0.179459283316479
 40
0.1942886040877124
 40
0.2068517438144643
 40
0.220332078084474
 40
0.234294608271879
 40
0.2503686574921509
 40
0.2784805157932898
 40
0.30886325308972
 40
0.3391391042084665
 40
0.3694465435108696
 40
0.4085723527319369
 40
0.445851859083655
 40
0.4820943358249424
 40
0.5201947191679402
 40
0.5604385620591203
 40
0.6028186500855637
 40
0.6466766808219361
 40
0.6889621551608547
 40
0.729303325681641
 40
0.7582998687913074
 40
0.7862195786783278
 40
0.8130691056790575
 40
0.8405304445158019
 40
0.8734839504735287
 40
0.9122200712101396
 40
0.9412569830436389
 40
0.9728480577443672
 40
1.0
 40
1.0
 40
1.0
 40
1.0
 10
141.0814899891549
 20
300.1673214212806
 30
0.0
 10
140.8829113409874
 20
300.7444762773705
 30
0.0
 10
140.4797400347619
 20
301.9162652857635
 30
0.0
 10
139.7749859557987
 20
303.4845980660172
 30
0.0
 10
138.9082117197879
 20
305.0627146201714
 30
0.0
 10
137.8169545566611
 20
306.5160557347371
 30
0.0
 10
136.5497581499284
 20
307.7410557720138
 30
0.0
 10
134.9316390400355
 20
308.7309865900461
 30
0.0
 10
133.0916016759956
 20
309.2729327384844
 30
0.0
 10
131.4516463776628
 20
309.3480552101293
 30
0.0
 10
130.0472559172018
 20
309.1111259415122
 30
0.0
 10
128.8390316944376
 20
308.6808642546877
 30
0.0
 10
127.7671660391337
 20
308.0898761010126
 30
0.0
 10
126.8374941394632
 20
307.3798399543604
 30
0.0
 10
125.8165589262817
 20
306.3672495840037
 30
0.0
 10
124.7787831996077
 20
304.9524465498012
 30
0.0
 10
123.778030780362
 20
303.0777207619468
 30
0.0
 10
122.9186190006239
 20
300.9774449474708
 30
0.0
 10
122.0962006454911
 20
298.5006536037296
 30
0.0
 10
121.2720376862235
 20
295.4652045177397
 30
0.0
 10
120.458148452302
 20
291.8436275735704
 30
0.0
 10
119.7001219548782
 20
287.8942015735492
 30
0.0
 10
118.9599278865476
 20
283.4367181642144
 30
0.0
 10
118.2280865506414
 20
278.357474206887
 30
0.0
 10
117.5154917131819
 20
272.6863271117378
 30
0.0
 10
116.8516531951946
 20
266.6356724483755
 30
0.0
 10
116.260903575686
 20
260.4893894368648
 30
0.0
 10
115.7924621805817
 20
254.9837878727418
 30
0.0
 10
115.4230936657468
 20
250.1842245897247
 30
0.0
 10
115.1322803570809
 20
246.0750697984428
 30
0.0
 10
114.872642397808
 20
242.0913853307129
 30
0.0
 10
114.6234608612716
 20
237.9412418712076
 30
0.0
 10
114.3731879728983
 20
233.3618969316023
 30
0.0
 10
114.1566310743821
 20
228.914794705261
 30
0.0
 10
113.9780080328569
 20
224.7893061073797
 30
0.0
 10
113.8428746549944
 20
221.335738284081
 30
0.0
 10
113.7738672203511
 20
219.2647264736414
 30
0.0
 10
113.7419709035167
 20
218.3074723862396
 30
0.0
  0
SPLINE
  5
113
330
1F
100
AcDbEntity
  8
0
  6
Continuous
 62
     7
370
    25
100
AcDbSpline
210
0.0
220
0.0
230
1.0
 70
     8
 71
     3
 72
    29
 73
    25
 74
     0
 42
0.00000001
 43
0.00000001
 40
0.0
 40
0.0
 40
0.0
 40
0.0
 40
0.0281667855961189
 40
0.0894749242663801
 40
0.1437849443134557
 40
0.1911223367577241
 40
0.2315056196067298
 40
0.2663341219491405
 40
0.3018367149465622
 40
0.3387605492424058
 40
0.3901808230839391
 40
0.4440911349706841
 40
0.5004659815113526
 40
0.5583104774261435
 40
0.6137987095965618
 40
0.666539813652806
 40
0.7165416253630886
 40
0.764311200464271
 40
0.8137322287634481
 40
0.8523816552885518
 40
0.8922269193650167
 40
0.9322743377868064
 40
0.9722914422466363
 40
1.0
 40
1.0
 40
1.0
 40
1.0
 10
125.7482860786062
 20
218.3074723862396
 30
0.0
 10
125.7702896361744
 20
218.9911911528544
 30
0.0
 10
125.840186381768
 20
221.1630997880662
 30
0.0
 10
126.0046268964942
 20
225.2550068213353
 30
0.0
 10
126.2268394196442
 20
230.1485126827579
 30
0.0
 10
126.4599472810013
 20
234.6764934703819
 30
0.0
 10
126.6893349071295
 20
238.7165316084134
 30
0.0
 10
126.9196413961851
 20
242.4515213766456
 30
0.0
 10
127.1644001382036
 20
246.1300093737617
 30
0.0
 10
127.4732124555094
 20
250.422999351636
 30
0.0
 10
127.864472218894
 20
255.3821950480939
 30
0.0
 10
128.3581238037802
 20
260.9857676550022
 30
0.0
 10
128.9242372211399
 20
266.6968688752056
 30
0.0
 10
129.5496637191161
 20
272.253110649053
 30
0.0
 10
130.2100572265205
 20
277.4063852004662
 30
0.0
 10
130.880021640453
 20
281.988829874291
 30
0.0
 10
131.5502949116862
 20
285.9857091469185
 30
0.0
 10
132.2333114430901
 20
289.5185182222238
 30
0.0
 10
132.8736102246855
 20
292.3505346932811
 30
0.0
 10
133.4708038605397
 20
294.6094014400786
 30
0.0
 10
134.0266801087317
 20
296.3756803906448
 30
0.0
 10
134.5010193799089
 20
297.6223712007037
 30
0.0
 10
134.8408037267772
 20
298.3090081826269
 30
0.0
 10
134.839337743323
 20
298.3475507576574
 30
0.0
 10
134.8387379664308
 20
298.3633196572339
 30
0.0
  0
SPLINE
  5
114
330
1F
100
AcDbEntity
  8
0
  6
Continuous
 62
     7
370
    25
100
AcDbSpline
210
0.0
220
0.0
230
1.0
 70
     8
 71
     3
 72
    13
 73
     9
 74
     0
 42
0.00000001
 43
0.00000001
 40
0.0
 40
0.0
 40
0.0
 40
0.0
 40
0.0871756658659653
 40
0.3197169146313641
 40
0.521816091778679
 40
0.7476859284396953
 40
0.9974064461684286
 40
1.0
 40
1.0
 40
1.0
 40
1.0
 10
131.8819748290657
 20
287.6187342841999
 30
0.0
 10
131.9645962154655
 20
287.2001459431723
 30
0.0
 10
132.2676103017926
 20
285.6649724338611
 30
0.0
 10
132.7439469823408
 20
282.805559234794
 30
0.0
 10
133.3255342486039
 20
278.9946470871772
 30
0.0
 10
133.8884584291889
 20
274.7959067267118
 30
0.0
 10
134.275105271022
 20
271.7327310148625
 30
0.0
 10
134.4584402972718
 20
270.0224326986564
 30
0.0
 10
134.4603248107151
 20
270.004852423709
 30
0.0
  0
LINE
  5
115
330
1F
100
AcDbEntity
  8
0
  6
Continuous
 62
     7
370
    25
100
AcDbLine
 10
144.406541191
 20
-54.3878442431
 30
0.0
 11
144.5471156649
 21
-101.7146473814
 31
0.0
  0
LINE
  5
116
330
1F
100
AcDbEntity
  8
0
  6
Continuous
 62
     7
370
    25
100
AcDbLine
 10
160.3470459665
 20
-101.6677169585
 30
0.0
 11
160.2064714926
 21
-54.3409138201
 31
0.0
  0
LINE
  5
117
330
1F
100
AcDbEntity
  8
0
  6
Continuous
 62
     7
370
    25
100
AcDbLine
 10
160.2064714926
 20
-54.3409138201
 30
0.0
 11
159.5084557078
 21
180.6580495265
 31
0.0
  0
LINE
  5
118
330
1F
100
AcDbEntity
  8
0
  6
Continuous
 62
     7
370
    25
100
AcDbLine
 10
143.7085254062
 20
180.6111191035
 30
0.0
 11
144.406541191
 21
-54.3878442431
 31
0.0
  0
LINE
  5
119
330
1F
100
AcDbEntity
  8
0
  6
Continuous
 62
     7
370
    25
100
AcDbLine
 10
143.6411802846
 20
203.2840071748
 30
0.0
 11
143.7085254062
 21
180.6111191035
 31
0.0
  0
LINE
  5
11A
330
1F
100
AcDbEntity
  8
0
  6
Continuous
 62
     7
370
    25
100
AcDbLine
 10
159.5084557078
 20
180.6580495265
 30
0.0
 11
159.4411105862
 21
203.3309375977
 31
0.0
  0
LINE
  5
11B
330
1F
100
AcDbEntity
  8
0
  6
Continuous
 62
     7
370
    25
100
AcDbLine
 10
243.7411454354
 20
198.3514420021
 30
0.0
 11
243.7411454354
 21
197.9785580496
 31
0.0
  0
LINE
  5
11C
330
1F
100
AcDbEntity
  8
0
  6
Continuous
 62
     7
370
    25
100
AcDbLine
 10
243.7411454354
 20
208.6363867229
 30
0.0
 11
243.7411454354
 21
198.3514420021
 31
0.0
  0
SPLINE
  5
11D
330
1F
100
AcDbEntity
  8
0
  6
Continuous
 62
     7
370
    25
100
AcDbSpline
210
0.0
220
0.0
230
1.0
 70
     8
 71
     3
 72
    11
 73
     7
 74
     0
 42
0.00000001
 43
0.00000001
 40
0.0
 40
0.0
 40
0.0
 40
0.0
 40
0.3039812236456108
 40
0.608083627866646
 40
0.9095125090057321
 40
1.0
 40
1.0
 40
1.0
 40
1.0
 10
244.9611672370856
 20
204.56544291237
 30
0.0
 10
244.9708826001481
 20
204.5246559058018
 30
0.0
 10
244.9903171992536
 20
204.4430656331318
 30
0.0
 10
245.001789026205
 20
204.4258771337266
 30
0.0
 10
245.002425549914
 20
204.4590435856251
 30
0.0
 10
244.9944955939266
 20
204.5202778202027
 30
0.0
 10
244.9926646884784
 20
204.5344158676124
 30
0.0
  0
ARC
  5
11E
330
1F
100
AcDbEntity
  8
0
  6
Continuous
 62
     7
370
    25
100
AcDbCircle
 10
241.2766765493
 20
203.7214588763
 30
0.0
 40
3.779918078703881
100
AcDbArc
 50
12.9018176402
 51
24.2162786883
  0
ARC
  5
11F
330
1F
100
AcDbEntity
  8
0
  6
Continuous
 62
     7
370
    25
100
AcDbCircle
 10
237.7234206422
 20
204.7769319585
 30
0.0
 40
7.018032155407888
100
AcDbArc
 50
355.9555700063
 51
4.0444299937
  0
ARC
  5
120
330
1F
100
AcDbEntity
  8
0
  6
Continuous
 62
     7
370
    25
100
AcDbCircle
 10
241.2766765493
 20
202.7314950722
 30
0.0
 40
3.779918078705733
100
AcDbArc
 50
12.9018176402
 51
24.2162786883
  0
SPLINE
  5
121
330
1F
100
AcDbEntity
  8
0
  6
Continuous
 62
     7
370
    25
100
AcDbSpline
210
0.0
220
0.0
230
1.0
 70
     8
 71
     3
 72
    12
 73
     8
 74
     0
 42
0.00000001
 43
0.00000001
 40
0.0
 40
0.0
 40
0.0
 40
0.0
 40
0.2133534395476094
 40
0.4267919313634458
 40
0.638353973909152
 40
0.8490950351927495
 40
1.0
 40
1.0
 40
1.0
 40
1.0
 10
244.9611672370856
 20
202.5328691617516
 30
0.0
 10
244.970826380813
 20
202.6063278320241
 30
0.0
 10
244.9901485188365
 20
202.7532744564961
 30
0.0
 10
245.0024615888445
 20
203.0099371880479
 30
0.0
 10
245.0001241485478
 20
203.2553385500846
 30
0.0
 10
244.985006629534
 20
203.4510203098449
 30
0.0
 10
244.968186017153
 20
203.5388360211708
 30
0.0
 10
244.9611672370856
 20
203.5754791082535
 30
0.0
  0
ARC
  5
122
330
1F
100
AcDbEntity
  8
0
  6
Continuous
 62
     7
370
    25
100
AcDbCircle
 10
237.6457505502
 20
203.672621926
 30
0.0
 40
7.403671904244845
100
AcDbArc
 50
342.9486797798
 51
351.1444282848
  0
ARC
  5
123
330
1F
100
AcDbEntity
  8
0
  6
Continuous
 62
     7
370
    25
100
AcDbCircle
 10
241.4421625919
 20
201.1625508107
 30
0.0
 40
3.299286112126276
100
AcDbArc
 50
354.1006273552
 51
5.8993726448
  0
ARC
  5
124
330
1F
100
AcDbEntity
  8
0
  6
Continuous
 62
     7
370
    25
100
AcDbCircle
 10
237.6457505502
 20
202.9944098157
 30
0.0
 40
7.403671904251009
100
AcDbArc
 50
342.9486797798
 51
351.1444282848
  0
SPLINE
  5
125
330
1F
100
AcDbEntity
  8
0
  6
Continuous
 62
     7
370
    25
100
AcDbSpline
210
0.0
220
0.0
230
1.0
 70
     8
 71
     3
 72
    11
 73
     7
 74
     0
 42
0.00000001
 43
0.00000001
 40
0.0
 40
0.0
 40
0.0
 40
0.0
 40
0.0714051685223774
 40
0.414134850803526
 40
0.7555345466479035
 40
1.0
 40
1.0
 40
1.0
 40
1.0
 10
244.9974210981884
 20
202.1738723814925
 30
0.0
 10
244.9983723922836
 20
202.1760141069397
 30
0.0
 10
245.0038896965118
 20
202.1884356608255
 30
0.0
 10
244.9992959688014
 20
202.1286738057075
 30
0.0
 10
244.9851464766244
 20
202.0125284848676
 30
0.0
 10
244.9682271908521
 20
201.9011374671209
 30
0.0
 10
244.9611672370856
 20
201.8546570514653
 30
0.0
  0
SPLINE
  5
126
330
1F
100
AcDbEntity
  8
0
  6
Continuous
 62
     7
370
    25
100
AcDbSpline
210
0.0
220
0.0
230
1.0
 70
     8
 71
     3
 72
    11
 73
     7
 74
     0
 42
0.00000001
 43
0.00000001
 40
0.0
 40
0.0
 40
0.0
 40
0.0
 40
0.3067489698104707
 40
0.6136202235443585
 40
0.9177936117939343
 40
1.0
 40
1.0
 40
1.0
 40
1.0
 10
244.9611672370856
 20
204.0820756107276
 30
0.0
 10
244.9708855046916
 20
204.0084287571253
 30
0.0
 10
244.9903259140416
 20
203.8611056909753
 30
0.0
 10
245.0017542785979
 20
203.6072588575317
 30
0.0
 10
245.0025066024274
 20
203.4130971967361
 30
0.0
 10
244.9948065895916
 20
203.3260026691005
 30
0.0
 10
244.9931683303376
 20
203.3074723862396
 30
0.0
  0
ARC
  5
127
330
1F
100
AcDbEntity
  8
0
  6
Continuous
 62
     7
370
    25
100
AcDbCircle
 10
237.715116215
 20
202.9554175319
 30
0.0
 40
7.333117607236451
100
AcDbArc
 50
8.8379125451
 51
11.3659567697
  0
ARC
  5
128
330
1F
100
AcDbEntity
  8
0
  6
Continuous
 62
     7
370
    25
100
AcDbCircle
 10
61.6401282789
 20
201.1625508107
 30
0.0
 40
3.29928611212318
100
AcDbArc
 50
174.1006273552
 51
185.8993726448
  0
ARC
  5
129
330
1F
100
AcDbEntity
  8
0
  6
Continuous
 62
     7
370
    25
100
AcDbCircle
 10
65.4365403206
 20
203.672621926
 30
0.0
 40
7.403671904240114
100
AcDbArc
 50
188.8555717152
 51
197.0513202203
  0
SPLINE
  5
12A
330
1F
100
AcDbEntity
  8
0
  6
Continuous
 62
     7
370
    25
100
AcDbSpline
210
0.0
220
0.0
230
1.0
 70
     8
 71
     3
 72
    12
 73
     8
 74
     0
 42
0.00000001
 43
0.00000001
 40
0.0
 40
0.0
 40
0.0
 40
0.0
 40
0.2133534395476215
 40
0.4267919313634499
 40
0.638353973909149
 40
0.8490950351927614
 40
1.0
 40
1.0
 40
1.0
 40
1.0
 10
58.12112363374511
 20
203.5754791082535
 30
0.0
 10
58.11146449001775
 20
203.5216068169755
 30
0.0
 10
58.09214235199428
 20
203.4138407585034
 30
0.0
 10
58.07982928198621
 20
203.1822313378266
 30
0.0
 10
58.08216672228292
 20
202.932073607468
 30
0.0
 10
58.09728424129676
 20
202.7056545753841
 30
0.0
 10
58.11410485367771
 20
202.5837405427975
 30
0.0
 10
58.12112363374511
 20
202.5328691617516
 30
0.0
  0
ARC
  5
12B
330
1F
100
AcDbEntity
  8
0
  6
Continuous
 62
     7
370
    25
100
AcDbCircle
 10
61.8056143216
 20
202.7314950722
 30
0.0
 40
3.779918078703777
100
AcDbArc
 50
155.7837213117
 51
167.0981823598
  0
ARC
  5
12C
330
1F
100
AcDbEntity
  8
0
  6
Continuous
 62
     7
370
    25
100
AcDbCircle
 10
65.3588702286
 20
204.7769319585
 30
0.0
 40
7.018032155401226
100
AcDbArc
 50
175.9555700063
 51
184.0444299937
  0
ARC
  5
12D
330
1F
100
AcDbEntity
  8
0
  6
Continuous
 62
     7
370
    25
100
AcDbCircle
 10
61.8056143216
 20
203.7214588763
 30
0.0
 40
3.779918078700603
100
AcDbArc
 50
155.7837213117
 51
167.0981823598
  0
SPLINE
  5
12E
330
1F
100
AcDbEntity
  8
0
  6
Continuous
 62
     7
370
    25
100
AcDbSpline
210
0.0
220
0.0
230
1.0
 70
     8
 71
     3
 72
    11
 73
     7
 74
     0
 42
0.00000001
 43
0.00000001
 40
0.0
 40
0.0
 40
0.0
 40
0.0
 40
0.177155342464097
 40
0.4808543061932544
 40
0.7833747449113243
 40
1.0
 40
1.0
 40
1.0
 40
1.0
 10
58.08957635763179
 20
204.533009757638
 30
0.0
 10
58.08667324728611
 20
204.5087873175376
 30
0.0
 10
58.07879330930818
 20
204.4430401350545
 30
0.0
 10
58.08261234290596
 20
204.4233769350803
 30
0.0
 10
58.09720899344405
 20
204.4635400702816
 30
0.0
 10
58.11408269924866
 20
204.5354407368359
 30
0.0
 10
58.12112363374511
 20
204.56544291237
 30
0.0
  0
ARC
  5
12F
330
1F
100
AcDbEntity
  8
0
  6
Continuous
 62
     7
370
    25
100
AcDbCircle
 10
65.3691354204
 20
202.9550854099
 30
0.0
 40
7.335106118702773
100
AcDbArc
 50
168.3668500212
 51
171.1618771205
  0
SPLINE
  5
130
330
1F
100
AcDbEntity
  8
0
  6
Continuous
 62
     7
370
    25
100
AcDbSpline
210
0.0
220
0.0
230
1.0
 70
     8
 71
     3
 72
    11
 73
     7
 74
     0
 42
0.00000001
 43
0.00000001
 40
0.0
 40
0.0
 40
0.0
 40
0.0
 40
0.1769183548232169
 40
0.4807047869467063
 40
0.7833123546318369
 40
1.0
 40
1.0
 40
1.0
 40
1.0
 10
58.08956445799083
 20
203.3074723862396
 30
0.0
 10
58.08666651458727
 20
203.3496134769117
 30
0.0
 10
58.07879251379307
 20
203.4641150165255
 30
0.0
 10
58.08261306016592
 20
203.6842092840487
 30
0.0
 10
58.09720887232695
 20
203.9090642412505
 30
0.0
 10
58.11408266358941
 20
204.0311377038933
 30
0.0
 10
58.12112363374511
 20
204.0820756107276
 30
0.0
  0
SPLINE
  5
131
330
1F
100
AcDbEntity
  8
0
  6
Continuous
 62
     7
370
    25
100
AcDbSpline
210
0.0
220
0.0
230
1.0
 70
     8
 71
     3
 72
    10
 73
     6
 74
     0
 42
0.00000001
 43
0.00000001
 40
0.0
 40
0.0
 40
0.0
 40
0.0
 40
0.345678615197164
 40
0.6914950334237442
 40
1.0
 40
1.0
 40
1.0
 40
1.0
 10
58.12112363374511
 20
201.8546570514653
 30
0.0
 10
58.11153317837989
 20
201.9185749662064
 30
0.0
 10
58.09234844446298
 20
202.0464362762416
 30
0.0
 10
58.07944960856695
 20
202.1609008387736
 30
0.0
 10
58.08277527663854
 20
202.1718751036861
 30
0.0
 10
58.08434329067735
 20
202.1770493426896
 30
0.0
  0
ARC
  5
132
330
1F
100
AcDbEntity
  8
0
  6
Continuous
 62
     7
370
    25
100
AcDbCircle
 10
65.4365403206
 20
202.9944098157
 30
0.0
 40
7.403671904241055
100
AcDbArc
 50
188.8555717152
 51
197.0513202202
  0
LINE
  5
133
330
1F
100
AcDbEntity
  8
0
  6
Continuous
 62
     7
370
    25
100
AcDbLine
 10
59.3411454354
 20
197.9785580496
 30
0.0
 11
59.3411454354
 21
208.6363867229
 31
0.0
  0
LINE
  5
134
330
1F
100
AcDbEntity
  8
0
  6
Continuous
 62
     7
370
    25
100
AcDbLine
 10
75.5824192322
 20
195.0568123777
 30
0.0
 11
75.5824192322
 21
211.5581321095
 31
0.0
  0
SPLINE
  5
135
330
1F
100
AcDbEntity
  8
0
  6
Continuous
 62
     7
370
    25
100
AcDbSpline
210
0.0
220
0.0
230
1.0
 70
     8
 71
     3
 72
    11
 73
     7
 74
     0
 42
0.00000001
 43
0.00000001
 40
0.0
 40
0.0
 40
0.0
 40
0.0
 40
0.2499999999999979
 40
0.4999999999999962
 40
0.7499999999999943
 40
1.0
 40
1.0
 40
1.0
 40
1.0
 10
75.58241923219671
 20
211.5581336487796
 30
0.0
 10
75.6487902849341
 20
211.5522411713766
 30
0.0
 10
75.78153239040886
 20
211.5404562165707
 30
0.0
 10
75.94999613118956
 20
211.4365345341388
 30
0.0
 10
76.06808349022465
 20
211.2863541296828
 30
0.0
 10
76.08345812035179
 20
211.1667950706508
 30
0.0
 10
76.09114543541537
 20
211.1070155411348
 30
0.0
  0
LINE
  5
136
330
1F
100
AcDbEntity
  8
0
  6
Continuous
 62
     7
370
    25
100
AcDbLine
 10
76.0911454354
 20
211.1069606909
 30
0.0
 11
76.0911454354
 21
195.5080376207
 31
0.0
  0
SPLINE
  5
137
330
1F
100
AcDbEntity
  8
0
  6
Continuous
 62
     7
370
    25
100
AcDbSpline
210
0.0
220
0.0
230
1.0
 70
     8
 71
     3
 72
    11
 73
     7
 74
     0
 42
0.00000001
 43
0.00000001
 40
0.0
 40
0.0
 40
0.0
 40
0.0
 40
0.2500000000000009
 40
0.5000000000000018
 40
0.7500000000000026
 40
0.9999999999999999
 40
0.9999999999999999
 40
0.9999999999999999
 40
0.9999999999999999
 10
75.58241923219671
 20
195.0568126629445
 30
0.0
 10
75.6487902849341
 20
195.062706536017
 30
0.0
 10
75.78153239040884
 20
195.074494282162
 30
0.0
 10
75.94999613118956
 20
195.1784405790842
 30
0.0
 10
76.06808349022465
 20
195.3286565546938
 30
0.0
 10
76.08345812035179
 20
195.448243932025
 30
0.0
 10
76.09114543541537
 20
195.5080376206906
 30
0.0
  0
LWPOLYLINE
  5
138
330
1F
100
AcDbEntity
  8
0
  6
Continuous
 62
     7
370
    25
100
AcDbPolyline
 90
        3
 70
   128
 43
0.0
 10
75.5824192322
 20
211.5581321095
 10
69.5909454354
 20
211.4918796983
 10
66.1031014783
 20
211.453063732
  0
LWPOLYLINE
  5
139
330
1F
100
AcDbEntity
  8
0
  6
Continuous
 62
     7
370
    25
100
AcDbPolyline
 90
        3
 70
   128
 43
0.0
 10
67.0365216922
 20
195.1514749698
 10
69.5909454354
 20
195.1230650742
 10
75.5824192491
 20
195.0568126628
  0
LINE
  5
13A
330
1F
100
AcDbEntity
  8
0
  6
Continuous
 62
     7
370
    25
100
AcDbLine
 10
61.2411454354
 20
194.908028732
 30
0.0
 11
61.2411454354
 21
211.7069160405
 31
0.0
  0
LINE
  5
13B
330
1F
100
AcDbEntity
  8
0
  6
Continuous
 62
     7
370
    25
100
AcDbLine
 10
75.5824192322
 20
211.5581333629
 30
0.0
 11
75.5824192322
 21
215.0536062995
 31
0.0
  0
ARC
  5
13C
330
1F
100
AcDbEntity
  8
0
  6
Continuous
 62
     7
370
    25
100
AcDbCircle
 10
75.5970841407
 20
214.5597199427
 30
0.0
 40
0.4941040304929243
100
AcDbArc
 50
0.7535768612
 51
91.7007770082
  0
LINE
  5
13D
330
1F
100
AcDbEntity
  8
0
  6
Continuous
 62
     7
370
    25
100
AcDbLine
 10
76.0911454354
 20
214.5662184079
 30
0.0
 11
76.0911454354
 21
211.1069619452
 31
0.0
  0
LINE
  5
13E
330
1F
100
AcDbEntity
  8
0
  6
Continuous
 62
     7
370
    25
100
AcDbLine
 10
75.5824192322
 20
191.561338473
 30
0.0
 11
75.5824192322
 21
195.0568111237
 31
0.0
  0
ARC
  5
13F
330
1F
100
AcDbEntity
  8
0
  6
Continuous
 62
     7
370
    25
100
AcDbCircle
 10
75.5970841407
 20
192.0552248298
 30
0.0
 40
0.4941040304928956
100
AcDbArc
 50
268.2992229918
 51
359.2464231388
  0
LINE
  5
140
330
1F
100
AcDbEntity
  8
0
  6
Continuous
 62
     7
370
    25
100
AcDbLine
 10
76.0911454354
 20
195.5079828272
 30
0.0
 11
76.0911454354
 21
192.0487263646
 31
0.0
  0
LINE
  5
141
330
1F
100
AcDbEntity
  8
0
  6
Continuous
 62
     7
370
    25
100
AcDbLine
 10
66.1031014783
 20
211.453063732
 30
0.0
 11
66.1477078114
 21
211.4538703491
 31
0.0
  0
LINE
  5
142
330
1F
100
AcDbEntity
  8
0
  6
Continuous
 62
     7
370
    25
100
AcDbLine
 10
66.1888177678
 20
211.4546119151
 30
0.0
 11
66.1477078114
 21
211.4538703491
 31
0.0
  0
LWPOLYLINE
  5
143
330
1F
100
AcDbEntity
  8
0
  6
Continuous
 62
     7
370
    25
100
AcDbPolyline
 90
        3
 70
   128
 43
0.0
 10
66.1888177678
 20
211.4546119151
 10
69.5911454354
 20
211.4921356187
 10
75.5824192153
 20
211.5581336486
  0
LINE
  5
144
330
1F
100
AcDbEntity
  8
0
  6
Continuous
 62
     7
370
    25
100
AcDbLine
 10
71.5562406225
 20
191.6767441715
 30
0.0
 11
71.5562406225
 21
191.6298534296
 31
0.0
  0
SPLINE
  5
145
330
1F
100
AcDbEntity
  8
0
  6
Continuous
 62
     7
370
    25
100
AcDbSpline
210
0.0
220
0.0
230
1.0
 70
     8
 71
     3
 72
    12
 73
     8
 74
     0
 42
0.00000001
 43
0.00000001
 40
0.0
 40
0.0
 40
0.0
 40
0.0
 40
0.0460732444350187
 40
0.249460740807831
 40
0.4779405209378896
 40
0.7057893369168762
 40
1.0
 40
1.0
 40
1.0
 40
1.0
 10
67.10723163539829
 20
195.1502006261371
 30
0.0
 10
67.20920407639535
 20
195.0876952287214
 30
0.0
 10
67.76132756986856
 20
194.7492636089162
 30
0.0
 10
68.80530752518088
 20
194.130721512091
 30
0.0
 10
70.07658580069273
 20
193.3229969605224
 30
0.0
 10
71.24334882527005
 20
192.4509190469827
 30
0.0
 10
71.4434641060479
 20
191.9557823130085
 30
0.0
 10
71.55624062254078
 20
191.676744171452
 30
0.0
  0
LWPOLYLINE
  5
146
330
1F
100
AcDbEntity
  8
0
  6
Continuous
 62
     7
370
    25
100
AcDbPolyline
 90
        3
 70
   128
 43
0.0
 10
67.1072316354
 20
195.1502006261
 10
69.5911454354
 20
195.1228091538
 10
75.5824192322
 20
195.0568111237
  0
LINE
  5
147
330
1F
100
AcDbEntity
  8
0
  6
Continuous
 62
     7
370
    25
100
AcDbLine
 10
71.5562406225
 20
191.6298534296
 30
0.0
 11
75.5824192322
 21
191.561338473
 31
0.0
  0
SPLINE
  5
148
330
1F
100
AcDbEntity
  8
0
  6
Continuous
 62
     7
370
    25
100
AcDbSpline
210
0.0
220
0.0
230
1.0
 70
     8
 71
     3
 72
    12
 73
     8
 74
     0
 42
0.00000001
 43
0.00000001
 40
0.0
 40
0.0
 40
0.0
 40
0.0
 40
0.1662426524176553
 40
0.3368059756191311
 40
0.6054181071254597
 40
0.8801435087136193
 40
1.0
 40
1.0
 40
1.0
 40
1.0
 10
71.49991140547152
 20
214.9841327679106
 30
0.0
 10
71.40045469819628
 20
214.8286475924276
 30
0.0
 10
71.19895638931737
 20
214.5136361590723
 30
0.0
 10
70.37670863329487
 20
213.8506710540738
 30
0.0
 10
69.01487946630832
 20
212.9984761372685
 30
0.0
 10
67.4537732776494
 20
212.1558474586564
 30
0.0
 10
66.48353358548778
 20
211.6179893659611
 30
0.0
 10
66.18881776778491
 20
211.4546119151339
 30
0.0
  0
LINE
  5
149
330
1F
100
AcDbEntity
  8
0
  6
Continuous
 62
     7
370
    25
100
AcDbLine
 10
71.4999114055
 20
214.9841327679
 30
0.0
 11
75.5824192322
 21
215.0536062995
 31
0.0
  0
LINE
  5
14A
330
1F
100
AcDbEntity
  8
0
  6
Continuous
 62
     7
370
    25
100
AcDbLine
 10
67.0690558314
 20
195.1508879289
 30
0.0
 11
67.1072316354
 21
195.1502006261
 31
0.0
  0
LINE
  5
14B
330
1F
100
AcDbEntity
  8
0
  6
Continuous
 62
     7
370
    25
100
AcDbLine
 10
67.0690558314
 20
195.1508879289
 30
0.0
 11
67.0365216922
 21
195.1514749698
 31
0.0
  0
LINE
  5
14C
330
1F
100
AcDbEntity
  8
0
  6
Continuous
 62
     7
370
    25
100
AcDbLine
 10
76.0911454354
 20
192.0487263646
 30
0.0
 11
76.0911454354
 21
191.8355827715
 31
0.0
  0
LINE
  5
14D
330
1F
100
AcDbEntity
  8
0
  6
Continuous
 62
     7
370
    25
100
AcDbLine
 10
76.0911454354
 20
214.779362001
 30
0.0
 11
76.0911454354
 21
214.5662184079
 31
0.0
  0
LINE
  5
14E
330
1F
100
AcDbEntity
  8
0
  6
Continuous
 62
     7
370
    25
100
AcDbLine
 10
71.5562406225
 20
215.1924198332
 30
0.0
 11
71.4999114055
 21
214.9841327679
 31
0.0
  0
LINE
  5
14F
330
1F
100
AcDbEntity
  8
0
  6
Continuous
 62
     7
370
    25
100
AcDbLine
 10
227.4998716386
 20
211.8035536836
 30
0.0
 11
227.4998716386
 21
195.3022339518
 31
0.0
  0
SPLINE
  5
150
330
1F
100
AcDbEntity
  8
0
  6
Continuous
 62
     7
370
    25
100
AcDbSpline
210
0.0
220
0.0
230
1.0
 70
     8
 71
     3
 72
    11
 73
     7
 74
     0
 42
0.00000001
 43
0.00000001
 40
0.0
 40
0.0
 40
0.0
 40
0.0
 40
0.2500000000000168
 40
0.4999999999999941
 40
0.7499999999999969
 40
1.0
 40
1.0
 40
1.0
 40
1.0
 10
227.499871638634
 20
195.302232412528
 30
0.0
 10
227.4335005858966
 20
195.308124889931
 30
0.0
 10
227.3007584804218
 20
195.3199098447369
 30
0.0
 10
227.1322947396412
 20
195.4238315271688
 30
0.0
 10
227.0142073806062
 20
195.5740119316247
 30
0.0
 10
226.998832750479
 20
195.6935709906567
 30
0.0
 10
226.9911454354154
 20
195.7533505201727
 30
0.0
  0
LINE
  5
151
330
1F
100
AcDbEntity
  8
0
  6
Continuous
 62
     7
370
    25
100
AcDbLine
 10
226.9911454354
 20
195.7534053704
 30
0.0
 11
226.9911454354
 21
211.3523284406
 31
0.0
  0
SPLINE
  5
152
330
1F
100
AcDbEntity
  8
0
  6
Continuous
 62
     7
370
    25
100
AcDbSpline
210
0.0
220
0.0
230
1.0
 70
     8
 71
     3
 72
    11
 73
     7
 74
     0
 42
0.00000001
 43
0.00000001
 40
0.0
 40
0.0
 40
0.0
 40
0.0
 40
0.250000000000024
 40
0.5
 40
0.7500000000000054
 40
1.0
 40
1.0
 40
1.0
 40
1.0
 10
227.499871638634
 20
211.8035533983631
 30
0.0
 10
227.4335005858966
 20
211.7976595252905
 30
0.0
 10
227.3007584804219
 20
211.7858717791455
 30
0.0
 10
227.1322947396412
 20
211.6819254822233
 30
0.0
 10
227.0142073806061
 20
211.5317095066139
 30
0.0
 10
226.998832750479
 20
211.4121221292826
 30
0.0
 10
226.9911454354154
 20
211.352328440617
 30
0.0
  0
LWPOLYLINE
  5
153
330
1F
100
AcDbEntity
  8
0
  6
Continuous
 62
     7
370
    25
100
AcDbPolyline
 90
        3
 70
   128
 43
0.0
 10
227.4998716386
 20
195.3022339518
 10
233.4913454354
 20
195.368486363
 10
236.9791893926
 20
195.4073023293
  0
LWPOLYLINE
  5
154
330
1F
100
AcDbEntity
  8
0
  6
Continuous
 62
     7
370
    25
100
AcDbPolyline
 90
        3
 70
   128
 43
0.0
 10
236.0457691787
 20
211.7088910915
 10
233.4913454354
 20
211.7373009871
 10
227.4998716217
 20
211.8035533985
  0
LINE
  5
155
330
1F
100
AcDbEntity
  8
0
  6
Continuous
 62
     7
370
    25
100
AcDbLine
 10
241.8411454354
 20
211.9523373293
 30
0.0
 11
241.8411454354
 21
195.1534500208
 31
0.0
  0
LINE
  5
156
330
1F
100
AcDbEntity
  8
0
  6
Continuous
 62
     7
370
    25
100
AcDbLine
 10
227.4998716386
 20
195.3022326984
 30
0.0
 11
227.4998716386
 21
191.8067597618
 31
0.0
  0
ARC
  5
157
330
1F
100
AcDbEntity
  8
0
  6
Continuous
 62
     7
370
    25
100
AcDbCircle
 10
227.4852067301
 20
192.3006461186
 30
0.0
 40
0.49410403049294
100
AcDbArc
 50
180.7535768612
 51
271.7007770082
  0
LINE
  5
158
330
1F
100
AcDbEntity
  8
0
  6
Continuous
 62
     7
370
    25
100
AcDbLine
 10
226.9911454354
 20
192.2941476534
 30
0.0
 11
226.9911454354
 21
195.7534041161
 31
0.0
  0
LINE
  5
159
330
1F
100
AcDbEntity
  8
0
  6
Continuous
 62
     7
370
    25
100
AcDbLine
 10
227.4998716386
 20
215.2990275883
 30
0.0
 11
227.4998716386
 21
211.8035549376
 31
0.0
  0
ARC
  5
15A
330
1F
100
AcDbEntity
  8
0
  6
Continuous
 62
     7
370
    25
100
AcDbCircle
 10
227.4852067301
 20
214.8051412315
 30
0.0
 40
0.49410403049294
100
AcDbArc
 50
88.2992229918
 51
179.2464231388
  0
LINE
  5
15B
330
1F
100
AcDbEntity
  8
0
  6
Continuous
 62
     7
370
    25
100
AcDbLine
 10
226.9911454354
 20
211.3523832341
 30
0.0
 11
226.9911454354
 21
214.8116396967
 31
0.0
  0
SPLINE
  5
15C
330
1F
100
AcDbEntity
  8
0
  6
Continuous
 62
     7
370
    25
100
AcDbSpline
210
0.0
220
0.0
230
1.0
 70
     8
 71
     3
 72
    12
 73
     8
 74
     0
 42
0.00000001
 43
0.00000001
 40
0.0
 40
0.0
 40
0.0
 40
0.0
 40
0.1662426524176553
 40
0.3368059756191319
 40
0.6054181071254597
 40
0.8801435087136193
 40
1.0
 40
1.0
 40
1.0
 40
1.0
 10
231.5823794653592
 20
191.876233293397
 30
0.0
 10
231.6818361726345
 20
192.03171846888
 30
0.0
 10
231.8833344815134
 20
192.3467299022352
 30
0.0
 10
232.7055822375359
 20
193.0096950072337
 30
0.0
 10
234.0674114045224
 20
193.8618899240392
 30
0.0
 10
235.6285175931813
 20
194.7045186026512
 30
0.0
 10
236.598757285343
 20
195.2423766953464
 30
0.0
 10
236.8934731030458
 20
195.4057541461737
 30
0.0
  0
LINE
  5
15D
330
1F
100
AcDbEntity
  8
0
  6
Continuous
 62
     7
370
    25
100
AcDbLine
 10
231.5823794654
 20
191.8762332934
 30
0.0
 11
227.4998716386
 21
191.8067597618
 31
0.0
  0
LWPOLYLINE
  5
15E
330
1F
100
AcDbEntity
  8
0
  6
Continuous
 62
     7
370
    25
100
AcDbPolyline
 90
        3
 70
   128
 43
0.0
 10
236.893473103
 20
195.4057541462
 10
233.4911454354
 20
195.3682304426
 10
227.4998716556
 20
195.3022324127
  0
LINE
  5
15F
330
1F
100
AcDbEntity
  8
0
  6
Continuous
 62
     7
370
    25
100
AcDbLine
 10
231.5260502483
 20
215.1836218899
 30
0.0
 11
231.5260502483
 21
215.2305126317
 31
0.0
  0
SPLINE
  5
160
330
1F
100
AcDbEntity
  8
0
  6
Continuous
 62
     7
370
    25
100
AcDbSpline
210
0.0
220
0.0
230
1.0
 70
     8
 71
     3
 72
    12
 73
     8
 74
     0
 42
0.00000001
 43
0.00000001
 40
0.0
 40
0.0
 40
0.0
 40
0.0
 40
0.0460732444350177
 40
0.2494607408078313
 40
0.47794052093789
 40
0.7057893369168757
 40
1.0
 40
1.0
 40
1.0
 40
1.0
 10
235.9750592354324
 20
211.7101654351704
 30
0.0
 10
235.8730867944354
 20
211.7726708325862
 30
0.0
 10
235.3209633009622
 20
212.1111024523915
 30
0.0
 10
234.2769833456498
 20
212.7296445492165
 30
0.0
 10
233.005705070138
 20
213.5373691007852
 30
0.0
 10
231.8389420455607
 20
214.4094470143248
 30
0.0
 10
231.6388267647828
 20
214.9045837482991
 30
0.0
 10
231.5260502482899
 20
215.1836218898555
 30
0.0
  0
LWPOLYLINE
  5
161
330
1F
100
AcDbEntity
  8
0
  6
Continuous
 62
     7
370
    25
100
AcDbPolyline
 90
        3
 70
   128
 43
0.0
 10
235.9750592354
 20
211.7101654352
 10
233.4911454354
 20
211.7375569075
 10
227.4998716386
 20
211.8035549376
  0
LINE
  5
162
330
1F
100
AcDbEntity
  8
0
  6
Continuous
 62
     7
370
    25
100
AcDbLine
 10
231.5260502483
 20
215.2305126317
 30
0.0
 11
227.4998716386
 21
215.2990275883
 31
0.0
  0
LINE
  5
163
330
1F
100
AcDbEntity
  8
0
  6
Continuous
 62
     7
370
    25
100
AcDbLine
 10
236.0132350394
 20
211.7094781324
 30
0.0
 11
235.9750592354
 21
211.7101654352
 31
0.0
  0
LINE
  5
164
330
1F
100
AcDbEntity
  8
0
  6
Continuous
 62
     7
370
    25
100
AcDbLine
 10
236.0132350394
 20
211.7094781324
 30
0.0
 11
236.0457691787
 21
211.7088910915
 31
0.0
  0
LINE
  5
165
330
1F
100
AcDbEntity
  8
0
  6
Continuous
 62
     7
370
    25
100
AcDbLine
 10
236.9791893926
 20
195.4073023293
 30
0.0
 11
236.9345830594
 21
195.4064957122
 31
0.0
  0
LINE
  5
166
330
1F
100
AcDbEntity
  8
0
  6
Continuous
 62
     7
370
    25
100
AcDbLine
 10
236.893473103
 20
195.4057541462
 30
0.0
 11
236.9345830594
 21
195.4064957122
 31
0.0
  0
LINE
  5
167
330
1F
100
AcDbEntity
  8
0
  6
Continuous
 62
     7
370
    25
100
AcDbLine
 10
226.9911454354
 20
214.8116396967
 30
0.0
 11
226.9911454354
 21
215.0247832898
 31
0.0
  0
LINE
  5
168
330
1F
100
AcDbEntity
  8
0
  6
Continuous
 62
     7
370
    25
100
AcDbLine
 10
226.9911454354
 20
192.0810040603
 30
0.0
 11
226.9911454354
 21
192.2941476534
 31
0.0
  0
LINE
  5
169
330
1F
100
AcDbEntity
  8
0
  6
Continuous
 62
     7
370
    25
100
AcDbLine
 10
231.5260502483
 20
191.6679462281
 30
0.0
 11
231.5823794654
 21
191.8762332934
 31
0.0
  0
LINE
  5
16A
330
1F
100
AcDbEntity
  8
0
  6
Continuous
 62
     7
370
    25
100
AcDbLine
 10
218.3411454354
 20
205.5096317564
 30
0.0
 11
218.3411454354
 21
202.9133295943
 31
0.0
  0
SPLINE
  5
16B
330
1F
100
AcDbEntity
  8
0
  6
Continuous
 62
     7
370
    25
100
AcDbSpline
210
0.0
220
0.0
230
1.0
 70
     8
 71
     3
 72
    13
 73
     9
 74
     0
 42
0.00000001
 43
0.00000001
 40
0.0
 40
0.0
 40
0.0
 40
0.0
 40
0.0295448902054259
 40
0.2606471239688192
 40
0.4913152552054726
 40
0.7308682638478787
 40
0.9709134921287392
 40
1.0
 40
1.0
 40
1.0
 40
1.0
 10
218.3411454354154
 20
205.5096317564284
 30
0.0
 10
218.3690702532313
 20
205.5711770635356
 30
0.0
 10
218.6154249832863
 20
206.1141341427367
 30
0.0
 10
218.9775136671837
 20
207.169580308494
 30
0.0
 10
219.1892612373777
 20
208.7279155285777
 30
0.0
 10
218.9944206025257
 20
210.3087261250066
 30
0.0
 10
218.6230754463042
 20
211.4027294039599
 30
0.0
 10
218.3686432818591
 20
211.9633410869525
 30
0.0
 10
218.3411454354154
 20
212.0239293934941
 30
0.0
  0
LINE
  5
16C
330
1F
100
AcDbEntity
  8
0
  6
Continuous
 62
     7
370
    25
100
AcDbLine
 10
218.3411454354
 20
213.1223555223
 30
0.0
 11
218.3411454354
 21
212.0239293935
 31
0.0
  0
SPLINE
  5
16D
330
1F
100
AcDbEntity
  8
0
  6
Continuous
 62
     7
370
    25
100
AcDbSpline
210
0.0
220
0.0
230
1.0
 70
     8
 71
     3
 72
     9
 73
     5
 74
     0
 42
0.00000001
 43
0.00000001
 40
0.0
 40
0.0
 40
0.0
 40
0.0
 40
0.614166973587624
 40
0.9999999999999999
 40
0.9999999999999999
 40
0.9999999999999999
 40
0.9999999999999999
 10
218.3411454354154
 20
213.1223555222513
 30
0.0
 10
218.5636968358354
 20
213.0669612899702
 30
0.0
 10
218.9260598576046
 20
212.9767671983579
 30
0.0
 10
219.0053003110887
 20
212.8815617117314
 30
0.0
 10
219.0358738950707
 20
212.8448282906952
 30
0.0
  0
SPLINE
  5
16E
330
1F
100
AcDbEntity
  8
0
  6
Continuous
 62
     7
370
    25
100
AcDbSpline
210
0.0
220
0.0
230
1.0
 70
     8
 71
     3
 72
    11
 73
     7
 74
     0
 42
0.00000001
 43
0.00000001
 40
0.0
 40
0.0
 40
0.0
 40
0.0
 40
0.2431641197380933
 40
0.4936284730588935
 40
0.7421706076863281
 40
0.9999999999999999
 40
0.9999999999999999
 40
0.9999999999999999
 40
0.9999999999999999
 10
218.3411454354154
 20
193.492589250228
 30
0.0
 10
218.5512857586241
 20
193.548111367504
 30
0.0
 10
218.9778752035857
 20
193.6608224780147
 30
0.0
 10
219.1882596337287
 20
193.8396187341486
 30
0.0
 10
218.9975729400618
 20
194.0221874057613
 30
0.0
 10
218.5626137696671
 20
194.137936549441
 30
0.0
 10
218.3411454354154
 20
194.1968725870892
 30
0.0
  0
LINE
  5
16F
330
1F
100
AcDbEntity
  8
0
  6
Continuous
 62
     7
370
    25
100
AcDbLine
 10
218.3411454354
 20
195.6947486204
 30
0.0
 11
218.3411454354
 21
194.1968725871
 31
0.0
  0
SPLINE
  5
170
330
1F
100
AcDbEntity
  8
0
  6
Continuous
 62
     7
370
    25
100
AcDbSpline
210
0.0
220
0.0
230
1.0
 70
     8
 71
     3
 72
    11
 73
     7
 74
     0
 42
0.00000001
 43
0.00000001
 40
0.0
 40
0.0
 40
0.0
 40
0.0
 40
0.2431641197380922
 40
0.4936284730588946
 40
0.7421706076863281
 40
1.0
 40
1.0
 40
1.0
 40
1.0
 10
218.3411454354154
 20
195.6947486204168
 30
0.0
 10
218.5512857586241
 20
196.2638248407741
 30
0.0
 10
218.9778752035858
 20
197.4190619950535
 30
0.0
 10
219.1882596337288
 20
199.2516415623759
 30
0.0
 10
218.9975729400617
 20
201.1228866570172
 30
0.0
 10
218.5626137696671
 20
202.3092622569825
 30
0.0
 10
218.3411454354154
 20
202.9133295943437
 30
0.0
  0
LINE
  5
171
330
1F
100
AcDbEntity
  8
0
  6
Continuous
 62
     7
370
    25
100
AcDbLine
 10
220.3411454354
 20
208.0484505501
 30
0.0
 11
220.3411454354
 21
195.0574723862
 31
0.0
  0
LINE
  5
172
330
1F
100
AcDbEntity
  8
0
  6
Continuous
 62
     7
370
    25
100
AcDbLine
 10
220.3411454354
 20
211.5574723862
 30
0.0
 11
220.3411454354
 21
208.0484505501
 31
0.0
  0
LWPOLYLINE
  5
173
330
1F
100
AcDbEntity
  8
0
  6
Continuous
 62
     7
370
    25
100
AcDbPolyline
 90
       69
 70
   128
 43
0.0
 10
213.2273708719
 20
212.6808202806
 10
211.8199588937
 20
212.6917808813
 10
211.8325293125
 20
212.6461882454
 10
211.8415577684
 20
212.5938573277
 10
211.8895360851
 20
212.0604437992
 10
211.9187862989
 20
211.548288313
 10
211.9524040218
 20
210.8007803155
 10
212.0067035937
 20
209.2284121717
 10
212.0249839852
 20
208.590668386
 10
212.0448444868
 20
207.8652966878
 10
212.1032859983
 20
205.6176009932
 10
212.1369485996
 20
204.2625592619
 10
212.162149116
 20
203.2206745529
 10
212.1663017093
 20
203.0455554569
 10
212.1713859123
 20
202.8263646302
 10
212.1809398558
 20
202.4151185578
 10
212.1949635397
 20
201.8147233288
 10
212.2113215396
 20
201.122372498
 10
212.22715043
 20
200.4781768651
 10
212.2520197136
 20
199.5129192385
 10
212.2859293902
 20
198.2824384757
 10
212.3200374711
 20
197.1590028533
 10
212.3723539623
 20
195.6735732294
 10
212.3893207058
 20
195.2681180933
 10
212.4030124169
 20
194.9742715765
 10
212.4168412579
 20
194.7221519422
 10
212.4538521765
 20
194.2180221134
 10
212.4882029513
 20
193.9625878692
 10
212.4973993054
 20
193.9293496075
 10
212.516492731
 20
193.9087118189
 10
212.5336339908
 20
193.9485442523
 10
212.5609089546
 20
194.1326323134
 10
212.5852026135
 20
194.4145460484
 10
212.6064143007
 20
194.7386302628
 10
212.6373861618
 20
195.336446148
 10
212.6692127712
 20
196.1009610536
 10
212.6910043429
 20
196.7131903846
 10
212.7150823177
 20
197.4836389403
 10
212.7420819387
 20
198.4463820815
 10
212.7589842224
 20
199.074996711
 10
212.7779590136
 20
199.7954985012
 10
212.7882744452
 20
200.1920822549
 10
212.8072230805
 20
200.9331804958
 10
212.8338427024
 20
201.9994824988
 10
212.8537225064
 20
202.8132163876
 10
212.8779112323
 20
203.8238194897
 10
212.9034055977
 20
204.9095422559
 10
212.9256852182
 20
205.8607314923
 10
212.9498095972
 20
206.817234109
 10
212.9888580231
 20
208.2468037069
 10
213.023628128
 20
209.4021101515
 10
213.0491099122
 20
210.1661080145
 10
213.0653033756
 20
210.613983204
 10
213.0804338716
 20
211.0065893172
 10
213.0973304278
 20
211.4015856547
 10
213.1129478111
 20
211.7235754715
 10
213.1342975885
 20
212.0809751553
 10
213.1715905929
 20
212.5109928931
 10
213.2310633323
 20
212.692062263
 10
213.2690029485
 20
212.4572489406
 10
213.3214801556
 20
211.709842308
 10
213.3560183269
 20
210.9829352385
 10
213.3874464831
 20
210.1650281164
 10
213.4133584033
 20
209.3757285022
 10
213.4334604784
 20
208.6859008532
 10
213.4728142217
 20
207.2402246167
 10
213.5033576448
 20
206.0593015904
 10
213.5411454354
 20
204.5446579608
 10
213.5411454354
 20
204.5446579608
  0
LINE
  5
174
330
1F
100
AcDbEntity
  8
0
  6
Continuous
 62
     7
370
    25
100
AcDbLine
 10
213.5411454354
 20
193.9892444741
 30
0.0
 11
213.5411454354
 21
204.5446579605
 31
0.0
  0
SPLINE
  5
175
330
1F
100
AcDbEntity
  8
0
  6
Continuous
 62
     7
370
    25
100
AcDbSpline
210
0.0
220
0.0
230
1.0
 70
     8
 71
     3
 72
    34
 73
    30
 74
     0
 42
0.00000001
 43
0.00000001
 40
0.0
 40
0.0
 40
0.0
 40
0.0
 40
0.0107203951961487
 40
0.0520621697759953
 40
0.0928367874081198
 40
0.1325810366880712
 40
0.1677541617798288
 40
0.2086915438314887
 40
0.2384934651934104
 40
0.2673349663247644
 40
0.3188328256376513
 40
0.3705684485253377
 40
0.403485548380023
 40
0.4497965787901722
 40
0.4930749937141917
 40
0.5200718191566127
 40
0.529016179957582
 40
0.5550558451171256
 40
0.5810956805628307
 40
0.6071356883937962
 40
0.6850971664419631
 40
0.7212104574388014
 40
0.7533762602206928
 40
0.7815934401165545
 40
0.8424689042448504
 40
0.8663160849528517
 40
0.9005262882265267
 40
0.9450912036484979
 40
1.0
 40
1.0
 40
1.0
 40
1.0
 10
212.8655180131239
 20
212.6978483477153
 30
0.0
 10
212.8679358474322
 20
212.7004027995389
 30
0.0
 10
212.8796777373487
 20
212.712808154201
 30
0.0
 10
212.8998499636245
 20
212.6117402501346
 30
0.0
 10
212.9263114996037
 20
212.3691805707057
 30
0.0
 10
212.9524328222579
 20
212.0039609563288
 30
0.0
 10
212.9790657495103
 20
211.5268678566411
 30
0.0
 10
213.0034249554352
 20
210.9898133119307
 30
0.0
 10
213.0262660276665
 20
210.4043300618343
 30
0.0
 10
213.0516464689588
 20
209.6878336957713
 30
0.0
 10
213.0802158672602
 20
208.7231251185212
 30
0.0
 10
213.1098778046416
 20
207.6137092791504
 30
0.0
 10
213.1397750010076
 20
206.478503300641
 30
0.0
 10
213.1680495704046
 20
205.3675526717964
 30
0.0
 10
213.1949484659052
 20
204.2785508839328
 30
0.0
 10
213.2131755778949
 20
203.5320596513635
 30
0.0
 10
213.2269756909897
 20
202.9480073849285
 30
0.0
 10
213.2398941782894
 20
202.37337711601
 30
0.0
 10
213.2570423172533
 20
201.643515619833
 30
0.0
 10
213.2857306406923
 20
200.4461904119588
 30
0.0
 10
213.3177171920854
 20
199.202898301828
 30
0.0
 10
213.3514307307867
 20
198.0233978206506
 30
0.0
 10
213.3734809612301
 20
197.2972085089262
 30
0.0
 10
213.4010536992429
 20
196.4518796932599
 30
0.0
 10
213.4260869557579
 20
195.7635722830955
 30
0.0
 10
213.4519602611363
 20
195.1579553023849
 30
0.0
 10
213.4751755597121
 20
194.7099832075761
 30
0.0
 10
213.5056111949536
 20
194.2489157113724
 30
0.0
 10
213.5285070711556
 20
194.0816010192597
 30
0.0
 10
213.5411454354154
 20
193.9892444740777
 30
0.0
  0
SPLINE
  5
176
330
1F
100
AcDbEntity
  8
0
  6
Continuous
 62
     7
370
    25
100
AcDbSpline
210
0.0
220
0.0
230
1.0
 70
     8
 71
     3
 72
     9
 73
     5
 74
     0
 42
0.00000001
 43
0.00000001
 40
0.0
 40
0.0
 40
0.0
 40
0.0
 40
0.97638139255599
 40
1.0
 40
1.0
 40
1.0
 40
1.0
 10
212.8911454354154
 20
195.0468848876015
 30
0.0
 10
212.9120856059135
 20
194.8047443150163
 30
0.0
 10
212.9335323178827
 20
194.5567463764736
 30
0.0
 10
212.9535776717717
 20
194.676848492863
 30
0.0
 10
212.9540511151162
 20
194.6796851376032
 30
0.0
  0
SPLINE
  5
177
330
1F
100
AcDbEntity
  8
0
  6
Continuous
 62
     7
370
    25
100
AcDbSpline
210
0.0
220
0.0
230
1.0
 70
     8
 71
     3
 72
    13
 73
     9
 74
     0
 42
0.00000001
 43
0.00000001
 40
0.0
 40
0.0
 40
0.0
 40
0.0
 40
0.1633117204154805
 40
0.3537060974034397
 40
0.542209649589676
 40
0.7300371885093455
 40
0.9206669352019216
 40
1.0
 40
1.0
 40
1.0
 40
1.0
 10
213.6689738586751
 20
211.8910282265356
 30
0.0
 10
213.6885016904808
 20
211.8135591091227
 30
0.0
 10
213.7307957350303
 20
211.6457738508466
 30
0.0
 10
213.8007426485949
 20
210.3916183667909
 30
0.0
 10
213.8705960176053
 20
208.4684856172347
 30
0.0
 10
213.9391640884821
 20
206.0256423041234
 30
0.0
 10
213.9989402320382
 20
203.8339388931359
 30
0.0
 10
214.031559670562
 20
202.5541049624254
 30
0.0
 10
214.0411454354154
 20
202.1780044632671
 30
0.0
  0
SPLINE
  5
178
330
1F
100
AcDbEntity
  8
0
  6
Continuous
 62
     7
370
    25
100
AcDbSpline
210
0.0
220
0.0
230
1.0
 70
    24
 71
     3
 72
    10
 73
     6
 74
     0
 42
0.00000001
 43
0.00000001
 40
0.0
 40
0.0
 40
0.0
 40
0.0
 40
0.3187287177375316
 40
0.8180873955881224
 40
1.0
 40
1.0
 40
1.0
 40
1.0
 10
214.0411454354154
 20
202.1780044632671
 30
0.0
 10
214.0411454354154
 20
201.5557007233351
 30
0.0
 10
214.0411454354154
 20
199.958421226591
 30
0.0
 10
214.0411454354154
 20
198.1517705597095
 30
0.0
 10
214.0411454354154
 20
197.1467902509206
 30
0.0
 10
214.0411454354154
 20
196.8784410776701
 30
0.0
  0
SPLINE
  5
179
330
1F
100
AcDbEntity
  8
0
  6
Continuous
 62
     7
370
    25
100
AcDbSpline
210
0.0
220
0.0
230
1.0
 70
     8
 71
     3
 72
    13
 73
     9
 74
     0
 42
0.00000001
 43
0.00000001
 40
0.0
 40
0.0
 40
0.0
 40
0.0
 40
0.2187316754180408
 40
0.3931473777464116
 40
0.571425411379405
 40
0.7494200729434982
 40
0.8738925945231115
 40
1.0
 40
1.0
 40
1.0
 40
1.0
 10
214.0411454354154
 20
196.8784410776701
 30
0.0
 10
214.0034176285088
 20
197.3136846300933
 30
0.0
 10
213.9356058297601
 20
198.0959895294143
 30
0.0
 10
213.8367924011472
 20
199.4902174638681
 30
0.0
 10
213.7477808648961
 20
200.8913122647726
 30
0.0
 10
213.6730679379588
 20
202.2389206303596
 30
0.0
 10
213.6033998590534
 20
203.4644740400758
 30
0.0
 10
213.5619869747254
 20
204.1830339294301
 30
0.0
 10
213.541145435432
 20
204.5446579604954
 30
0.0
  0
LINE
  5
17A
330
1F
100
AcDbEntity
  8
0
  6
Continuous
 62
     7
370
    25
100
AcDbLine
 10
213.5411454354
 20
193.9892444741
 30
0.0
 11
213.5600763541
 21
193.9690604892
 31
0.0
  0
SPLINE
  5
17B
330
1F
100
AcDbEntity
  8
0
  6
Continuous
 62
     7
370
    25
100
AcDbSpline
210
0.0
220
0.0
230
1.0
 70
     8
 71
     3
 72
     9
 73
     5
 74
     0
 42
0.00000001
 43
0.00000001
 40
0.0
 40
0.0
 40
0.0
 40
0.0
 40
0.2575807037701713
 40
1.0
 40
1.0
 40
1.0
 40
1.0
 10
214.0074061744312
 20
212.2099900613899
 30
0.0
 10
214.0103998285384
 20
212.2158157325776
 30
0.0
 10
214.0220220271868
 20
212.2384326099385
 30
0.0
 10
214.0329972317601
 20
212.0705954288429
 30
0.0
 10
214.0411454354154
 20
211.9459898669728
 30
0.0
  0
SPLINE
  5
17C
330
1F
100
AcDbEntity
  8
0
  6
Continuous
 62
     7
370
    25
100
AcDbSpline
210
0.0
220
0.0
230
1.0
 70
    24
 71
     3
 72
    10
 73
     6
 74
     0
 42
0.00000001
 43
0.00000001
 40
0.0
 40
0.0
 40
0.0
 40
0.0
 40
0.3294562546722
 40
0.8318642056942901
 40
1.0
 40
1.0
 40
1.0
 40
1.0
 10
214.0411454354154
 20
211.9459898669728
 30
0.0
 10
214.0411454354154
 20
211.7222294172868
 30
0.0
 10
214.0411454354153
 20
211.1572430007167
 30
0.0
 10
214.0411454354154
 20
209.8770914753587
 30
0.0
 10
214.0411454354154
 20
208.8265191094462
 30
0.0
 10
214.0411454354154
 20
208.5630928670137
 30
0.0
  0
SPLINE
  5
17D
330
1F
100
AcDbEntity
  8
0
  6
Continuous
 62
     7
370
    25
100
AcDbSpline
210
0.0
220
0.0
230
1.0
 70
     8
 71
     3
 72
    11
 73
     7
 74
     0
 42
0.00000001
 43
0.00000001
 40
0.0
 40
0.0
 40
0.0
 40
0.0
 40
0.1123950113901299
 40
0.4199943621869237
 40
0.7261447176194192
 40
1.0
 40
1.0
 40
1.0
 40
1.0
 10
212.8911454354154
 20
199.132383458278
 30
0.0
 10
212.8998662407577
 20
198.8331081271522
 30
0.0
 10
212.9324538888411
 20
197.7147849003481
 30
0.0
 10
212.9875230082314
 20
196.2628558540673
 30
0.0
 10
213.0535029059122
 20
194.9732667464579
 30
0.0
 10
213.0989279382341
 20
194.8040592649895
 30
0.0
 10
213.1203758074317
 20
194.7241663129258
 30
0.0
  0
SPLINE
  5
17E
330
1F
100
AcDbEntity
  8
0
  6
Continuous
 62
     7
370
    25
100
AcDbSpline
210
0.0
220
0.0
230
1.0
 70
     8
 71
     3
 72
    11
 73
     7
 74
     0
 42
0.00000001
 43
0.00000001
 40
0.0
 40
0.0
 40
0.0
 40
0.0
 40
0.0058314992650533
 40
0.3431453499632174
 40
0.6876241808559885
 40
1.0
 40
1.0
 40
1.0
 40
1.0
 10
213.8357431778306
 20
211.9365668138695
 30
0.0
 10
213.8361515106854
 20
211.9389364955122
 30
0.0
 10
213.8601792116212
 20
212.0783766634003
 30
0.0
 10
213.9036378020483
 20
211.5786795095057
 30
0.0
 10
213.9752410249728
 20
210.4754987410308
 30
0.0
 10
214.0199049308586
 20
209.179447150569
 30
0.0
 10
214.0411454354154
 20
208.5630928670137
 30
0.0
  0
LINE
  5
17F
330
1F
100
AcDbEntity
  8
0
  6
Continuous
 62
     7
370
    25
100
AcDbLine
 10
215.7911454354
 20
195.6947486204
 30
0.0
 11
215.5411454354
 21
196.3303266388
 31
0.0
  0
LINE
  5
180
330
1F
100
AcDbEntity
  8
0
  6
Continuous
 62
     7
370
    25
100
AcDbLine
 10
215.5411454354
 20
202.277751576
 30
0.0
 11
215.7911454354
 21
202.9133295943
 31
0.0
  0
LINE
  5
181
330
1F
100
AcDbEntity
  8
0
  6
Continuous
 62
     7
370
    25
100
AcDbLine
 10
218.3411454354
 20
202.9133295943
 30
0.0
 11
215.7911454354
 21
202.9133295943
 31
0.0
  0
LINE
  5
182
330
1F
100
AcDbEntity
  8
0
  6
Continuous
 62
     7
370
    25
100
AcDbLine
 10
215.7911454354
 20
195.6947486204
 30
0.0
 11
218.3411454354
 21
195.6947486204
 31
0.0
  0
LINE
  5
183
330
1F
100
AcDbEntity
  8
0
  6
Continuous
 62
     7
370
    25
100
AcDbLine
 10
215.5411454354
 20
202.277751576
 30
0.0
 11
215.5411454354
 21
196.3303266388
 31
0.0
  0
LINE
  5
184
330
1F
100
AcDbEntity
  8
0
  6
Continuous
 62
     7
370
    25
100
AcDbLine
 10
214.0411454354
 20
196.8784410777
 30
0.0
 11
214.0411454354
 21
194.4074723862
 31
0.0
  0
SPLINE
  5
185
330
1F
100
AcDbEntity
  8
0
  6
Continuous
 62
     7
370
    25
100
AcDbSpline
210
0.0
220
0.0
230
1.0
 70
    24
 71
     3
 72
    11
 73
     7
 74
     0
 42
0.00000001
 43
0.00000001
 40
0.0
 40
0.0
 40
0.0
 40
0.0
 40
0.0521773337626324
 40
0.261547743229521
 40
0.6847281688108003
 40
0.9999999999999999
 40
0.9999999999999999
 40
0.9999999999999999
 40
0.9999999999999999
 10
214.0411454354154
 20
208.5630928670137
 30
0.0
 10
214.0411454354154
 20
208.4688321564676
 30
0.0
 10
214.0411454354153
 20
207.9963343429402
 30
0.0
 10
214.0411454354154
 20
206.658202887542
 30
0.0
 10
214.0411454354154
 20
204.5603545400214
 30
0.0
 10
214.0411454354154
 20
202.8907981440933
 30
0.0
 10
214.0411454354154
 20
202.178004463267
 30
0.0
  0
LINE
  5
186
330
1F
100
AcDbEntity
  8
0
  6
Continuous
 62
     7
370
    25
100
AcDbLine
 10
215.7911454354
 20
205.5096317564
 30
0.0
 11
215.5411454354
 21
206.0831993867
 31
0.0
  0
LINE
  5
187
330
1F
100
AcDbEntity
  8
0
  6
Continuous
 62
     7
370
    25
100
AcDbLine
 10
215.7911454354
 20
205.5096317564
 30
0.0
 11
215.7911454354
 21
202.9133295943
 31
0.0
  0
LINE
  5
188
330
1F
100
AcDbEntity
  8
0
  6
Continuous
 62
     7
370
    25
100
AcDbLine
 10
215.5411454354
 20
202.277751576
 30
0.0
 11
215.5411454354
 21
206.0831993867
 31
0.0
  0
LINE
  5
189
330
1F
100
AcDbEntity
  8
0
  6
Continuous
 62
     7
370
    25
100
AcDbLine
 10
215.7911454354
 20
205.5096317564
 30
0.0
 11
218.3411454354
 21
205.5096317564
 31
0.0
  0
LINE
  5
18A
330
1F
100
AcDbEntity
  8
0
  6
Continuous
 62
     7
370
    25
100
AcDbLine
 10
215.5411454354
 20
211.4503617632
 30
0.0
 11
215.7911454354
 21
212.0239293935
 31
0.0
  0
LINE
  5
18B
330
1F
100
AcDbEntity
  8
0
  6
Continuous
 62
     7
370
    25
100
AcDbLine
 10
218.3411454354
 20
212.0239293935
 30
0.0
 11
215.7911454354
 21
212.0239293935
 31
0.0
  0
LINE
  5
18C
330
1F
100
AcDbEntity
  8
0
  6
Continuous
 62
     7
370
    25
100
AcDbLine
 10
215.5411454354
 20
211.4503617632
 30
0.0
 11
215.5411454354
 21
206.0831993867
 31
0.0
  0
LINE
  5
18D
330
1F
100
AcDbEntity
  8
0
  6
Continuous
 62
     7
370
    25
100
AcDbLine
 10
215.5411454354
 20
194.134862199
 30
0.0
 11
215.7911454354
 21
194.1968725871
 31
0.0
  0
LINE
  5
18E
330
1F
100
AcDbEntity
  8
0
  6
Continuous
 62
     7
370
    25
100
AcDbLine
 10
215.7911454354
 20
195.6947486204
 30
0.0
 11
215.7911454354
 21
194.1968725871
 31
0.0
  0
LINE
  5
18F
330
1F
100
AcDbEntity
  8
0
  6
Continuous
 62
     7
370
    25
100
AcDbLine
 10
215.5411454354
 20
194.134862199
 30
0.0
 11
215.5411454354
 21
196.3303266388
 31
0.0
  0
LINE
  5
190
330
1F
100
AcDbEntity
  8
0
  6
Continuous
 62
     7
370
    25
100
AcDbLine
 10
218.3411454354
 20
194.1968725871
 30
0.0
 11
215.7911454354
 21
194.1968725871
 31
0.0
  0
LINE
  5
191
330
1F
100
AcDbEntity
  8
0
  6
Continuous
 62
     7
370
    25
100
AcDbLine
 10
215.7911454354
 20
213.1223555223
 30
0.0
 11
215.5411454354
 21
213.0603451342
 31
0.0
  0
LINE
  5
192
330
1F
100
AcDbEntity
  8
0
  6
Continuous
 62
     7
370
    25
100
AcDbLine
 10
215.7911454354
 20
213.1223555223
 30
0.0
 11
215.7911454354
 21
212.0239293935
 31
0.0
  0
LINE
  5
193
330
1F
100
AcDbEntity
  8
0
  6
Continuous
 62
     7
370
    25
100
AcDbLine
 10
215.5411454354
 20
211.4503617632
 30
0.0
 11
215.5411454354
 21
213.0603451342
 31
0.0
  0
LINE
  5
194
330
1F
100
AcDbEntity
  8
0
  6
Continuous
 62
     7
370
    25
100
AcDbLine
 10
215.7911454354
 20
213.1223555223
 30
0.0
 11
218.3411454354
 21
213.1223555223
 31
0.0
  0
LINE
  5
195
330
1F
100
AcDbEntity
  8
0
  6
Continuous
 62
     7
370
    25
100
AcDbLine
 10
215.7911454354
 20
193.4925892502
 30
0.0
 11
215.5411454354
 21
193.5545996383
 31
0.0
  0
LINE
  5
196
330
1F
100
AcDbEntity
  8
0
  6
Continuous
 62
     7
370
    25
100
AcDbLine
 10
215.7911454354
 20
193.4925892502
 30
0.0
 11
218.3411454354
 21
193.4925892502
 31
0.0
  0
LINE
  5
197
330
1F
100
AcDbEntity
  8
0
  6
Continuous
 62
     7
370
    25
100
AcDbLine
 10
215.5411454354
 20
194.134862199
 30
0.0
 11
215.5411454354
 21
193.5545996383
 31
0.0
  0
LINE
  5
198
330
1F
100
AcDbEntity
  8
0
  6
Continuous
 62
     7
370
    25
100
AcDbLine
 10
85.9911454354
 20
212.0239293935
 30
0.0
 11
85.9911454354
 21
213.1223555223
 31
0.0
  0
SPLINE
  5
199
330
1F
100
AcDbEntity
  8
0
  6
Continuous
 62
     7
370
    25
100
AcDbSpline
210
0.0
220
0.0
230
1.0
 70
     8
 71
     3
 72
    13
 73
     9
 74
     0
 42
0.00000001
 43
0.00000001
 40
0.0
 40
0.0
 40
0.0
 40
0.0
 40
0.0295448902054257
 40
0.2606471239688184
 40
0.4913152552054746
 40
0.7308682638478782
 40
0.9709134921287369
 40
1.0
 40
1.0
 40
1.0
 40
1.0
 10
85.99114543541536
 20
212.0239293934941
 30
0.0
 10
85.96322061759948
 20
211.962384086387
 30
0.0
 10
85.71686588754447
 20
211.419427007186
 30
0.0
 10
85.35477720364706
 20
210.3639808414287
 30
0.0
 10
85.14302963345294
 20
208.805645621345
 30
0.0
 10
85.33787026830508
 20
207.224835024916
 30
0.0
 10
85.70921542452653
 20
206.1308317459628
 30
0.0
 10
85.96364758897167
 20
205.5702200629702
 30
0.0
 10
85.99114543541536
 20
205.5096317564285
 30
0.0
  0
LINE
  5
19A
330
1F
100
AcDbEntity
  8
0
  6
Continuous
 62
     7
370
    25
100
AcDbLine
 10
85.9911454354
 20
202.9133295943
 30
0.0
 11
85.9911454354
 21
205.5096317564
 31
0.0
  0
SPLINE
  5
19B
330
1F
100
AcDbEntity
  8
0
  6
Continuous
 62
     7
370
    25
100
AcDbSpline
210
0.0
220
0.0
230
1.0
 70
     8
 71
     3
 72
    11
 73
     7
 74
     0
 42
0.00000001
 43
0.00000001
 40
0.0
 40
0.0
 40
0.0
 40
0.0
 40
0.243164119738092
 40
0.4936284730588945
 40
0.7421706076863281
 40
1.0
 40
1.0
 40
1.0
 40
1.0
 10
85.99114543541536
 20
202.9133295943437
 30
0.0
 10
85.78100511220659
 20
202.3442533739865
 30
0.0
 10
85.35441566724496
 20
201.1890162197071
 30
0.0
 10
85.144031237102
 20
199.3564366523846
 30
0.0
 10
85.33471793076896
 20
197.4851915577434
 30
0.0
 10
85.76967710116368
 20
196.298815957778
 30
0.0
 10
85.99114543541536
 20
195.6947486204168
 30
0.0
  0
LINE
  5
19C
330
1F
100
AcDbEntity
  8
0
  6
Continuous
 62
     7
370
    25
100
AcDbLine
 10
85.9911454354
 20
194.1968725871
 30
0.0
 11
85.9911454354
 21
195.6947486204
 31
0.0
  0
SPLINE
  5
19D
330
1F
100
AcDbEntity
  8
0
  6
Continuous
 62
     7
370
    25
100
AcDbSpline
210
0.0
220
0.0
230
1.0
 70
     8
 71
     3
 72
    11
 73
     7
 74
     0
 42
0.00000001
 43
0.00000001
 40
0.0
 40
0.0
 40
0.0
 40
0.0
 40
0.2431641197380907
 40
0.4936284730588919
 40
0.7421706076863273
 40
1.0
 40
1.0
 40
1.0
 40
1.0
 10
85.99114543541536
 20
194.1968725870892
 30
0.0
 10
85.78100511220659
 20
194.1413504698131
 30
0.0
 10
85.35441566724496
 20
194.0286393593025
 30
0.0
 10
85.144031237102
 20
193.8498431031685
 30
0.0
 10
85.33471793076896
 20
193.6672744315557
 30
0.0
 10
85.76967710116368
 20
193.5515252878761
 30
0.0
 10
85.99114543541536
 20
193.492589250228
 30
0.0
  0
SPLINE
  5
19E
330
1F
100
AcDbEntity
  8
0
  6
Continuous
 62
     7
370
    25
100
AcDbSpline
210
0.0
220
0.0
230
1.0
 70
     8
 71
     3
 72
     9
 73
     5
 74
     0
 42
0.00000001
 43
0.00000001
 40
0.0
 40
0.0
 40
0.0
 40
0.0
 40
0.3487394647221094
 40
1.0
 40
1.0
 40
1.0
 40
1.0
 10
85.29775695083357
 20
212.8448527105971
 30
0.0
 10
85.32209878534813
 20
212.8780660646973
 30
0.0
 10
85.39189826885071
 20
212.9733043656643
 30
0.0
 10
85.75480112625098
 20
213.0635694409826
 30
0.0
 10
85.99114543541536
 20
213.1223555222513
 30
0.0
  0
LINE
  5
19F
330
1F
100
AcDbEntity
  8
0
  6
Continuous
 62
     7
370
    25
100
AcDbLine
 10
83.9911454354
 20
208.0484505501
 30
0.0
 11
83.9911454354
 21
211.5574723862
 31
0.0
  0
LINE
  5
1A0
330
1F
100
AcDbEntity
  8
0
  6
Continuous
 62
     7
370
    25
100
AcDbLine
 10
83.9911454354
 20
195.0574723862
 30
0.0
 11
83.9911454354
 21
208.0484505501
 31
0.0
  0
SPLINE
  5
1A1
330
1F
100
AcDbEntity
  8
0
  6
Continuous
 62
     7
370
    25
100
AcDbSpline
210
0.0
220
0.0
230
1.0
 70
     8
 71
     3
 72
    27
 73
    23
 74
     0
 42
0.00000001
 43
0.00000001
 40
0.0
 40
0.0
 40
0.0
 40
0.0
 40
0.0136139090399478
 40
0.0776727084403657
 40
0.1348261364597254
 40
0.1770440798320015
 40
0.2043098191732026
 40
0.2303999875176517
 40
0.2595714286585743
 40
0.2865528382490248
 40
0.3220521810161567
 40
0.3830134828479143
 40
0.4812574504364837
 40
0.5465783976780292
 40
0.6342111976224547
 40
0.690740177653238
 40
0.7424867965677212
 40
0.7860227414525571
 40
0.8208210581933933
 40
0.8874577604484434
 40
0.9380042021573733
 40
1.0
 40
1.0
 40
1.0
 40
1.0
 10
91.3906069360179
 20
193.9196165701015
 30
0.0
 10
91.38790414739958
 20
193.9164680290012
 30
0.0
 10
91.37248367472627
 20
193.8985043630045
 30
0.0
 10
91.34473913165743
 20
194.0635750207413
 30
0.0
 10
91.31166218040305
 20
194.4365887882255
 30
0.0
 10
91.28612193559223
 20
194.8648752697801
 30
0.0
 10
91.26712446736168
 20
195.2522240290108
 30
0.0
 10
91.25129304178309
 20
195.6287639401141
 30
0.0
 10
91.23533501338233
 20
196.0452225533553
 30
0.0
 10
91.21785591965862
 20
196.5532957797375
 30
0.0
 10
91.19285926134057
 20
197.2996087013728
 30
0.0
 10
91.15310498305732
 20
198.6135281442731
 30
0.0
 10
91.10709846004053
 20
200.3445667365949
 30
0.0
 10
91.0593523189124
 20
202.4041110374935
 30
0.0
 10
91.01724251140736
 20
204.1681627332221
 30
0.0
 10
90.97720173982987
 20
205.7757465559042
 30
0.0
 10
90.94642189352001
 20
206.9735225616311
 30
0.0
 10
90.92045162594887
 20
207.9448383708067
 30
0.0
 10
90.89285838655842
 20
208.964527644207
 30
0.0
 10
90.86281052984127
 20
209.9328644601416
 30
0.0
 10
90.82666340315282
 20
210.9205168973651
 30
0.0
 10
90.80376139455245
 20
211.3922588257697
 30
0.0
 10
90.79114543541539
 20
211.6521258529748
 30
0.0
  0
LINE
  5
1A2
330
1F
100
AcDbEntity
  8
0
  6
Continuous
 62
     7
370
    25
100
AcDbLine
 10
90.7911454354
 20
212.7074723862
 30
0.0
 11
90.7911454354
 21
211.6521258531
 31
0.0
  0
SPLINE
  5
1A3
330
1F
100
AcDbEntity
  8
0
  6
Continuous
 62
     7
370
    25
100
AcDbSpline
210
0.0
220
0.0
230
1.0
 70
     8
 71
     3
 72
    35
 73
    31
 74
     0
 42
0.00000001
 43
0.00000001
 40
0.0
 40
0.0
 40
0.0
 40
0.0
 40
0.0240674770331332
 40
0.0679877929768137
 40
0.1125749483174371
 40
0.1439040808921709
 40
0.1776893127437588
 40
0.2210914069396798
 40
0.2567988075823098
 40
0.2935583688291122
 40
0.3694549076630429
 40
0.3999481985346627
 40
0.4395535899128755
 40
0.4786156453284776
 40
0.516690608577227
 40
0.5503864380236239
 40
0.5896044216402678
 40
0.6181546416382507
 40
0.6457847797213723
 40
0.6951196932308977
 40
0.7446823840802006
 40
0.776216942913968
 40
0.8205828779315805
 40
0.8620435694165101
 40
0.8879065094688604
 40
0.8964752009135435
 40
0.9214211820786598
 40
0.946367326377801
 40
0.9713136358219019
 40
0.9999999999999999
 40
0.9999999999999999
 40
0.9999999999999999
 40
0.9999999999999999
 10
91.74336114444014
 20
193.9162551540531
 30
0.0
 10
91.73767488091072
 20
193.9181451057746
 30
0.0
 10
91.7216118549808
 20
193.9234839971841
 30
0.0
 10
91.69442030936487
 20
194.0958804870737
 30
0.0
 10
91.66556783359816
 20
194.4231288732619
 30
0.0
 10
91.63941026542953
 20
194.8474876437186
 30
0.0
 10
91.6144531405067
 20
195.3646637832333
 30
0.0
 10
91.58923099798713
 20
196.0177229493694
 30
0.0
 10
91.56225131267456
 20
196.7967507919007
 30
0.0
 10
91.52599181872817
 20
197.9083717007023
 30
0.0
 10
91.49167844569921
 20
199.1378652988398
 30
0.0
 10
91.45728936984408
 20
200.4820929183313
 30
0.0
 10
91.43241475642321
 20
201.5248478002475
 30
0.0
 10
91.40598616743038
 20
202.6664554722948
 30
0.0
 10
91.3798564839276
 20
203.7592493373267
 30
0.0
 10
91.35322559656878
 20
204.8467339021455
 30
0.0
 10
91.3288658201555
 20
205.823315582548
 30
0.0
 10
91.30602486398664
 20
206.7132239670015
 30
0.0
 10
91.28064439149469
 20
207.6641948388437
 30
0.0
 10
91.2520750062867
 20
208.7391207378505
 30
0.0
 10
91.2224130681327
 20
209.7320230734366
 30
0.0
 10
91.19251586341564
 20
210.5766322820248
 30
0.0
 10
91.16424133595262
 20
211.2622370903242
 30
0.0
 10
91.13734230228735
 20
211.7889198568368
 30
0.0
 10
91.11911545883767
 20
212.0750305611631
 30
0.0
 10
91.10531486172633
 20
212.2689863664808
 30
0.0
 10
91.09240082438231
 20
212.4327589550993
 30
0.0
 10
91.07523359080025
 20
212.5793046124
 30
0.0
 10
91.05721257621013
 20
212.7004779221178
 30
0.0
 10
91.04442367100646
 20
212.6650870313843
 30
0.0
 10
91.03758330360849
 20
212.6461576006549
 30
0.0
  0
SPLINE
  5
1A4
330
1F
100
AcDbEntity
  8
0
  6
Continuous
 62
     7
370
    25
100
AcDbSpline
210
0.0
220
0.0
230
1.0
 70
     8
 71
     3
 72
    18
 73
    14
 74
     0
 42
0.00000001
 43
0.00000001
 40
0.0
 40
0.0
 40
0.0
 40
0.0
 40
0.0774554087960547
 40
0.1860661841307256
 40
0.2602328912561668
 40
0.335619478464364
 40
0.4114978088796589
 40
0.5187351849825097
 40
0.6282504212506468
 40
0.7366780512135038
 40
0.8447168369584802
 40
0.9543674583636139
 40
1.0
 40
1.0
 40
1.0
 40
1.0
 10
90.93930396986032
 20
194.7681811972585
 30
0.0
 10
90.92230587923093
 20
194.8029438564971
 30
0.0
 10
90.88147245119693
 20
194.8864519736875
 30
0.0
 10
90.8246505149339
 20
195.8642151608322
 30
0.0
 10
90.7716122457273
 20
197.2135136111609
 30
0.0
 10
90.72145163611822
 20
198.6923517009907
 30
0.0
 10
90.66418945379775
 20
200.6294021689592
 30
0.0
 10
90.60473079326329
 20
203.0472066576976
 30
0.0
 10
90.53148063290743
 20
205.7579735837631
 30
0.0
 10
90.46171283659315
 20
208.238240806736
 30
0.0
 10
90.39312177810469
 20
210.2308454761845
 30
0.0
 10
90.33335109088705
 20
211.3246487001589
 30
0.0
 10
90.30073130294966
 20
211.6490548952959
 30
0.0
 10
90.29114543541536
 20
211.7443870544092
 30
0.0
  0
SPLINE
  5
1A5
330
1F
100
AcDbEntity
  8
0
  6
Continuous
 62
     7
370
    25
100
AcDbSpline
210
0.0
220
0.0
230
1.0
 70
     8
 71
     3
 72
    11
 73
     7
 74
     0
 42
0.00000001
 43
0.00000001
 40
0.0
 40
0.0
 40
0.0
 40
0.0
 40
0.1701587585696635
 40
0.5148066094740525
 40
0.7558205066443116
 40
1.0
 40
1.0
 40
1.0
 40
1.0
 10
90.53955004049837
 20
212.4238195973089
 30
0.0
 10
90.55432320506321
 20
212.4450778095632
 30
0.0
 10
90.59901865785541
 20
212.5093934420119
 30
0.0
 10
90.65911742437434
 20
212.3509275552906
 30
0.0
 10
90.72891372873858
 20
212.0618166436709
 30
0.0
 10
90.77031150129078
 20
211.7892821580315
 30
0.0
 10
90.79114543539876
 20
211.6521258530925
 30
0.0
  0
SPLINE
  5
1A6
330
1F
100
AcDbEntity
  8
0
  6
Continuous
 62
     7
370
    25
100
AcDbSpline
210
0.0
220
0.0
230
1.0
 70
     8
 71
     3
 72
    16
 73
    12
 74
     0
 42
0.00000001
 43
0.00000001
 40
0.0
 40
0.0
 40
0.0
 40
0.0
 40
0.0792140638713506
 40
0.1934397168971935
 40
0.3076653699220785
 40
0.4218677295428675
 40
0.5346865681724855
 40
0.647505405374094
 40
0.760324242022115
 40
0.87828045029795
 40
0.9999999999999999
 40
0.9999999999999999
 40
0.9999999999999999
 40
0.9999999999999999
 10
90.5001484964616
 20
194.2250180760314
 30
0.0
 10
90.49467877104352
 20
194.2315750749079
 30
0.0
 10
90.4813217724921
 20
194.2475871811473
 30
0.0
 10
90.45938708263279
 20
194.5611697114777
 30
0.0
 10
90.43514592503341
 20
195.1162808694374
 30
0.0
 10
90.41226577762458
 20
195.902068108665
 30
0.0
 10
90.38936565584413
 20
196.8838125965488
 30
0.0
 10
90.36520795869357
 20
198.0361896173925
 30
0.0
 10
90.3404906553942
 20
199.350330319693
 30
0.0
 10
90.31546432422732
 20
200.8102640558677
 30
0.0
 10
90.29933614551187
 20
201.8571355020402
 30
0.0
 10
90.29114543541536
 20
202.3887901094944
 30
0.0
  0
SPLINE
  5
1A7
330
1F
100
AcDbEntity
  8
0
  6
Continuous
 62
     7
370
    25
100
AcDbSpline
210
0.0
220
0.0
230
1.0
 70
    24
 71
     3
 72
    10
 73
     6
 74
     0
 42
0.00000001
 43
0.00000001
 40
0.0
 40
0.0
 40
0.0
 40
0.0
 40
0.3294562546722003
 40
0.831864205694292
 40
1.0
 40
1.0
 40
1.0
 40
1.0
 10
90.29114543541536
 20
202.3887901094944
 30
0.0
 10
90.29114543541536
 20
203.0375179871025
 30
0.0
 10
90.29114543541536
 20
204.6755306002036
 30
0.0
 10
90.29114543541536
 20
206.5893941364761
 30
0.0
 10
90.29114543541536
 20
207.692358606431
 30
0.0
 10
90.29114543541536
 20
207.968921930657
 30
0.0
  0
SPLINE
  5
1A8
330
1F
100
AcDbEntity
  8
0
  6
Continuous
 62
     7
370
    25
100
AcDbSpline
210
0.0
220
0.0
230
1.0
 70
     8
 71
     3
 72
    15
 73
    11
 74
     0
 42
0.00000001
 43
0.00000001
 40
0.0
 40
0.0
 40
0.0
 40
0.0
 40
0.1319746667032353
 40
0.1608073069995044
 40
0.3024203969717298
 40
0.4436898895822916
 40
0.5869603891290425
 40
0.7271016041552263
 40
0.8702195989016372
 40
1.0
 40
1.0
 40
1.0
 40
1.0
 10
90.78778231300272
 20
194.6928074171745
 30
0.0
 10
90.76582276309908
 20
194.7019933000501
 30
0.0
 10
90.73906568788809
 20
194.7131860321444
 30
0.0
 10
90.68789296812801
 20
195.210133588573
 30
0.0
 10
90.63704133679329
 20
196.0697362036304
 30
0.0
 10
90.56825804452025
 20
197.9537826012794
 30
0.0
 10
90.49452149056528
 20
200.3539166016756
 30
0.0
 10
90.42838615262278
 20
203.0412416766823
 30
0.0
 10
90.35710989593585
 20
205.702072470289
 30
0.0
 10
90.31240529366858
 20
207.2383330979957
 30
0.0
 10
90.29114543541536
 20
207.968921930657
 30
0.0
  0
LINE
  5
1A9
330
1F
100
AcDbEntity
  8
0
  6
Continuous
 62
     7
370
    25
100
AcDbLine
 10
88.5411454354
 20
202.9133295943
 30
0.0
 11
88.7911454354
 21
202.277751576
 31
0.0
  0
LINE
  5
1AA
330
1F
100
AcDbEntity
  8
0
  6
Continuous
 62
     7
370
    25
100
AcDbLine
 10
88.7911454354
 20
196.3303266388
 30
0.0
 11
88.5411454354
 21
195.6947486204
 31
0.0
  0
LINE
  5
1AB
330
1F
100
AcDbEntity
  8
0
  6
Continuous
 62
     7
370
    25
100
AcDbLine
 10
85.9911454354
 20
195.6947486204
 30
0.0
 11
88.5411454354
 21
195.6947486204
 31
0.0
  0
LINE
  5
1AC
330
1F
100
AcDbEntity
  8
0
  6
Continuous
 62
     7
370
    25
100
AcDbLine
 10
88.5411454354
 20
202.9133295943
 30
0.0
 11
85.9911454354
 21
202.9133295943
 31
0.0
  0
LINE
  5
1AD
330
1F
100
AcDbEntity
  8
0
  6
Continuous
 62
     7
370
    25
100
AcDbLine
 10
88.7911454354
 20
196.3303266388
 30
0.0
 11
88.7911454354
 21
202.277751576
 31
0.0
  0
LINE
  5
1AE
330
1F
100
AcDbEntity
  8
0
  6
Continuous
 62
     7
370
    25
100
AcDbLine
 10
90.2911454354
 20
194.4074723862
 30
0.0
 11
90.2911454354
 21
202.3887901095
 31
0.0
  0
SPLINE
  5
1AF
330
1F
100
AcDbEntity
  8
0
  6
Continuous
 62
     7
370
    25
100
AcDbSpline
210
0.0
220
0.0
230
1.0
 70
    24
 71
     3
 72
    11
 73
     7
 74
     0
 42
0.00000001
 43
0.00000001
 40
0.0
 40
0.0
 40
0.0
 40
0.0
 40
0.0521773337626352
 40
0.2615477432295232
 40
0.6847281688108031
 40
1.0
 40
1.0
 40
1.0
 40
1.0
 10
90.29114543541536
 20
207.968921930657
 30
0.0
 10
90.29114543541536
 20
208.0671444643422
 30
0.0
 10
90.29114543541534
 20
208.5595015889227
 30
0.0
 10
90.29114543541536
 20
209.7443912353816
 30
0.0
 10
90.29114543541536
 20
211.0674974997975
 30
0.0
 10
90.29114543541536
 20
211.5418632516095
 30
0.0
 10
90.29114543541536
 20
211.7443870544092
 30
0.0
  0
LINE
  5
1B0
330
1F
100
AcDbEntity
  8
0
  6
Continuous
 62
     7
370
    25
100
AcDbLine
 10
88.5411454354
 20
202.9133295943
 30
0.0
 11
88.5411454354
 21
205.5096317564
 31
0.0
  0
LINE
  5
1B1
330
1F
100
AcDbEntity
  8
0
  6
Continuous
 62
     7
370
    25
100
AcDbLine
 10
88.7911454354
 20
206.0831993867
 30
0.0
 11
88.5411454354
 21
205.5096317564
 31
0.0
  0
LINE
  5
1B2
330
1F
100
AcDbEntity
  8
0
  6
Continuous
 62
     7
370
    25
100
AcDbLine
 10
88.7911454354
 20
206.0831993867
 30
0.0
 11
88.7911454354
 21
202.277751576
 31
0.0
  0
LINE
  5
1B3
330
1F
100
AcDbEntity
  8
0
  6
Continuous
 62
     7
370
    25
100
AcDbLine
 10
85.9911454354
 20
205.5096317564
 30
0.0
 11
88.5411454354
 21
205.5096317564
 31
0.0
  0
LINE
  5
1B4
330
1F
100
AcDbEntity
  8
0
  6
Continuous
 62
     7
370
    25
100
AcDbLine
 10
88.5411454354
 20
212.0239293935
 30
0.0
 11
88.7911454354
 21
211.4503617632
 31
0.0
  0
LINE
  5
1B5
330
1F
100
AcDbEntity
  8
0
  6
Continuous
 62
     7
370
    25
100
AcDbLine
 10
88.5411454354
 20
212.0239293935
 30
0.0
 11
85.9911454354
 21
212.0239293935
 31
0.0
  0
LINE
  5
1B6
330
1F
100
AcDbEntity
  8
0
  6
Continuous
 62
     7
370
    25
100
AcDbLine
 10
88.7911454354
 20
206.0831993867
 30
0.0
 11
88.7911454354
 21
211.4503617632
 31
0.0
  0
LINE
  5
1B7
330
1F
100
AcDbEntity
  8
0
  6
Continuous
 62
     7
370
    25
100
AcDbLine
 10
88.5411454354
 20
194.1968725871
 30
0.0
 11
88.7911454354
 21
194.134862199
 31
0.0
  0
LINE
  5
1B8
330
1F
100
AcDbEntity
  8
0
  6
Continuous
 62
     7
370
    25
100
AcDbLine
 10
88.5411454354
 20
194.1968725871
 30
0.0
 11
88.5411454354
 21
195.6947486204
 31
0.0
  0
LINE
  5
1B9
330
1F
100
AcDbEntity
  8
0
  6
Continuous
 62
     7
370
    25
100
AcDbLine
 10
88.7911454354
 20
196.3303266388
 30
0.0
 11
88.7911454354
 21
194.134862199
 31
0.0
  0
LINE
  5
1BA
330
1F
100
AcDbEntity
  8
0
  6
Continuous
 62
     7
370
    25
100
AcDbLine
 10
88.5411454354
 20
194.1968725871
 30
0.0
 11
85.9911454354
 21
194.1968725871
 31
0.0
  0
LINE
  5
1BB
330
1F
100
AcDbEntity
  8
0
  6
Continuous
 62
     7
370
    25
100
AcDbLine
 10
88.5411454354
 20
212.0239293935
 30
0.0
 11
88.5411454354
 21
213.1223555223
 31
0.0
  0
LINE
  5
1BC
330
1F
100
AcDbEntity
  8
0
  6
Continuous
 62
     7
370
    25
100
AcDbLine
 10
88.7911454354
 20
213.0603451342
 30
0.0
 11
88.5411454354
 21
213.1223555223
 31
0.0
  0
LINE
  5
1BD
330
1F
100
AcDbEntity
  8
0
  6
Continuous
 62
     7
370
    25
100
AcDbLine
 10
88.7911454354
 20
213.0603451342
 30
0.0
 11
88.7911454354
 21
211.4503617632
 31
0.0
  0
LINE
  5
1BE
330
1F
100
AcDbEntity
  8
0
  6
Continuous
 62
     7
370
    25
100
AcDbLine
 10
85.9911454354
 20
213.1223555223
 30
0.0
 11
88.5411454354
 21
213.1223555223
 31
0.0
  0
LINE
  5
1BF
330
1F
100
AcDbEntity
  8
0
  6
Continuous
 62
     7
370
    25
100
AcDbLine
 10
88.7911454354
 20
193.5545996383
 30
0.0
 11
88.5411454354
 21
193.4925892502
 31
0.0
  0
LINE
  5
1C0
330
1F
100
AcDbEntity
  8
0
  6
Continuous
 62
     7
370
    25
100
AcDbLine
 10
85.9911454354
 20
193.4925892502
 30
0.0
 11
88.5411454354
 21
193.4925892502
 31
0.0
  0
LINE
  5
1C1
330
1F
100
AcDbEntity
  8
0
  6
Continuous
 62
     7
370
    25
100
AcDbLine
 10
88.7911454354
 20
193.5545996383
 30
0.0
 11
88.7911454354
 21
194.134862199
 31
0.0
  0
SPLINE
  5
1C2
330
1F
100
AcDbEntity
  8
0
  6
Continuous
 62
     7
370
    25
100
AcDbSpline
210
0.0
220
0.0
230
1.0
 70
     8
 71
     3
 72
     9
 73
     5
 74
     0
 42
0.00000001
 43
0.00000001
 40
0.0
 40
0.0
 40
0.0
 40
0.0
 40
0.5841917497409271
 40
0.9999999999999999
 40
0.9999999999999999
 40
0.9999999999999999
 40
0.9999999999999999
 10
197.1911454354154
 20
205.5962046872416
 30
0.0
 10
197.1649774715947
 20
206.0696628116328
 30
0.0
 10
197.1201840217861
 20
206.8801126760844
 30
0.0
 10
196.8775696042721
 20
207.5460768431997
 30
0.0
 10
196.776688527838
 20
207.8229902382631
 30
0.0
  0
LINE
  5
1C3
330
1F
100
AcDbEntity
  8
0
  6
Continuous
 62
     7
370
    25
100
AcDbLine
 10
197.1911454354
 20
205.5962046872
 30
0.0
 11
197.1911454354
 21
204.1482520976
 31
0.0
  0
SPLINE
  5
1C4
330
1F
100
AcDbEntity
  8
0
  6
Continuous
 62
     7
370
    25
100
AcDbSpline
210
0.0
220
0.0
230
1.0
 70
     8
 71
     3
 72
     9
 73
     5
 74
     0
 42
0.00000001
 43
0.00000001
 40
0.0
 40
0.0
 40
0.0
 40
0.0
 40
0.5850553834536185
 40
1.0
 40
1.0
 40
1.0
 40
1.0
 10
196.776688527838
 20
201.8036735577577
 30
0.0
 10
196.9132426618623
 20
202.2384049873691
 30
0.0
 10
197.1466464350543
 20
202.9814652888489
 30
0.0
 10
197.1780957227795
 20
203.806081881653
 30
0.0
 10
197.1911454354154
 20
204.1482520975518
 30
0.0
  0
SPLINE
  5
1C5
330
1F
100
AcDbEntity
  8
0
  6
Continuous
 62
     7
370
    25
100
AcDbSpline
210
0.0
220
0.0
230
1.0
 70
     8
 71
     3
 72
    11
 73
     7
 74
     0
 42
0.00000001
 43
0.00000001
 40
0.0
 40
0.0
 40
0.0
 40
0.0
 40
0.2328716322111435
 40
0.4710265024313177
 40
0.7311421212560267
 40
1.0
 40
1.0
 40
1.0
 40
1.0
 10
196.776688527838
 20
191.115315260729
 30
0.0
 10
196.5062917931652
 20
191.9259253725633
 30
0.0
 10
195.9593637410344
 20
193.5655361838387
 30
0.0
 10
195.6581394230508
 20
196.2205499501893
 30
0.0
 10
195.8657911884605
 20
199.0201422652201
 30
0.0
 10
196.4697290202408
 20
200.8656629192342
 30
0.0
 10
196.776688527838
 20
201.8036735577577
 30
0.0
  0
SPLINE
  5
1C6
330
1F
100
AcDbEntity
  8
0
  6
Continuous
 62
     7
370
    25
100
AcDbSpline
210
0.0
220
0.0
230
1.0
 70
     8
 71
     3
 72
     9
 73
     5
 74
     0
 42
0.00000001
 43
0.00000001
 40
0.0
 40
0.0
 40
0.0
 40
0.0
 40
0.5841917497409165
 40
1.0
 40
1.0
 40
1.0
 40
1.0
 10
197.1911454354154
 20
189.2518787229528
 30
0.0
 10
197.1649774715947
 20
189.5743195095649
 30
0.0
 10
197.1201840217861
 20
190.1262629198494
 30
0.0
 10
196.8775696042721
 20
190.8248408103926
 30
0.0
 10
196.776688527838
 20
191.115315260729
 30
0.0
  0
LINE
  5
1C7
330
1F
100
AcDbEntity
  8
0
  6
Continuous
 62
     7
370
    25
100
AcDbLine
 10
197.1911454354
 20
189.251878723
 30
0.0
 11
197.1911454354
 21
188.4165162166
 31
0.0
  0
SPLINE
  5
1C8
330
1F
100
AcDbEntity
  8
0
  6
Continuous
 62
     7
370
    25
100
AcDbSpline
210
0.0
220
0.0
230
1.0
 70
     8
 71
     3
 72
     9
 73
     5
 74
     0
 42
0.00000001
 43
0.00000001
 40
0.0
 40
0.0
 40
0.0
 40
0.0
 40
0.5850553834536119
 40
0.9999999999999999
 40
0.9999999999999999
 40
0.9999999999999999
 40
0.9999999999999999
 10
196.776688527838
 20
187.6426107641544
 30
0.0
 10
196.9132426618623
 20
187.7152962898484
 30
0.0
 10
197.1466464350543
 20
187.8395332898825
 30
0.0
 10
197.1780957227795
 20
188.2473110360381
 30
0.0
 10
197.1911454354154
 20
188.4165162165528
 30
0.0
  0
SPLINE
  5
1C9
330
1F
100
AcDbEntity
  8
0
  6
Continuous
 62
     7
370
    25
100
AcDbSpline
210
0.0
220
0.0
230
1.0
 70
     8
 71
     3
 72
    11
 73
     7
 74
     0
 42
0.00000001
 43
0.00000001
 40
0.0
 40
0.0
 40
0.0
 40
0.0
 40
0.2379053903768123
 40
0.4814905141302427
 40
0.7366519444347667
 40
1.0
 40
1.0
 40
1.0
 40
1.0
 10
196.7766885278381
 20
186.5997974087055
 30
0.0
 10
196.5011030928651
 20
186.6806197394788
 30
0.0
 10
195.9433529193116
 20
186.8441939465853
 30
0.0
 10
195.6567896946553
 20
187.105441432724
 30
0.0
 10
195.8816701008533
 20
187.3765644570671
 30
0.0
 10
196.4752252177715
 20
187.5530000947565
 30
0.0
 10
196.776688527838
 20
187.6426107641544
 30
0.0
  0
LINE
  5
1CA
330
1F
100
AcDbEntity
  8
0
  6
Continuous
 62
     7
370
    25
100
AcDbLine
 10
196.897492519
 20
186.6041403356
 30
0.0
 11
196.7766885278
 21
186.5997974087
 31
0.0
  0
SPLINE
  5
1CB
330
1F
100
AcDbEntity
  8
0
  6
Continuous
 62
     7
370
    25
100
AcDbSpline
210
0.0
220
0.0
230
1.0
 70
     8
 71
     3
 72
     9
 73
     5
 74
     0
 42
0.00000001
 43
0.00000001
 40
0.0
 40
0.0
 40
0.0
 40
0.0
 40
0.6721061852891758
 40
1.0
 40
1.0
 40
1.0
 40
1.0
 10
196.776688527838
 20
220.0151473637737
 30
0.0
 10
196.4598822808499
 20
219.9284311297442
 30
0.0
 10
195.9885188952386
 20
219.7994095020201
 30
0.0
 10
195.905991211735
 20
219.6645285002227
 30
0.0
 10
195.8789308947718
 20
219.6203018540114
 30
0.0
  0
SPLINE
  5
1CC
330
1F
100
AcDbEntity
  8
0
  6
Continuous
 62
     7
370
    25
100
AcDbSpline
210
0.0
220
0.0
230
1.0
 70
     8
 71
     3
 72
     9
 73
     5
 74
     0
 42
0.00000001
 43
0.00000001
 40
0.0
 40
0.0
 40
0.0
 40
0.0
 40
0.584191749740928
 40
1.0
 40
1.0
 40
1.0
 40
1.0
 10
197.1911454354154
 20
219.6517983505283
 30
0.0
 10
197.1649774715947
 20
219.8028156883075
 30
0.0
 10
197.1201840217861
 20
220.0613221424745
 30
0.0
 10
196.8775696042721
 20
220.0287084190467
 30
0.0
 10
196.776688527838
 20
220.0151473637737
 30
0.0
  0
LINE
  5
1CD
330
1F
100
AcDbEntity
  8
0
  6
Continuous
 62
     7
370
    25
100
AcDbLine
 10
197.1911454354
 20
219.6517983505
 30
0.0
 11
197.1911454354
 21
219.0392082672
 31
0.0
  0
SPLINE
  5
1CE
330
1F
100
AcDbEntity
  8
0
  6
Continuous
 62
     7
370
    25
100
AcDbSpline
210
0.0
220
0.0
230
1.0
 70
     8
 71
     3
 72
     9
 73
     5
 74
     0
 42
0.00000001
 43
0.00000001
 40
0.0
 40
0.0
 40
0.0
 40
0.0
 40
0.585055383453618
 40
1.0
 40
1.0
 40
1.0
 40
1.0
 10
196.776688527838
 20
217.468535179843
 30
0.0
 10
196.9132426618623
 20
217.8305810837603
 30
0.0
 10
197.1466464350543
 20
218.4494043852061
 30
0.0
 10
197.1780957227795
 20
218.8662432318545
 30
0.0
 10
197.1911454354154
 20
219.0392082672386
 30
0.0
  0
SPLINE
  5
1CF
330
1F
100
AcDbEntity
  8
0
  6
Continuous
 62
     7
370
    25
100
AcDbSpline
210
0.0
220
0.0
230
1.0
 70
     8
 71
     3
 72
    11
 73
     7
 74
     0
 42
0.00000001
 43
0.00000001
 40
0.0
 40
0.0
 40
0.0
 40
0.0
 40
0.232871632211144
 40
0.4710265024313168
 40
0.7311421212560267
 40
0.9999999999999999
 40
0.9999999999999999
 40
0.9999999999999999
 40
0.9999999999999999
 10
196.776688527838
 20
207.8229902382631
 30
0.0
 10
196.5062917931652
 20
208.5545128955799
 30
0.0
 10
195.9593637410344
 20
210.0341545138117
 30
0.0
 10
195.6581394230508
 20
212.4301309483749
 30
0.0
 10
195.8657911884605
 20
214.9565800757622
 30
0.0
 10
196.4697290202408
 20
216.6220418720659
 30
0.0
 10
196.776688527838
 20
217.468535179843
 30
0.0
  0
LINE
  5
1D0
330
1F
100
AcDbEntity
  8
0
  6
Continuous
 62
     7
370
    25
100
AcDbLine
 10
195.6911454354
 20
187.1074723862
 30
0.0
 11
195.6911454354
 21
219.5074723862
 31
0.0
  0
SPLINE
  5
1D1
330
1F
100
AcDbEntity
  8
0
  6
Continuous
 62
     7
370
    25
100
AcDbSpline
210
0.0
220
0.0
230
1.0
 70
     8
 71
     3
 72
     9
 73
     5
 74
     0
 42
0.00000001
 43
0.00000001
 40
0.0
 40
0.0
 40
0.0
 40
0.0
 40
0.5850553834534044
 40
1.0
 40
1.0
 40
1.0
 40
1.0
 10
204.0556023429933
 20
220.0151473637736
 30
0.0
 10
203.9190482089688
 20
220.0246846946533
 30
0.0
 10
203.6856444357766
 20
220.0409862810493
 30
0.0
 10
203.6541951480512
 20
219.7659310414521
 30
0.0
 10
203.6411454354154
 20
219.6517983505283
 30
0.0
  0
SPLINE
  5
1D2
330
1F
100
AcDbEntity
  8
0
  6
Continuous
 62
     7
370
    25
100
AcDbSpline
210
0.0
220
0.0
230
1.0
 70
     8
 71
     3
 72
     9
 73
     5
 74
     0
 42
0.00000001
 43
0.00000001
 40
0.0
 40
0.0
 40
0.0
 40
0.0
 40
0.307597899551815
 40
1.0
 40
1.0
 40
1.0
 40
1.0
 10
204.9578864478638
 20
219.6203395708314
 30
0.0
 10
204.932998327067
 20
219.6618234063215
 30
0.0
 10
204.8520871087752
 20
219.7966872514601
 30
0.0
 10
204.3814632744211
 20
219.9257701167293
 30
0.0
 10
204.0556023429933
 20
220.0151473637736
 30
0.0
  0
LINE
  5
1D3
330
1F
100
AcDbEntity
  8
0
  6
Continuous
 62
     7
370
    25
100
AcDbLine
 10
204.055602343
 20
186.5997974087
 30
0.0
 11
203.9477920708
 21
186.6223122071
 31
0.0
  0
SPLINE
  5
1D4
330
1F
100
AcDbEntity
  8
0
  6
Continuous
 62
     7
370
    25
100
AcDbSpline
210
0.0
220
0.0
230
1.0
 70
     8
 71
     3
 72
    11
 73
     7
 74
     0
 42
0.00000001
 43
0.00000001
 40
0.0
 40
0.0
 40
0.0
 40
0.0
 40
0.2556279644380969
 40
0.5185037642963868
 40
0.7560467972580112
 40
1.0
 40
1.0
 40
1.0
 40
1.0
 10
204.0556023429927
 20
187.6426107641544
 30
0.0
 10
204.3492283030947
 20
187.5556725989988
 30
0.0
 10
204.9448054182303
 20
187.3793313055364
 30
0.0
 10
205.1766943798569
 20
187.1103180572276
 30
0.0
 10
204.8937239213961
 20
186.8463472554768
 30
0.0
 10
204.3374447878319
 20
186.6827068736081
 30
0.0
 10
204.0556023429928
 20
186.5997974087055
 30
0.0
  0
SPLINE
  5
1D5
330
1F
100
AcDbEntity
  8
0
  6
Continuous
 62
     7
370
    25
100
AcDbSpline
210
0.0
220
0.0
230
1.0
 70
     8
 71
     3
 72
     9
 73
     5
 74
     0
 42
0.00000001
 43
0.00000001
 40
0.0
 40
0.0
 40
0.0
 40
0.0
 40
0.5841917497409203
 40
1.0
 40
1.0
 40
1.0
 40
1.0
 10
203.6411454354154
 20
188.4165162165528
 30
0.0
 10
203.667313399236
 20
188.186867940339
 30
0.0
 10
203.7121068490447
 20
187.7937636619653
 30
0.0
 10
203.9547212665586
 20
187.6870028080267
 30
0.0
 10
204.0556023429927
 20
187.6426107641544
 30
0.0
  0
LINE
  5
1D6
330
1F
100
AcDbEntity
  8
0
  6
Continuous
 62
     7
370
    25
100
AcDbLine
 10
203.6411454354
 20
188.4165162166
 30
0.0
 11
203.6411454354
 21
189.251878723
 31
0.0
  0
SPLINE
  5
1D7
330
1F
100
AcDbEntity
  8
0
  6
Continuous
 62
     7
370
    25
100
AcDbSpline
210
0.0
220
0.0
230
1.0
 70
     8
 71
     3
 72
     9
 73
     5
 74
     0
 42
0.00000001
 43
0.00000001
 40
0.0
 40
0.0
 40
0.0
 40
0.0
 40
0.5850553834536196
 40
1.0
 40
1.0
 40
1.0
 40
1.0
 10
204.0556023429928
 20
191.115315260729
 30
0.0
 10
203.9190482089684
 20
190.7073001464144
 30
0.0
 10
203.6856444357765
 20
190.0099044367876
 30
0.0
 10
203.6541951480512
 20
189.4741762499947
 30
0.0
 10
203.6411454354154
 20
189.2518787229528
 30
0.0
  0
SPLINE
  5
1D8
330
1F
100
AcDbEntity
  8
0
  6
Continuous
 62
     7
370
    25
100
AcDbSpline
210
0.0
220
0.0
230
1.0
 70
     8
 71
     3
 72
    11
 73
     7
 74
     0
 42
0.00000001
 43
0.00000001
 40
0.0
 40
0.0
 40
0.0
 40
0.0
 40
0.2328716322111481
 40
0.4710265024313218
 40
0.7311421212560294
 40
0.9999999999999999
 40
0.9999999999999999
 40
0.9999999999999999
 40
0.9999999999999999
 10
204.0556023429928
 20
201.8036735577577
 30
0.0
 10
204.3259990776655
 20
200.9930634459235
 30
0.0
 10
204.8729271297963
 20
199.3534526346481
 30
0.0
 10
205.17415144778
 20
196.6984388682974
 30
0.0
 10
204.9664996823703
 20
193.8988465532666
 30
0.0
 10
204.36256185059
 20
192.0533258992525
 30
0.0
 10
204.0556023429928
 20
191.115315260729
 30
0.0
  0
SPLINE
  5
1D9
330
1F
100
AcDbEntity
  8
0
  6
Continuous
 62
     7
370
    25
100
AcDbSpline
210
0.0
220
0.0
230
1.0
 70
     8
 71
     3
 72
     9
 73
     5
 74
     0
 42
0.00000001
 43
0.00000001
 40
0.0
 40
0.0
 40
0.0
 40
0.0
 40
0.5841917497409231
 40
1.0
 40
1.0
 40
1.0
 40
1.0
 10
203.6411454354154
 20
204.1482520975518
 30
0.0
 10
203.667313399236
 20
203.6647618526619
 30
0.0
 10
203.7121068490447
 20
202.8371393381292
 30
0.0
 10
203.9547212665586
 20
202.1071917762455
 30
0.0
 10
204.0556023429928
 20
201.8036735577577
 30
0.0
  0
LINE
  5
1DA
330
1F
100
AcDbEntity
  8
0
  6
Continuous
 62
     7
370
    25
100
AcDbLine
 10
203.6411454354
 20
204.1482520976
 30
0.0
 11
203.6411454354
 21
205.5962046872
 31
0.0
  0
SPLINE
  5
1DB
330
1F
100
AcDbEntity
  8
0
  6
Continuous
 62
     7
370
    25
100
AcDbSpline
210
0.0
220
0.0
230
1.0
 70
     8
 71
     3
 72
     9
 73
     5
 74
     0
 42
0.00000001
 43
0.00000001
 40
0.0
 40
0.0
 40
0.0
 40
0.0
 40
0.5850553834536216
 40
1.0
 40
1.0
 40
1.0
 40
1.0
 10
204.0556023429928
 20
207.8229902382631
 30
0.0
 10
203.9190482089684
 20
207.4245124548281
 30
0.0
 10
203.6856444357765
 20
206.743418331597
 30
0.0
 10
203.6541951480512
 20
205.9326349052071
 30
0.0
 10
203.6411454354154
 20
205.5962046872416
 30
0.0
  0
SPLINE
  5
1DC
330
1F
100
AcDbEntity
  8
0
  6
Continuous
 62
     7
370
    25
100
AcDbSpline
210
0.0
220
0.0
230
1.0
 70
     8
 71
     3
 72
    11
 73
     7
 74
     0
 42
0.00000001
 43
0.00000001
 40
0.0
 40
0.0
 40
0.0
 40
0.0
 40
0.2328716322111493
 40
0.471026502431326
 40
0.731142121256032
 40
0.9999999999999999
 40
0.9999999999999999
 40
0.9999999999999999
 40
0.9999999999999999
 10
204.0556023429928
 20
217.468535179843
 30
0.0
 10
204.3259990776655
 20
216.7370125225262
 30
0.0
 10
204.8729271297963
 20
215.2573709042944
 30
0.0
 10
205.17415144778
 20
212.8613944697312
 30
0.0
 10
204.9664996823702
 20
210.3349453423438
 30
0.0
 10
204.36256185059
 20
208.6694835460402
 30
0.0
 10
204.0556023429928
 20
207.8229902382631
 30
0.0
  0
SPLINE
  5
1DD
330
1F
100
AcDbEntity
  8
0
  6
Continuous
 62
     7
370
    25
100
AcDbSpline
210
0.0
220
0.0
230
1.0
 70
     8
 71
     3
 72
     9
 73
     5
 74
     0
 42
0.00000001
 43
0.00000001
 40
0.0
 40
0.0
 40
0.0
 40
0.0
 40
0.5841917497409262
 40
1.0
 40
1.0
 40
1.0
 40
1.0
 10
203.6411454354154
 20
219.0392082672386
 30
0.0
 10
203.667313399236
 20
218.7853662985625
 30
0.0
 10
203.7121068490447
 20
218.3508480624035
 30
0.0
 10
203.9547212665586
 20
217.7276613544583
 30
0.0
 10
204.0556023429928
 20
217.468535179843
 30
0.0
  0
LINE
  5
1DE
330
1F
100
AcDbEntity
  8
0
  6
Continuous
 62
     7
370
    25
100
AcDbLine
 10
203.6411454354
 20
219.0392082672
 30
0.0
 11
203.6411454354
 21
219.6517983505
 31
0.0
  0
LINE
  5
1DF
330
1F
100
AcDbEntity
  8
0
  6
Continuous
 62
     7
370
    25
100
AcDbLine
 10
205.1411454354
 20
219.5074723862
 30
0.0
 11
205.1411454354
 21
187.1074723862
 31
0.0
  0
LINE
  5
1E0
330
1F
100
AcDbEntity
  8
0
  6
Continuous
 62
     7
370
    25
100
AcDbLine
 10
196.7766885278
 20
191.1153152607
 30
0.0
 11
204.055602343
 21
191.1153152607
 31
0.0
  0
LINE
  5
1E1
330
1F
100
AcDbEntity
  8
0
  6
Continuous
 62
     7
370
    25
100
AcDbLine
 10
204.055602343
 20
201.8036735578
 30
0.0
 11
196.7766885278
 21
201.8036735578
 31
0.0
  0
LINE
  5
1E2
330
1F
100
AcDbEntity
  8
0
  6
Continuous
 62
     7
370
    25
100
AcDbLine
 10
197.1911454354
 20
204.1482520976
 30
0.0
 11
203.6411454354
 21
204.1482520976
 31
0.0
  0
LINE
  5
1E3
330
1F
100
AcDbEntity
  8
0
  6
Continuous
 62
     7
370
    25
100
AcDbLine
 10
196.7766885278
 20
207.8229902383
 30
0.0
 11
204.055602343
 21
207.8229902383
 31
0.0
  0
LINE
  5
1E4
330
1F
100
AcDbEntity
  8
0
  6
Continuous
 62
     7
370
    25
100
AcDbLine
 10
204.055602343
 20
217.4685351798
 30
0.0
 11
196.7766885278
 21
217.4685351798
 31
0.0
  0
LINE
  5
1E5
330
1F
100
AcDbEntity
  8
0
  6
Continuous
 62
     7
370
    25
100
AcDbLine
 10
203.6411454354
 20
205.5962046872
 30
0.0
 11
197.1911454354
 21
205.5962046872
 31
0.0
  0
LINE
  5
1E6
330
1F
100
AcDbEntity
  8
0
  6
Continuous
 62
     7
370
    25
100
AcDbLine
 10
212.8911454354
 20
192.7324723862
 30
0.0
 11
212.8911454354
 21
213.8824723862
 31
0.0
  0
LINE
  5
1E7
330
1F
100
AcDbEntity
  8
0
  6
Continuous
 62
     7
370
    25
100
AcDbLine
 10
203.6411454354
 20
189.251878723
 30
0.0
 11
197.1911454354
 21
189.251878723
 31
0.0
  0
LINE
  5
1E8
330
1F
100
AcDbEntity
  8
0
  6
Continuous
 62
     7
370
    25
100
AcDbLine
 10
197.1911454354
 20
188.4165162166
 30
0.0
 11
203.6411454354
 21
188.4165162166
 31
0.0
  0
LINE
  5
1E9
330
1F
100
AcDbEntity
  8
0
  6
Continuous
 62
     7
370
    25
100
AcDbLine
 10
197.1911454354
 20
219.0392082672
 30
0.0
 11
203.6411454354
 21
219.0392082672
 31
0.0
  0
LINE
  5
1EA
330
1F
100
AcDbEntity
  8
0
  6
Continuous
 62
     7
370
    25
100
AcDbLine
 10
204.055602343
 20
187.6426107642
 30
0.0
 11
196.7766885278
 21
187.6426107642
 31
0.0
  0
LINE
  5
1EB
330
1F
100
AcDbEntity
  8
0
  6
Continuous
 62
     7
370
    25
100
AcDbLine
 10
203.6411454354
 20
219.6517983505
 30
0.0
 11
197.1911454354
 21
219.6517983505
 31
0.0
  0
LINE
  5
1EC
330
1F
100
AcDbEntity
  8
0
  6
Continuous
 62
     7
370
    25
100
AcDbLine
 10
196.7766885278
 20
186.5997974087
 30
0.0
 11
204.055602343
 21
186.5997974087
 31
0.0
  0
SPLINE
  5
1ED
330
1F
100
AcDbEntity
  8
0
  6
Continuous
 62
     7
370
    25
100
AcDbSpline
210
0.0
220
0.0
230
1.0
 70
     8
 71
     3
 72
     9
 73
     5
 74
     0
 42
0.00000001
 43
0.00000001
 40
0.0
 40
0.0
 40
0.0
 40
0.0
 40
0.5841917497409239
 40
1.0
 40
1.0
 40
1.0
 40
1.0
 10
107.1411454354154
 20
219.0392082672386
 30
0.0
 10
107.167313399236
 20
218.7853662985625
 30
0.0
 10
107.2121068490447
 20
218.3508480624035
 30
0.0
 10
107.4547212665586
 20
217.7276613544583
 30
0.0
 10
107.5556023429927
 20
217.468535179843
 30
0.0
  0
LINE
  5
1EE
330
1F
100
AcDbEntity
  8
0
  6
Continuous
 62
     7
370
    25
100
AcDbLine
 10
107.1411454354
 20
219.0392082672
 30
0.0
 11
107.1411454354
 21
219.6517983505
 31
0.0
  0
SPLINE
  5
1EF
330
1F
100
AcDbEntity
  8
0
  6
Continuous
 62
     7
370
    25
100
AcDbSpline
210
0.0
220
0.0
230
1.0
 70
     8
 71
     3
 72
     9
 73
     5
 74
     0
 42
0.00000001
 43
0.00000001
 40
0.0
 40
0.0
 40
0.0
 40
0.0
 40
0.5850553834536204
 40
1.0
 40
1.0
 40
1.0
 40
1.0
 10
107.5556023429927
 20
220.0151473637737
 30
0.0
 10
107.4190482089684
 20
220.0246846946533
 30
0.0
 10
107.1856444357765
 20
220.040986281049
 30
0.0
 10
107.1541951480512
 20
219.765931041452
 30
0.0
 10
107.1411454354154
 20
219.6517983505283
 30
0.0
  0
SPLINE
  5
1F0
330
1F
100
AcDbEntity
  8
0
  6
Continuous
 62
     7
370
    25
100
AcDbSpline
210
0.0
220
0.0
230
1.0
 70
     8
 71
     3
 72
     9
 73
     5
 74
     0
 42
0.00000001
 43
0.00000001
 40
0.0
 40
0.0
 40
0.0
 40
0.0
 40
0.2910559175694206
 40
1.0
 40
1.0
 40
1.0
 40
1.0
 10
108.4550287907631
 20
219.6215021440902
 30
0.0
 10
108.4337398487644
 20
219.6606491083683
 30
0.0
 10
108.360596027548
 20
219.7951489137838
 30
0.0
 10
107.8895486171433
 20
219.9238824705172
 30
0.0
 10
107.5556023429927
 20
220.0151473637737
 30
0.0
  0
LINE
  5
1F1
330
1F
100
AcDbEntity
  8
0
  6
Continuous
 62
     7
370
    25
100
AcDbLine
 10
107.555602343
 20
186.5997974087
 30
0.0
 11
107.4477920708
 21
186.6223122071
 31
0.0
  0
SPLINE
  5
1F2
330
1F
100
AcDbEntity
  8
0
  6
Continuous
 62
     7
370
    25
100
AcDbSpline
210
0.0
220
0.0
230
1.0
 70
     8
 71
     3
 72
    11
 73
     7
 74
     0
 42
0.00000001
 43
0.00000001
 40
0.0
 40
0.0
 40
0.0
 40
0.0
 40
0.2328716322111446
 40
0.4710265024313176
 40
0.7311421212560256
 40
0.9999999999999999
 40
0.9999999999999999
 40
0.9999999999999999
 40
0.9999999999999999
 10
107.5556023429927
 20
187.6426107641544
 30
0.0
 10
107.8259990776655
 20
187.5635233096369
 30
0.0
 10
108.3729271297963
 20
187.4035541165934
 30
0.0
 10
108.6741514477799
 20
187.1445167848058
 30
0.0
 10
108.4664996823702
 20
186.8713735971623
 30
0.0
 10
107.86256185059
 20
186.6913147394519
 30
0.0
 10
107.5556023429927
 20
186.5997974087055
 30
0.0
  0
SPLINE
  5
1F3
330
1F
100
AcDbEntity
  8
0
  6
Continuous
 62
     7
370
    25
100
AcDbSpline
210
0.0
220
0.0
230
1.0
 70
     8
 71
     3
 72
     9
 73
     5
 74
     0
 42
0.00000001
 43
0.00000001
 40
0.0
 40
0.0
 40
0.0
 40
0.0
 40
0.5841917497409238
 40
1.0
 40
1.0
 40
1.0
 40
1.0
 10
107.1411454354154
 20
188.4165162165528
 30
0.0
 10
107.167313399236
 20
188.186867940339
 30
0.0
 10
107.2121068490446
 20
187.7937636619653
 30
0.0
 10
107.4547212665586
 20
187.6870028080268
 30
0.0
 10
107.5556023429927
 20
187.6426107641544
 30
0.0
  0
LINE
  5
1F4
330
1F
100
AcDbEntity
  8
0
  6
Continuous
 62
     7
370
    25
100
AcDbLine
 10
107.1411454354
 20
188.4165162166
 30
0.0
 11
107.1411454354
 21
189.251878723
 31
0.0
  0
SPLINE
  5
1F5
330
1F
100
AcDbEntity
  8
0
  6
Continuous
 62
     7
370
    25
100
AcDbSpline
210
0.0
220
0.0
230
1.0
 70
     8
 71
     3
 72
     9
 73
     5
 74
     0
 42
0.00000001
 43
0.00000001
 40
0.0
 40
0.0
 40
0.0
 40
0.0
 40
0.5850553834536147
 40
1.0
 40
1.0
 40
1.0
 40
1.0
 10
107.5556023429927
 20
191.1153152607291
 30
0.0
 10
107.4190482089684
 20
190.7073001464144
 30
0.0
 10
107.1856444357765
 20
190.0099044367876
 30
0.0
 10
107.1541951480512
 20
189.4741762499947
 30
0.0
 10
107.1411454354154
 20
189.2518787229528
 30
0.0
  0
SPLINE
  5
1F6
330
1F
100
AcDbEntity
  8
0
  6
Continuous
 62
     7
370
    25
100
AcDbSpline
210
0.0
220
0.0
230
1.0
 70
     8
 71
     3
 72
    11
 73
     7
 74
     0
 42
0.00000001
 43
0.00000001
 40
0.0
 40
0.0
 40
0.0
 40
0.0
 40
0.2556279644381005
 40
0.5185037642963951
 40
0.7560467972580138
 40
1.0
 40
1.0
 40
1.0
 40
1.0
 10
107.5556023429927
 20
201.8036735577577
 30
0.0
 10
107.8492283030947
 20
200.912597264945
 30
0.0
 10
108.4448054182303
 20
199.1051799383066
 30
0.0
 10
108.6766943798569
 20
196.3479176060328
 30
0.0
 10
108.3937239213961
 20
193.64233803676
 30
0.0
 10
107.8374447878318
 20
191.9650992249094
 30
0.0
 10
107.5556023429927
 20
191.1153152607291
 30
0.0
  0
SPLINE
  5
1F7
330
1F
100
AcDbEntity
  8
0
  6
Continuous
 62
     7
370
    25
100
AcDbSpline
210
0.0
220
0.0
230
1.0
 70
     8
 71
     3
 72
     9
 73
     5
 74
     0
 42
0.00000001
 43
0.00000001
 40
0.0
 40
0.0
 40
0.0
 40
0.0
 40
0.5841917497409232
 40
0.9999999999999999
 40
0.9999999999999999
 40
0.9999999999999999
 40
0.9999999999999999
 10
107.1411454354154
 20
204.1482520975518
 30
0.0
 10
107.167313399236
 20
203.6647618526619
 30
0.0
 10
107.2121068490447
 20
202.8371393381292
 30
0.0
 10
107.4547212665586
 20
202.1071917762455
 30
0.0
 10
107.5556023429927
 20
201.8036735577577
 30
0.0
  0
LINE
  5
1F8
330
1F
100
AcDbEntity
  8
0
  6
Continuous
 62
     7
370
    25
100
AcDbLine
 10
107.1411454354
 20
204.1482520976
 30
0.0
 11
107.1411454354
 21
205.5962046872
 31
0.0
  0
SPLINE
  5
1F9
330
1F
100
AcDbEntity
  8
0
  6
Continuous
 62
     7
370
    25
100
AcDbSpline
210
0.0
220
0.0
230
1.0
 70
     8
 71
     3
 72
     9
 73
     5
 74
     0
 42
0.00000001
 43
0.00000001
 40
0.0
 40
0.0
 40
0.0
 40
0.0
 40
0.5850553834536178
 40
1.0
 40
1.0
 40
1.0
 40
1.0
 10
107.5556023429927
 20
207.8229902382631
 30
0.0
 10
107.4190482089684
 20
207.4245124548281
 30
0.0
 10
107.1856444357765
 20
206.743418331597
 30
0.0
 10
107.1541951480512
 20
205.9326349052071
 30
0.0
 10
107.1411454354154
 20
205.5962046872416
 30
0.0
  0
SPLINE
  5
1FA
330
1F
100
AcDbEntity
  8
0
  6
Continuous
 62
     7
370
    25
100
AcDbSpline
210
0.0
220
0.0
230
1.0
 70
     8
 71
     3
 72
    11
 73
     7
 74
     0
 42
0.00000001
 43
0.00000001
 40
0.0
 40
0.0
 40
0.0
 40
0.0
 40
0.2328716322111444
 40
0.471026502431316
 40
0.7311421212560254
 40
1.0
 40
1.0
 40
1.0
 40
1.0
 10
107.5556023429927
 20
217.468535179843
 30
0.0
 10
107.8259990776655
 20
216.7370125225262
 30
0.0
 10
108.3729271297963
 20
215.2573709042944
 30
0.0
 10
108.6741514477799
 20
212.8613944697312
 30
0.0
 10
108.4664996823702
 20
210.334945342344
 30
0.0
 10
107.86256185059
 20
208.6694835460403
 30
0.0
 10
107.5556023429927
 20
207.8229902382631
 30
0.0
  0
LINE
  5
1FB
330
1F
100
AcDbEntity
  8
0
  6
Continuous
 62
     7
370
    25
100
AcDbLine
 10
108.6411454354
 20
219.5074723862
 30
0.0
 11
108.6411454354
 21
187.1074723862
 31
0.0
  0
SPLINE
  5
1FC
330
1F
100
AcDbEntity
  8
0
  6
Continuous
 62
     7
370
    25
100
AcDbSpline
210
0.0
220
0.0
230
1.0
 70
     8
 71
     3
 72
     9
 73
     5
 74
     0
 42
0.00000001
 43
0.00000001
 40
0.0
 40
0.0
 40
0.0
 40
0.0
 40
0.5850553834534132
 40
1.0
 40
1.0
 40
1.0
 40
1.0
 10
100.2766885278375
 20
201.8036735577562
 30
0.0
 10
100.4132426618619
 20
202.2384049873677
 30
0.0
 10
100.6466464350542
 20
202.9814652888479
 30
0.0
 10
100.6780957227795
 20
203.8060818816525
 30
0.0
 10
100.6911454354154
 20
204.1482520975518
 30
0.0
  0
SPLINE
  5
1FD
330
1F
100
AcDbEntity
  8
0
  6
Continuous
 62
     7
370
    25
100
AcDbSpline
210
0.0
220
0.0
230
1.0
 70
     8
 71
     3
 72
    11
 73
     7
 74
     0
 42
0.00000001
 43
0.00000001
 40
0.0
 40
0.0
 40
0.0
 40
0.0
 40
0.2379053903768466
 40
0.4814905141303167
 40
0.7366519444348044
 40
1.0
 40
1.0
 40
1.0
 40
1.0
 10
100.2766885278381
 20
191.1153152607288
 30
0.0
 10
100.0011030928651
 20
191.9437070579687
 30
0.0
 10
99.44335291931158
 20
193.6202676088775
 30
0.0
 10
99.15678969465527
 20
196.2979344429846
 30
0.0
 10
99.38167010085321
 20
199.0768210113337
 30
0.0
 10
99.97522521777108
 20
200.885205322999
 30
0.0
 10
100.2766885278375
 20
201.8036735577563
 30
0.0
  0
SPLINE
  5
1FE
330
1F
100
AcDbEntity
  8
0
  6
Continuous
 62
     7
370
    25
100
AcDbSpline
210
0.0
220
0.0
230
1.0
 70
     8
 71
     3
 72
     9
 73
     5
 74
     0
 42
0.00000001
 43
0.00000001
 40
0.0
 40
0.0
 40
0.0
 40
0.0
 40
0.5841917497409945
 40
1.0
 40
1.0
 40
1.0
 40
1.0
 10
100.6911454354154
 20
189.2518787229528
 30
0.0
 10
100.6649774715947
 20
189.5743195095649
 30
0.0
 10
100.6201840217861
 20
190.1262629198494
 30
0.0
 10
100.3775696042722
 20
190.8248408103924
 30
0.0
 10
100.2766885278381
 20
191.1153152607288
 30
0.0
  0
LINE
  5
1FF
330
1F
100
AcDbEntity
  8
0
  6
Continuous
 62
     7
370
    25
100
AcDbLine
 10
100.6911454354
 20
189.251878723
 30
0.0
 11
100.6911454354
 21
188.4165162166
 31
0.0
  0
SPLINE
  5
200
330
1F
100
AcDbEntity
  8
0
  6
Continuous
 62
     7
370
    25
100
AcDbSpline
210
0.0
220
0.0
230
1.0
 70
     8
 71
     3
 72
     9
 73
     5
 74
     0
 42
0.00000001
 43
0.00000001
 40
0.0
 40
0.0
 40
0.0
 40
0.0
 40
0.5850553834536201
 40
1.0
 40
1.0
 40
1.0
 40
1.0
 10
100.276688527838
 20
187.6426107641544
 30
0.0
 10
100.4132426618623
 20
187.7152962898484
 30
0.0
 10
100.6466464350543
 20
187.8395332898824
 30
0.0
 10
100.6780957227795
 20
188.2473110360381
 30
0.0
 10
100.6911454354154
 20
188.4165162165528
 30
0.0
  0
SPLINE
  5
201
330
1F
100
AcDbEntity
  8
0
  6
Continuous
 62
     7
370
    25
100
AcDbSpline
210
0.0
220
0.0
230
1.0
 70
     8
 71
     3
 72
    11
 73
     7
 74
     0
 42
0.00000001
 43
0.00000001
 40
0.0
 40
0.0
 40
0.0
 40
0.0
 40
0.2328716322111468
 40
0.4710265024313223
 40
0.7311421212560304
 40
1.0
 40
1.0
 40
1.0
 40
1.0
 10
100.276688527838
 20
186.5997974087055
 30
0.0
 10
100.0062917931652
 20
186.678884863223
 30
0.0
 10
99.45936374103442
 20
186.8388540562666
 30
0.0
 10
99.15813942305083
 20
187.0978913880541
 30
0.0
 10
99.3657911884605
 20
187.3710345756975
 30
0.0
 10
99.96972902024076
 20
187.5510934334079
 30
0.0
 10
100.276688527838
 20
187.6426107641544
 30
0.0
  0
LINE
  5
202
330
1F
100
AcDbEntity
  8
0
  6
Continuous
 62
     7
370
    25
100
AcDbLine
 10
100.397492519
 20
186.6041403356
 30
0.0
 11
100.2766885278
 21
186.5997974087
 31
0.0
  0
SPLINE
  5
203
330
1F
100
AcDbEntity
  8
0
  6
Continuous
 62
     7
370
    25
100
AcDbSpline
210
0.0
220
0.0
230
1.0
 70
     8
 71
     3
 72
     9
 73
     5
 74
     0
 42
0.00000001
 43
0.00000001
 40
0.0
 40
0.0
 40
0.0
 40
0.0
 40
0.6137694938147391
 40
0.9999999999999999
 40
0.9999999999999999
 40
0.9999999999999999
 40
0.9999999999999999
 10
100.276688527838
 20
220.0151473637737
 30
0.0
 10
99.99157688942952
 20
219.9362160080491
 30
0.0
 10
99.5270512958937
 20
219.8076150324058
 30
0.0
 10
99.40866223961036
 20
219.6732865956604
 30
0.0
 10
99.36293677447526
 20
219.6214048555412
 30
0.0
  0
SPLINE
  5
204
330
1F
100
AcDbEntity
  8
0
  6
Continuous
 62
     7
370
    25
100
AcDbSpline
210
0.0
220
0.0
230
1.0
 70
     8
 71
     3
 72
     9
 73
     5
 74
     0
 42
0.00000001
 43
0.00000001
 40
0.0
 40
0.0
 40
0.0
 40
0.0
 40
0.5841917497409274
 40
1.0
 40
1.0
 40
1.0
 40
1.0
 10
100.6911454354154
 20
219.6517983505283
 30
0.0
 10
100.6649774715947
 20
219.8028156883075
 30
0.0
 10
100.6201840217861
 20
220.0613221424746
 30
0.0
 10
100.3775696042721
 20
220.0287084190466
 30
0.0
 10
100.276688527838
 20
220.0151473637737
 30
0.0
  0
LINE
  5
205
330
1F
100
AcDbEntity
  8
0
  6
Continuous
 62
     7
370
    25
100
AcDbLine
 10
100.6911454354
 20
219.6517983505
 30
0.0
 11
100.6911454354
 21
219.0392082672
 31
0.0
  0
SPLINE
  5
206
330
1F
100
AcDbEntity
  8
0
  6
Continuous
 62
     7
370
    25
100
AcDbSpline
210
0.0
220
0.0
230
1.0
 70
     8
 71
     3
 72
     9
 73
     5
 74
     0
 42
0.00000001
 43
0.00000001
 40
0.0
 40
0.0
 40
0.0
 40
0.0
 40
0.5850553834536192
 40
1.0
 40
1.0
 40
1.0
 40
1.0
 10
100.276688527838
 20
217.468535179843
 30
0.0
 10
100.4132426618623
 20
217.8305810837604
 30
0.0
 10
100.6466464350543
 20
218.4494043852061
 30
0.0
 10
100.6780957227795
 20
218.8662432318545
 30
0.0
 10
100.6911454354154
 20
219.0392082672386
 30
0.0
  0
SPLINE
  5
207
330
1F
100
AcDbEntity
  8
0
  6
Continuous
 62
     7
370
    25
100
AcDbSpline
210
0.0
220
0.0
230
1.0
 70
     8
 71
     3
 72
    11
 73
     7
 74
     0
 42
0.00000001
 43
0.00000001
 40
0.0
 40
0.0
 40
0.0
 40
0.0
 40
0.2328716322111495
 40
0.4710265024313255
 40
0.7311421212560317
 40
1.0
 40
1.0
 40
1.0
 40
1.0
 10
100.276688527838
 20
207.8229902382631
 30
0.0
 10
100.0062917931652
 20
208.5545128955799
 30
0.0
 10
99.45936374103441
 20
210.0341545138118
 30
0.0
 10
99.15813942305083
 20
212.4301309483749
 30
0.0
 10
99.36579118846052
 20
214.9565800757622
 30
0.0
 10
99.96972902024076
 20
216.6220418720659
 30
0.0
 10
100.276688527838
 20
217.468535179843
 30
0.0
  0
SPLINE
  5
208
330
1F
100
AcDbEntity
  8
0
  6
Continuous
 62
     7
370
    25
100
AcDbSpline
210
0.0
220
0.0
230
1.0
 70
     8
 71
     3
 72
     9
 73
     5
 74
     0
 42
0.00000001
 43
0.00000001
 40
0.0
 40
0.0
 40
0.0
 40
0.0
 40
0.5841917497409277
 40
1.0
 40
1.0
 40
1.0
 40
1.0
 10
100.6911454354154
 20
205.5962046872416
 30
0.0
 10
100.6649774715947
 20
206.0696628116328
 30
0.0
 10
100.6201840217861
 20
206.8801126760843
 30
0.0
 10
100.3775696042721
 20
207.5460768431997
 30
0.0
 10
100.276688527838
 20
207.8229902382631
 30
0.0
  0
LINE
  5
209
330
1F
100
AcDbEntity
  8
0
  6
Continuous
 62
     7
370
    25
100
AcDbLine
 10
100.6911454354
 20
205.5962046872
 30
0.0
 11
100.6911454354
 21
204.1482520976
 31
0.0
  0
LINE
  5
20A
330
1F
100
AcDbEntity
  8
0
  6
Continuous
 62
     7
370
    25
100
AcDbLine
 10
99.1911454354
 20
196.4805651107
 30
0.0
 11
99.1911454354
 21
219.5074723862
 31
0.0
  0
LINE
  5
20B
330
1F
100
AcDbEntity
  8
0
  6
Continuous
 62
     7
370
    25
100
AcDbLine
 10
99.1911454354
 20
187.1074723862
 30
0.0
 11
99.1911454354
 21
196.4805651107
 31
0.0
  0
LINE
  5
20C
330
1F
100
AcDbEntity
  8
0
  6
Continuous
 62
     7
370
    25
100
AcDbLine
 10
91.4411454354
 20
213.8824723862
 30
0.0
 11
91.4411454354
 21
192.7324723862
 31
0.0
  0
LINE
  5
20D
330
1F
100
AcDbEntity
  8
0
  6
Continuous
 62
     7
370
    25
100
AcDbLine
 10
107.555602343
 20
217.4685351798
 30
0.0
 11
100.2766885278
 21
217.4685351798
 31
0.0
  0
LINE
  5
20E
330
1F
100
AcDbEntity
  8
0
  6
Continuous
 62
     7
370
    25
100
AcDbLine
 10
100.2766885278
 20
207.8229902383
 30
0.0
 11
107.555602343
 21
207.8229902383
 31
0.0
  0
LINE
  5
20F
330
1F
100
AcDbEntity
  8
0
  6
Continuous
 62
     7
370
    25
100
AcDbLine
 10
107.1411454354
 20
205.5962046872
 30
0.0
 11
100.6911454354
 21
205.5962046872
 31
0.0
  0
LINE
  5
210
330
1F
100
AcDbEntity
  8
0
  6
Continuous
 62
     7
370
    25
100
AcDbLine
 10
100.6911454354
 20
204.1482520976
 30
0.0
 11
107.1411454354
 21
204.1482520976
 31
0.0
  0
LINE
  5
211
330
1F
100
AcDbEntity
  8
0
  6
Continuous
 62
     7
370
    25
100
AcDbLine
 10
107.555602343
 20
201.8036735578
 30
0.0
 11
100.2766885278
 21
201.8036735578
 31
0.0
  0
LINE
  5
212
330
1F
100
AcDbEntity
  8
0
  6
Continuous
 62
     7
370
    25
100
AcDbLine
 10
100.2766885278
 20
191.1153152607
 30
0.0
 11
107.555602343
 21
191.1153152607
 31
0.0
  0
LINE
  5
213
330
1F
100
AcDbEntity
  8
0
  6
Continuous
 62
     7
370
    25
100
AcDbLine
 10
107.1411454354
 20
189.251878723
 30
0.0
 11
100.6911454354
 21
189.251878723
 31
0.0
  0
LINE
  5
214
330
1F
100
AcDbEntity
  8
0
  6
Continuous
 62
     7
370
    25
100
AcDbLine
 10
100.6911454354
 20
188.4165162166
 30
0.0
 11
107.1411454354
 21
188.4165162166
 31
0.0
  0
LINE
  5
215
330
1F
100
AcDbEntity
  8
0
  6
Continuous
 62
     7
370
    25
100
AcDbLine
 10
100.6911454354
 20
219.0392082672
 30
0.0
 11
107.1411454354
 21
219.0392082672
 31
0.0
  0
LINE
  5
216
330
1F
100
AcDbEntity
  8
0
  6
Continuous
 62
     7
370
    25
100
AcDbLine
 10
107.555602343
 20
187.6426107642
 30
0.0
 11
100.2766885278
 21
187.6426107642
 31
0.0
  0
LINE
  5
217
330
1F
100
AcDbEntity
  8
0
  6
Continuous
 62
     7
370
    25
100
AcDbLine
 10
107.1411454354
 20
219.6517983505
 30
0.0
 11
100.6911454354
 21
219.6517983505
 31
0.0
  0
LINE
  5
218
330
1F
100
AcDbEntity
  8
0
  6
Continuous
 62
     7
370
    25
100
AcDbLine
 10
100.2766885278
 20
186.5997974087
 30
0.0
 11
107.555602343
 21
186.5997974087
 31
0.0
  0
SPLINE
  5
219
330
1F
100
AcDbEntity
  8
0
  6
Continuous
 62
     7
370
    25
100
AcDbSpline
210
0.0
220
0.0
230
1.0
 70
     8
 71
     3
 72
    12
 73
     8
 74
     0
 42
0.00000001
 43
0.00000001
 40
0.0
 40
0.0
 40
0.0
 40
0.0
 40
0.1961211259854508
 40
0.3920122454189702
 40
0.7062105609801934
 40
0.7780407016783258
 40
1.0
 40
1.0
 40
1.0
 40
1.0
 10
133.059105112801
 20
208.7671972632272
 30
0.0
 10
132.7442832522217
 20
208.0960885204299
 30
0.0
 10
132.1150087472311
 20
206.7546580964389
 30
0.0
 10
131.5540179698925
 20
204.1102729105874
 30
0.0
 10
131.6717916768628
 20
201.8553305621141
 30
0.0
 10
132.2318027753876
 20
199.6163626569525
 30
0.0
 10
132.7030645972998
 20
198.6088944569076
 30
0.0
 10
133.059105112801
 20
197.8477475092521
 30
0.0
  0
LWPOLYLINE
  5
21A
330
1F
100
AcDbEntity
  8
0
  6
Continuous
 62
     7
370
    25
100
AcDbPolyline
 90
        9
 70
   128
 43
0.0
 10
138.0988429236
 20
208.6912753002
 10
137.8921129525
 20
208.4882972342
 10
137.5495435187
 20
208.3440041521
 10
137.076264792
 20
208.260556924
 10
136.4793643873
 20
208.2392052191
 10
135.7677812238
 20
208.280268791
 10
134.9521716592
 20
208.3831326897
 10
134.0447499053
 20
208.5462564706
 10
133.0591051128
 20
208.7671972632
  0
SPLINE
  5
21B
330
1F
100
AcDbEntity
  8
0
  6
Continuous
 62
     7
370
    25
100
AcDbSpline
210
0.0
220
0.0
230
1.0
 70
     8
 71
     3
 72
    12
 73
     8
 74
     0
 42
0.00000001
 43
0.00000001
 40
0.0
 40
0.0
 40
0.0
 40
0.0
 40
0.196121125985451
 40
0.3920122454189703
 40
0.7062105609801935
 40
0.7780407016783258
 40
1.0
 40
1.0
 40
1.0
 40
1.0
 10
170.0231857580297
 20
208.7671972632272
 30
0.0
 10
170.3380076186091
 20
208.0960885204299
 30
0.0
 10
170.9672821235997
 20
206.754658096439
 30
0.0
 10
171.5282729009382
 20
204.1102729105874
 30
0.0
 10
171.4104991939679
 20
201.855330562114
 30
0.0
 10
170.8504880954432
 20
199.6163626569525
 30
0.0
 10
170.3792262735309
 20
198.6088944569076
 30
0.0
 10
170.0231857580297
 20
197.8477475092521
 30
0.0
  0
LWPOLYLINE
  5
21C
330
1F
100
AcDbEntity
  8
0
  6
Continuous
 62
     7
370
    25
100
AcDbPolyline
 90
        9
 70
   128
 43
0.0
 10
164.9834479473
 20
197.9236694723
 10
165.1901779183
 20
198.1266475383
 10
165.5327473521
 20
198.2709406204
 10
166.0060260789
 20
198.3543878484
 10
166.6029264835
 20
198.3757395534
 10
167.3145096471
 20
198.3346759815
 10
168.1301192116
 20
198.2318120828
 10
169.0375409656
 20
198.0686883019
 10
170.023185758
 20
197.8477475093
  0
ARC
  5
21D
330
1F
100
AcDbEntity
  8
0
  6
Continuous
 62
     7
370
    25
100
AcDbCircle
 10
163.2149689193
 20
213.8835072874
 30
0.0
 40
1.413593576234284
100
AcDbArc
 50
251.1220212338
 51
300.2845402208
  0
SPLINE
  5
21E
330
1F
100
AcDbEntity
  8
0
  6
Continuous
 62
     7
370
    25
100
AcDbSpline
210
0.0
220
0.0
230
1.0
 70
     8
 71
     3
 72
    10
 73
     6
 74
     0
 42
0.00000001
 43
0.00000001
 40
0.0
 40
0.0
 40
0.0
 40
0.0
 40
0.4174866340693357
 40
0.839157100630091
 40
0.9999999999999999
 40
0.9999999999999999
 40
0.9999999999999999
 40
0.9999999999999999
 10
163.9278365837135
 20
212.6628244899993
 30
0.0
 10
164.725296094689
 20
212.0245549072311
 30
0.0
 10
166.3282068383871
 20
210.7416193380717
 30
0.0
 10
168.3548305800123
 20
209.4812239222687
 30
0.0
 10
169.6621972300019
 20
208.9216940011018
 30
0.0
 10
170.0231857580297
 20
208.7671972632272
 30
0.0
  0
SPLINE
  5
21F
330
1F
100
AcDbEntity
  8
0
  6
Continuous
 62
     7
370
    25
100
AcDbSpline
210
0.0
220
0.0
230
1.0
 70
     8
 71
     3
 72
    10
 73
     6
 74
     0
 42
0.00000001
 43
0.00000001
 40
0.0
 40
0.0
 40
0.0
 40
0.0
 40
0.4174866340693353
 40
0.8391571006300903
 40
0.9999999999999999
 40
0.9999999999999999
 40
0.9999999999999999
 40
0.9999999999999999
 10
139.1544542871173
 20
212.6628244899993
 30
0.0
 10
138.3569947761417
 20
212.0245549072311
 30
0.0
 10
136.7540840324436
 20
210.7416193380717
 30
0.0
 10
134.7274602908185
 20
209.4812239222687
 30
0.0
 10
133.4200936408289
 20
208.9216940011018
 30
0.0
 10
133.059105112801
 20
208.7671972632272
 30
0.0
  0
SPLINE
  5
220
330
1F
100
AcDbEntity
  8
0
  6
Continuous
 62
     7
370
    25
100
AcDbSpline
210
0.0
220
0.0
230
1.0
 70
     8
 71
     3
 72
     9
 73
     5
 74
     0
 42
0.00000001
 43
0.00000001
 40
0.0
 40
0.0
 40
0.0
 40
0.0
 40
0.4100126263040255
 40
1.0
 40
1.0
 40
1.0
 40
1.0
 10
133.059105112801
 20
197.8477475092521
 30
0.0
 10
133.9580362154481
 20
197.4276811871784
 30
0.0
 10
136.1504835816432
 20
196.4031607331126
 30
0.0
 10
138.0397883366182
 20
194.8616136169646
 30
0.0
 10
139.1544542871173
 20
193.9521202824799
 30
0.0
  0
ARC
  5
221
330
1F
100
AcDbEntity
  8
0
  6
Continuous
 62
     7
370
    25
100
AcDbCircle
 10
139.8673219516
 20
192.7314374851
 30
0.0
 40
1.413593576234367
100
AcDbArc
 50
71.1220212338
 51
120.2845402208
  0
SPLINE
  5
222
330
1F
100
AcDbEntity
  8
0
  6
Continuous
 62
     7
370
    25
100
AcDbSpline
210
0.0
220
0.0
230
1.0
 70
     8
 71
     3
 72
     9
 73
     5
 74
     0
 42
0.00000001
 43
0.00000001
 40
0.0
 40
0.0
 40
0.0
 40
0.0
 40
0.4100126263040247
 40
1.0
 40
1.0
 40
1.0
 40
1.0
 10
170.0231857580297
 20
197.8477475092521
 30
0.0
 10
169.1242546553827
 20
197.4276811871784
 30
0.0
 10
166.9318072891876
 20
196.4031607331126
 30
0.0
 10
165.0425025342125
 20
194.8616136169647
 30
0.0
 10
163.9278365837135
 20
193.9521202824799
 30
0.0
  0
ARC
  5
223
330
1F
100
AcDbEntity
  8
0
  6
Continuous
 62
     7
370
    25
100
AcDbCircle
 10
151.2755923972
 20
219.1298265578
 30
0.0
 40
1.144211958951245
100
AcDbArc
 50
253.1603603342
 51
265.5031405033
  0
ARC
  5
224
330
1F
100
AcDbEntity
  8
0
  6
Continuous
 62
     7
370
    25
100
AcDbCircle
 10
151.8066984736
 20
219.1298265578
 30
0.0
 40
1.144211958950872
100
AcDbArc
 50
274.4968594967
 51
286.8396396658
  0
LINE
  5
225
330
1F
100
AcDbEntity
  8
0
  6
Continuous
 62
     7
370
    25
100
AcDbLine
 10
148.9702824513
 20
218.3074723862
 30
0.0
 11
150.9441210097
 21
218.0346792041
 31
0.0
  0
LWPOLYLINE
  5
226
330
1F
100
AcDbEntity
  8
0
  6
Continuous
 62
     7
370
    25
100
AcDbPolyline
 90
        9
 70
   128
 43
0.0
 10
139.4157066268
 20
218.3074723862
 10
138.397300904
 20
218.139526559
 10
137.4017001134
 20
217.6394498509
 10
136.4511985214
 20
216.8184403681
 10
135.5670804983
 20
215.6948827927
 10
134.7691439016
 20
214.293936699
 10
134.0752567477
 20
212.6469731603
 10
133.5009570967
 20
210.790872264
 10
133.0591051128
 20
208.7671972632
  0
LINE
  5
227
330
1F
100
AcDbEntity
  8
0
  6
Continuous
 62
     7
370
    25
100
AcDbLine
 10
139.4157066268
 20
218.3074723862
 30
0.0
 11
148.9702824513
 21
218.3074723862
 31
0.0
  0
LINE
  5
228
330
1F
100
AcDbEntity
  8
0
  6
Continuous
 62
     7
370
    25
100
AcDbLine
 10
163.666584244
 20
188.3074723862
 30
0.0
 11
159.4857346803
 21
188.3074723862
 31
0.0
  0
LWPOLYLINE
  5
229
330
1F
100
AcDbEntity
  8
0
  6
Continuous
 62
     7
370
    25
100
AcDbPolyline
 90
        9
 70
   128
 43
0.0
 10
170.023185758
 20
197.8477475093
 10
169.5813337741
 20
195.8240725085
 10
169.0070341232
 20
193.9679716122
 10
168.3131469692
 20
192.3210080735
 10
167.5152103726
 20
190.9200619798
 10
166.6310923494
 20
189.7965044044
 10
165.6805907574
 20
188.9754949216
 10
164.6849899668
 20
188.4754182134
 10
163.666584244
 20
188.3074723862
  0
LINE
  5
22A
330
1F
100
AcDbEntity
  8
0
  6
Continuous
 62
     7
370
    25
100
AcDbLine
 10
139.4157066268
 20
188.3074723862
 30
0.0
 11
143.6856649816
 21
188.3074723862
 31
0.0
  0
LWPOLYLINE
  5
22B
330
1F
100
AcDbEntity
  8
0
  6
Continuous
 62
     7
370
    25
100
AcDbPolyline
 90
        9
 70
   128
 43
0.0
 10
133.0591051128
 20
197.8477475093
 10
133.5009570967
 20
195.8240725085
 10
134.0752567477
 20
193.9679716122
 10
134.7691439016
 20
192.3210080735
 10
135.5670804983
 20
190.9200619798
 10
136.4511985214
 20
189.7965044044
 10
137.4017001134
 20
188.9754949216
 10
138.397300904
 20
188.4754182134
 10
139.4157066268
 20
188.3074723862
  0
LINE
  5
22C
330
1F
100
AcDbEntity
  8
0
  6
Continuous
 62
     7
370
    25
100
AcDbLine
 10
163.666584244
 20
218.3074723862
 30
0.0
 11
157.03207195
 21
218.3074723862
 31
0.0
  0
LWPOLYLINE
  5
22D
330
1F
100
AcDbEntity
  8
0
  6
Continuous
 62
     7
370
    25
100
AcDbPolyline
 90
        9
 70
   128
 43
0.0
 10
163.666584244
 20
218.3074723862
 10
164.6849899668
 20
218.139526559
 10
165.6805907574
 20
217.6394498509
 10
166.6310923494
 20
216.8184403681
 10
167.5152103726
 20
215.6948827927
 10
168.3131469692
 20
214.293936699
 10
169.0070341232
 20
212.6469731603
 10
169.5813337741
 20
210.790872264
 10
170.023185758
 20
208.7671972632
  0
SPLINE
  5
22E
330
1F
100
AcDbEntity
  8
0
  6
Continuous
 62
     7
370
    25
100
AcDbSpline
210
0.0
220
0.0
230
1.0
 70
     8
 71
     3
 72
     9
 73
     5
 74
     0
 42
0.00000001
 43
0.00000001
 40
0.0
 40
0.0
 40
0.0
 40
0.0
 40
0.5027582281836304
 40
1.0
 40
1.0
 40
1.0
 40
1.0
 10
150.9441210096852
 20
218.0346792041346
 30
0.0
 10
151.1442625466064
 20
218.0392262723957
 30
0.0
 10
151.54234959064
 20
218.0482705167385
 30
0.0
 10
151.9402948535368
 20
218.0391929496683
 30
0.0
 10
152.1381698611455
 20
218.0346792041346
 30
0.0
  0
LINE
  5
22F
330
1F
100
AcDbEntity
  8
0
  6
Continuous
 62
     7
370
    25
100
AcDbLine
 10
152.8017916531
 20
218.3074723862
 30
0.0
 11
148.9702824513
 21
218.3074723862
 31
0.0
  0
LINE
  5
230
330
1F
100
AcDbEntity
  8
0
  6
Continuous
 62
     7
370
    25
100
AcDbLine
 10
130.8521764348
 20
188.3074723862
 30
0.0
 11
139.4157066268
 21
188.3074723862
 31
0.0
  0
LWPOLYLINE
  5
231
330
1F
100
AcDbEntity
  8
0
  6
Continuous
 62
     7
370
    25
100
AcDbPolyline
 90
       21
 70
   128
 43
0.0
 10
130.8521764348
 20
218.3074723862
 10
129.7845523978
 20
218.1227974952
 10
128.7432168078
 20
217.5733201307
 10
127.753810803
 20
216.6725702491
 10
126.840696843
 20
215.4427273019
 10
126.0263588239
 20
213.914074104
 10
125.3308484504
 20
212.1242511706
 10
124.771291496
 20
210.1173298823
 10
124.3614661101
 20
207.9427273019
 10
124.1114635539
 20
205.6539893618
 10
124.02743972
 20
203.3074723862
 10
124.1114635539
 20
200.9609554106
 10
124.3614661101
 20
198.6722174706
 10
124.771291496
 20
196.4976148901
 10
125.3308484504
 20
194.4906936019
 10
126.0263588239
 20
192.7008706684
 10
126.840696843
 20
191.1722174706
 10
127.753810803
 20
189.9423745234
 10
128.7432168078
 20
189.0416246418
 10
129.7845523978
 20
188.4921472773
 10
130.8521764348
 20
188.3074723862
  0
LINE
  5
232
330
1F
100
AcDbEntity
  8
0
  6
Continuous
 62
     7
370
    25
100
AcDbLine
 10
130.8521764348
 20
218.3074723862
 30
0.0
 11
139.4157066268
 21
218.3074723862
 31
0.0
  0
LINE
  5
233
330
1F
100
AcDbEntity
  8
0
  6
Continuous
 62
     7
370
    25
100
AcDbLine
 10
172.230114436
 20
218.3074723862
 30
0.0
 11
163.666584244
 21
218.3074723862
 31
0.0
  0
LWPOLYLINE
  5
234
330
1F
100
AcDbEntity
  8
0
  6
Continuous
 62
     7
370
    25
100
AcDbPolyline
 90
       21
 70
   128
 43
0.0
 10
172.230114436
 20
218.3074723862
 10
173.2977384731
 20
218.1227974952
 10
174.3390740631
 20
217.5733201307
 10
175.3284800678
 20
216.6725702491
 10
176.2415940278
 20
215.4427273019
 10
177.0559320469
 20
213.914074104
 10
177.7514424205
 20
212.1242511706
 10
178.3109993748
 20
210.1173298823
 10
178.7208247607
 20
207.9427273019
 10
178.9708273169
 20
205.6539893618
 10
179.0548511509
 20
203.3074723862
 10
178.9708273169
 20
200.9609554106
 10
178.7208247607
 20
198.6722174706
 10
178.3109993748
 20
196.4976148901
 10
177.7514424205
 20
194.4906936019
 10
177.0559320469
 20
192.7008706684
 10
176.2415940278
 20
191.1722174706
 10
175.3284800678
 20
189.9423745234
 10
174.3390740631
 20
189.0416246418
 10
173.2977384731
 20
188.4921472773
 10
172.230114436
 20
188.3074723862
  0
LINE
  5
235
330
1F
100
AcDbEntity
  8
0
  6
Continuous
 62
     7
370
    25
100
AcDbLine
 10
172.230114436
 20
188.3074723862
 30
0.0
 11
163.666584244
 21
188.3074723862
 31
0.0
  0
LINE
  5
236
330
1F
100
AcDbEntity
  8
0
  6
Continuous
 62
     7
370
    25
100
AcDbLine
 10
188.154500104
 20
218.3074723862
 30
0.0
 11
172.230114436
 21
218.3074723862
 31
0.0
  0
LINE
  5
237
330
1F
100
AcDbEntity
  8
0
  6
Continuous
 62
     7
370
    25
100
AcDbLine
 10
188.154500104
 20
218.3074723862
 30
0.0
 11
188.154500104
 21
188.3074723862
 31
0.0
  0
LINE
  5
238
330
1F
100
AcDbEntity
  8
0
  6
Continuous
 62
     7
370
    25
100
AcDbLine
 10
188.154500104
 20
188.3074723862
 30
0.0
 11
172.230114436
 21
188.3074723862
 31
0.0
  0
LINE
  5
239
330
1F
100
AcDbEntity
  8
0
  6
Continuous
 62
     7
370
    25
100
AcDbLine
 10
114.9277907668
 20
188.3074723862
 30
0.0
 11
130.8521764348
 21
188.3074723862
 31
0.0
  0
LINE
  5
23A
330
1F
100
AcDbEntity
  8
0
  6
Continuous
 62
     7
370
    25
100
AcDbLine
 10
114.9277907668
 20
218.3074723862
 30
0.0
 11
114.9277907668
 21
188.3074723862
 31
0.0
  0
LINE
  5
23B
330
1F
100
AcDbEntity
  8
0
  6
Continuous
 62
     7
370
    25
100
AcDbLine
 10
114.9277907668
 20
218.3074723862
 30
0.0
 11
130.8521764348
 21
218.3074723862
 31
0.0
  0
LINE
  5
23C
330
1F
100
AcDbEntity
  8
0
  6
Continuous
 62
     7
370
    25
100
AcDbLine
 10
192.7411454354
 20
218.3074723862
 30
0.0
 11
188.154500104
 21
218.3074723862
 31
0.0
  0
LINE
  5
23D
330
1F
100
AcDbEntity
  8
0
  6
Continuous
 62
     7
370
    25
100
AcDbLine
 10
192.7411454354
 20
188.3074723862
 30
0.0
 11
192.7411454354
 21
218.3074723862
 31
0.0
  0
LINE
  5
23E
330
1F
100
AcDbEntity
  8
0
  6
Continuous
 62
     7
370
    25
100
AcDbLine
 10
192.7411454354
 20
188.3074723862
 30
0.0
 11
188.154500104
 21
188.3074723862
 31
0.0
  0
LINE
  5
23F
330
1F
100
AcDbEntity
  8
0
  6
Continuous
 62
     7
370
    25
100
AcDbLine
 10
110.3411454354
 20
218.3074723862
 30
0.0
 11
114.9277907668
 21
218.3074723862
 31
0.0
  0
LINE
  5
240
330
1F
100
AcDbEntity
  8
0
  6
Continuous
 62
     7
370
    25
100
AcDbLine
 10
110.3411454354
 20
188.3074723862
 30
0.0
 11
114.9277907668
 21
188.3074723862
 31
0.0
  0
LINE
  5
241
330
1F
100
AcDbEntity
  8
0
  6
Continuous
 62
     7
370
    25
100
AcDbLine
 10
110.3411454354
 20
188.3074723862
 30
0.0
 11
110.3411454354
 21
218.3074723862
 31
0.0
  0
SPLINE
  5
242
330
1F
100
AcDbEntity
  8
0
  6
Continuous
 62
     7
370
    25
100
AcDbSpline
210
0.0
220
0.0
230
1.0
 70
     8
 71
     3
 72
    18
 73
    14
 74
     0
 42
0.00000001
 43
0.00000001
 40
0.0
 40
0.0
 40
0.0
 40
0.0
 40
0.0569447277585364
 40
0.1507614687560893
 40
0.2445782097536424
 40
0.3400242771492495
 40
0.4338410181468027
 40
0.5276577591443559
 40
0.6231038265399625
 40
0.7169205675375161
 40
0.8099301629352224
 40
0.904568965889228
 40
1.0
 40
1.0
 40
1.0
 40
1.0
 10
108.6411454354154
 20
189.8869248512392
 30
0.0
 10
108.654092931439
 20
190.1491975160519
 30
0.0
 10
108.6883714958305
 20
190.8435657871483
 30
0.0
 10
108.7411583351188
 20
192.9633764828725
 30
0.0
 10
108.8021769726484
 20
195.9663342979408
 30
0.0
 10
108.8676113182764
 20
199.5135399687478
 30
0.0
 10
108.9286450802739
 20
203.3069228339274
 30
0.0
 10
108.989680960733
 20
207.1036221012599
 30
0.0
 10
109.055108877393
 20
210.640763372914
 30
0.0
 10
109.1159767341175
 20
213.6714807610472
 30
0.0
 10
109.1766385420294
 20
215.9788228717289
 30
0.0
 10
109.2420510299448
 20
217.5132808899037
 30
0.0
 10
109.2830569918006
 20
217.7091364385897
 30
0.0
 10
109.3036454313186
 20
217.8074723862396
 30
0.0
  0
LINE
  5
243
330
1F
100
AcDbEntity
  8
0
  6
Continuous
 62
     7
370
    25
100
AcDbLine
 10
110.047173126
 20
188.8589515877
 30
0.0
 11
110.0536454313
 21
188.8074723862
 31
0.0
  0
SPLINE
  5
244
330
1F
100
AcDbEntity
  8
0
  6
Continuous
 62
     7
370
    25
100
AcDbSpline
210
0.0
220
0.0
230
1.0
 70
     8
 71
     3
 72
    11
 73
     7
 74
     0
 42
0.00000001
 43
0.00000001
 40
0.0
 40
0.0
 40
0.0
 40
0.0
 40
0.0338029119390419
 40
0.3659139339879652
 40
0.7037931638778594
 40
1.0
 40
1.0
 40
1.0
 40
1.0
 10
108.6411454354154
 20
212.699706816221
 30
0.0
 10
108.6432300742431
 20
212.7961723367725
 30
0.0
 10
108.6657961299662
 20
213.8404042119093
 30
0.0
 10
108.7083161707593
 20
215.2444343228456
 30
0.0
 10
108.7715813561358
 20
216.6930800050332
 30
0.0
 10
108.8102113243312
 20
216.8652850562743
 30
0.0
 10
108.82825691983
 20
216.9457288889439
 30
0.0
  0
SPLINE
  5
245
330
1F
100
AcDbEntity
  8
0
  6
Continuous
 62
     7
370
    25
100
AcDbSpline
210
0.0
220
0.0
230
1.0
 70
     8
 71
     3
 72
    21
 73
    17
 74
     0
 42
0.00000001
 43
0.00000001
 40
0.0
 40
0.0
 40
0.0
 40
0.0
 40
0.0744253596644122
 40
0.1594654728433951
 40
0.2430537979151429
 40
0.3266421229868915
 40
0.4116822361658743
 40
0.4952705612376231
 40
0.5788588863093714
 40
0.6638989994883544
 40
0.7474873245601029
 40
0.8166848884187198
 40
0.8872233607816259
 40
0.957440166279335
 40
0.9999794898814968
 40
1.0
 40
1.0
 40
1.0
 40
1.0
 10
195.3656641292874
 20
189.6699126237799
 30
0.0
 10
195.3476419096986
 20
189.7529855447428
 30
0.0
 10
195.3090270910215
 20
189.9309794796268
 30
0.0
 10
195.2459184081273
 20
191.3309256751583
 30
0.0
 10
195.1848986392702
 20
193.5147956335486
 30
0.0
 10
195.1238595483542
 20
196.384981592821
 30
0.0
 10
195.058430347739
 20
199.7239574413653
 30
0.0
 10
194.9973970134258
 20
203.3075013977883
 30
0.0
 10
194.9363541685964
 20
206.8908702771561
 30
0.0
 10
194.870953829893
 20
210.2303774384514
 30
0.0
 10
194.8132989546606
 20
212.9349856196172
 30
0.0
 10
194.7595754974238
 20
214.9266610513355
 30
0.0
 10
194.7059043836417
 20
216.2840156789738
 30
0.0
 10
194.6591772311576
 20
216.8289465025678
 30
0.0
 10
194.6328072529346
 20
217.0737766204858
 30
0.0
 10
194.6223853927223
 20
216.9954981666361
 30
0.0
 10
194.6223803702969
 20
216.9954604432659
 30
0.0
  0
SPLINE
  5
246
330
1F
100
AcDbEntity
  8
0
  6
Continuous
 62
     7
370
    25
100
AcDbSpline
210
0.0
220
0.0
230
1.0
 70
     8
 71
     3
 72
    18
 73
    14
 74
     0
 42
0.00000001
 43
0.00000001
 40
0.0
 40
0.0
 40
0.0
 40
0.0
 40
0.0625083500006807
 40
0.1648649420355468
 40
0.2689991730679309
 40
0.3713557651027972
 40
0.4728317362466194
 40
0.5760852167264512
 40
0.6802030526311172
 40
0.7825596446659833
 40
0.8866938756983671
 40
0.9890504677332336
 40
1.0
 40
1.0
 40
1.0
 40
1.0
 10
195.6911454354154
 20
191.6539096108851
 30
0.0
 10
195.6786150806498
 20
192.0964730097682
 30
0.0
 10
195.6455664365551
 20
193.2637280901393
 30
0.0
 10
195.592676756789
 20
195.9948298577286
 30
0.0
 10
195.5271641978539
 20
199.5059451878531
 30
0.0
 10
195.4663191327734
 20
203.2982808844538
 30
0.0
 10
195.4056497930408
 20
207.0698977132589
 30
0.0
 10
195.3402450189347
 20
210.6144624633497
 30
0.0
 10
195.2789755455491
 20
213.6591640835537
 30
0.0
 10
195.2176400723199
 20
216.0265208753025
 30
0.0
 10
195.1520784154672
 20
217.4118213227231
 30
0.0
 10
195.109440464321
 20
217.9700549099755
 30
0.0
 10
195.0867676227106
 20
217.7741563509695
 30
0.0
 10
195.0845765936526
 20
217.7552253566736
 30
0.0
  0
SPLINE
  5
247
330
1F
100
AcDbEntity
  8
0
  6
Continuous
 62
     7
370
    25
100
AcDbSpline
210
0.0
220
0.0
230
1.0
 70
     8
 71
     3
 72
    14
 73
    10
 74
     0
 42
0.00000001
 43
0.00000001
 40
0.0
 40
0.0
 40
0.0
 40
0.0
 40
0.0918965940499453
 40
0.2423760614181817
 40
0.3954689234315648
 40
0.5459483907998018
 40
0.6951332188673963
 40
0.8469312509612383
 40
1.0
 40
1.0
 40
1.0
 40
1.0
 10
195.6911454354154
 20
201.0285798873591
 30
0.0
 10
195.6786150829823
 20
201.7864232693578
 30
0.0
 10
195.645566442798
 20
203.785225248905
 30
0.0
 10
195.59267673578
 20
207.107401441548
 30
0.0
 10
195.5271642956864
 20
210.6397624729262
 30
0.0
 10
195.4663187947497
 20
213.671744197262
 30
0.0
 10
195.4056510672998
 20
215.9787515272481
 30
0.0
 10
195.340240161642
 20
217.5132990303316
 30
0.0
 10
195.2992339862455
 20
217.7091425021781
 30
0.0
 10
195.2786454395121
 20
217.8074723862396
 30
0.0
  0
SPLINE
  5
248
330
1F
100
AcDbEntity
  8
0
  6
Continuous
 62
     7
370
    25
100
AcDbSpline
210
0.0
220
0.0
230
1.0
 70
     8
 71
     3
 72
    20
 73
    16
 74
     0
 42
0.00000001
 43
0.00000001
 40
0.0
 40
0.0
 40
0.0
 40
0.0
 40
0.0086573631120547
 40
0.0907937671802668
 40
0.1743566438584478
 40
0.2564930479266597
 40
0.3386294519948715
 40
0.4221923286730526
 40
0.5043287327412647
 40
0.5864651368094767
 40
0.6700280134876574
 40
0.7521644175558697
 40
0.8335941669649454
 40
0.9164502849382273
 40
1.0
 40
1.0
 40
1.0
 40
1.0
 10
194.535117744858
 20
188.8589515877458
 30
0.0
 10
194.5329589350131
 20
188.8403183506602
 30
0.0
 10
194.5103184986687
 20
188.6449029836637
 30
0.0
 10
194.4677118165888
 20
189.2033100600769
 30
0.0
 10
194.4021536538118
 20
190.5883376187348
 30
0.0
 10
194.3411525786534
 20
192.9425145500111
 30
0.0
 10
194.2801084206746
 20
195.9720356266943
 30
0.0
 10
194.2146810028078
 20
199.5120304552524
 30
0.0
 10
194.1536454049989
 20
203.3073241465228
 30
0.0
 10
194.0926100154682
 20
207.1035124250874
 30
0.0
 10
194.027181965532
 20
210.6407924189567
 30
0.0
 10
193.9663141440581
 20
213.671473116148
 30
0.0
 10
193.9056523268121
 20
215.9788249421404
 30
0.0
 10
193.8402398413917
 20
217.5132803634698
 30
0.0
 10
193.7992338791992
 20
217.7091362626248
 30
0.0
 10
193.7786454395121
 20
217.8074723862396
 30
0.0
  0
LINE
  5
249
330
1F
100
AcDbEntity
  8
0
  6
Continuous
 62
     7
370
    25
100
AcDbLine
 10
193.0351177449
 20
188.8589515877
 30
0.0
 11
193.0286454395
 21
188.8074723862
 31
0.0
  0
LINE
  5
24A
330
1F
100
AcDbEntity
  8
0
  6
Continuous
 62
     7
370
    25
100
AcDbLine
 10
194.3411454354
 20
188.8074723862
 30
0.0
 11
193.8723954375
 21
189.6193711987
 31
0.0
  0
LINE
  5
24B
330
1F
100
AcDbEntity
  8
0
  6
Continuous
 62
     7
370
    25
100
AcDbLine
 10
193.8723954375
 20
189.6193711987
 30
0.0
 11
193.4973954375
 21
189.6193711987
 31
0.0
  0
LINE
  5
24C
330
1F
100
AcDbEntity
  8
0
  6
Continuous
 62
     7
370
    25
100
AcDbLine
 10
193.4973954375
 20
189.6193711987
 30
0.0
 11
193.0286454395
 21
188.8074723862
 31
0.0
  0
SPLINE
  5
24D
330
1F
100
AcDbEntity
  8
0
  6
Continuous
 62
     7
370
    25
100
AcDbSpline
210
0.0
220
0.0
230
1.0
 70
     8
 71
     3
 72
    20
 73
    16
 74
     0
 42
0.00000001
 43
0.00000001
 40
0.0
 40
0.0
 40
0.0
 40
0.0
 40
0.0835700848942308
 40
0.1686020731605493
 40
0.2521824120265457
 40
0.3213733646032423
 40
0.3919050975709873
 40
0.4621151944062692
 40
0.5046504537112824
 40
0.58823079257728
 40
0.6732627808435986
 40
0.7568431197095953
 40
0.8404234585755919
 40
0.925455446841911
 40
0.9999999999999999
 40
0.9999999999999999
 40
0.9999999999999999
 40
0.9999999999999999
 10
194.9973879039594
 20
189.6194277633824
 30
0.0
 10
194.9771604282024
 20
189.7092529504918
 30
0.0
 10
194.93635163458
 20
189.8904746494747
 30
0.0
 10
194.8709551361238
 20
191.3275554425112
 30
0.0
 10
194.8132940932262
 20
193.3913124069177
 30
0.0
 10
194.7595904075728
 20
195.8778075583881
 30
0.0
 10
194.7058472542917
 20
198.5629062038753
 30
0.0
 10
194.6593540065256
 20
201.1066258860984
 30
0.0
 10
194.6127419832542
 20
203.888177409498
 30
0.0
 10
194.5612634995142
 20
206.8918475771101
 30
0.0
 10
194.4959570039524
 20
210.2297386073957
 30
0.0
 10
194.4348854535307
 20
213.1001971993532
 30
0.0
 10
194.3738741535153
 20
215.2840497584368
 30
0.0
 10
194.3107312248144
 20
216.6845261980088
 30
0.0
 10
194.2720864590383
 20
216.8625615096261
 30
0.0
 10
194.2540339510007
 20
216.9457288889439
 30
0.0
  0
LINE
  5
24E
330
1F
100
AcDbEntity
  8
0
  6
Continuous
 62
     7
370
    25
100
AcDbLine
 10
109.2098954334
 20
189.6193711987
 30
0.0
 11
109.5848954334
 21
189.6193711987
 31
0.0
  0
LINE
  5
24F
330
1F
100
AcDbEntity
  8
0
  6
Continuous
 62
     7
370
    25
100
AcDbLine
 10
108.7411454354
 20
188.8074723862
 30
0.0
 11
109.2098954334
 21
189.6193711987
 31
0.0
  0
LINE
  5
250
330
1F
100
AcDbEntity
  8
0
  6
Continuous
 62
     7
370
    25
100
AcDbLine
 10
109.5848954334
 20
189.6193711987
 30
0.0
 11
110.0536454313
 21
188.8074723862
 31
0.0
  0
ARC
  5
251
330
1F
100
AcDbEntity
  8
0
  6
Continuous
 62
     7
370
    25
100
AcDbCircle
 10
151.4482032118
 20
218.3981599782
 30
0.0
 40
0.0907001248961638
100
AcDbArc
 50
270.9524997103
 51
301.3474944787
  0
ARC
  5
252
330
1F
100
AcDbEntity
  8
0
  6
Continuous
 62
     7
370
    25
100
AcDbCircle
 10
151.634087659
 20
218.3981599782
 30
0.0
 40
0.0907001248960212
100
AcDbArc
 50
238.6525055213
 51
269.0475002897
  0
LINE
  5
253
330
1F
100
AcDbEntity
  8
0
  6
Continuous
 62
     7
370
    25
100
AcDbLine
 10
151.495387886
 20
218.320699542
 30
0.0
 11
151.5869029848
 21
218.320699542
 31
0.0
  0
ARC
  5
254
330
1F
100
AcDbEntity
  8
0
  6
Continuous
 62
     7
370
    25
100
AcDbCircle
 10
151.5411454354
 20
203.3074723862
 30
0.0
 40
28.25000000000001
100
AcDbArc
 50
32.0712506327
 51
90.0
  0
ARC
  5
255
330
1F
100
AcDbEntity
  8
0
  6
Continuous
 62
     7
370
    25
100
AcDbCircle
 10
151.5411454354
 20
203.3074723862
 30
0.0
 40
28.25000000000004
100
AcDbArc
 50
286.4092638359
 51
327.9287493673
  0
ARC
  5
256
330
1F
100
AcDbEntity
  8
0
  6
Continuous
 62
     7
370
    25
100
AcDbCircle
 10
151.5411454354
 20
203.3074723862
 30
0.0
 40
28.25
100
AcDbArc
 50
212.0712506327
 51
253.9311056731
  0
ARC
  5
257
330
1F
100
AcDbEntity
  8
0
  6
Continuous
 62
     7
370
    25
100
AcDbCircle
 10
151.5411454354
 20
203.3074723862
 30
0.0
 40
28.25
100
AcDbArc
 50
90.0
 51
147.9287493673
  0
ARC
  5
258
330
1F
100
AcDbEntity
  8
0
  6
Continuous
 62
     7
370
    25
100
AcDbCircle
 10
152.4470808157
 20
-101.69118217
 30
0.0
 40
11.54999999999999
100
AcDbArc
 50
133.3258381953
 51
275.1358853614
  0
ARC
  5
259
330
1F
100
AcDbEntity
  8
0
  6
Continuous
 62
     7
370
    25
100
AcDbCircle
 10
152.4470808157
 20
-101.69118217
 30
0.0
 40
11.54999999999998
100
AcDbArc
 50
275.1358853614
 51
47.0145313138
  0
ARC
  5
25A
330
1F
100
AcDbEntity
  8
0
  6
Continuous
 62
     7
370
    25
100
AcDbCircle
 10
143.5346578465
 20
197.743422019
 30
0.0
 40
0.1000000000000204
100
AcDbArc
 50
34.7970879768
 51
110.0348976724
  0
ARC
  5
25B
330
1F
100
AcDbEntity
  8
0
  6
Continuous
 62
     7
370
    25
100
AcDbCircle
 10
143.2599436703
 20
198.1611924361
 30
0.0
 40
0.1000000000000224
100
AcDbArc
 50
316.6207111265
 51
31.8585208141
  0
ARC
  5
25C
330
1F
100
AcDbEntity
  8
0
  6
Continuous
 62
     7
370
    25
100
AcDbCircle
 10
151.5411454354
 20
203.3074723862
 30
0.0
 40
9.649999999999995
100
AcDbArc
 50
325.1203500866
 51
211.8585208141
  0
ARC
  5
25D
330
1F
100
AcDbEntity
  8
0
  6
Continuous
 62
     7
370
    25
100
AcDbCircle
 10
151.5411454354
 20
203.3074723862
 30
0.0
 40
9.925000000000011
100
AcDbArc
 50
322.9171341138
 51
217.4232353952
  0
ARC
  5
25E
330
1F
100
AcDbEntity
  8
0
  6
Continuous
 62
     7
370
    25
100
AcDbCircle
 10
151.5411454354
 20
203.3074723862
 30
0.0
 40
9.725000000000023
100
AcDbArc
 50
324.4953089528
 51
215.8450605562
  0
ARC
  5
25F
330
1F
100
AcDbEntity
  8
0
  6
Continuous
 62
     7
370
    25
100
AcDbCircle
 10
151.5411454354
 20
203.3074723862
 30
0.0
 40
14.22500000000004
100
AcDbArc
 50
303.9057183943
 51
223.3937370579
  0
LWPOLYLINE
  5
260
330
1F
100
AcDbEntity
  8
0
  6
Continuous
 62
     7
370
    25
100
AcDbPolyline
 90
        3
 70
   128
 43
0.0
 10
143.6763176574
 20
191.4544091104
 10
142.8605985838
 20
192.0381010037
 10
141.2045524365
 20
193.5347823689
  0
LINE
  5
261
330
1F
100
AcDbEntity
  8
0
  6
Continuous
 62
     7
370
    25
100
AcDbLine
 10
137.0909347625
 20
204.0159857518
 30
0.0
 11
137.3332136393
 21
204.004106491
 31
0.0
  0
SPLINE
  5
262
330
1F
100
AcDbEntity
  8
0
  6
Continuous
 62
     7
370
    25
100
AcDbSpline
210
0.0
220
0.0
230
1.0
 70
     8
 71
     3
 72
    11
 73
     7
 74
     0
 42
0.00000001
 43
0.00000001
 40
0.0
 40
0.0
 40
0.0
 40
0.0
 40
0.1446702591042567
 40
0.3907520209323631
 40
0.5962314811354643
 40
0.9999999999999999
 40
0.9999999999999999
 40
0.9999999999999999
 40
0.9999999999999999
 10
139.063369441939
 20
210.6297456628991
 30
0.0
 10
138.9321784145358
 20
210.323164499676
 30
0.0
 10
138.5778335795754
 20
209.4950937555508
 30
0.0
 10
138.1173236214464
 20
208.1984260292816
 30
0.0
 10
137.5415003978104
 20
206.3104791972502
 30
0.0
 10
137.2705213927074
 20
204.9305258623805
 30
0.0
 10
137.0909347624796
 20
204.0159857518408
 30
0.0
  0
LINE
  5
263
330
1F
100
AcDbEntity
  8
0
  6
Continuous
 62
     7
370
    25
100
AcDbLine
 10
139.0633694419
 20
210.6297456629
 30
0.0
 11
139.2725775719
 21
210.5069770621
 31
0.0
  0
LINE
  5
264
330
1F
100
AcDbEntity
  8
0
  6
Continuous
 62
     7
370
    25
100
AcDbLine
 10
144.9296306725
 20
216.1759786018
 30
0.0
 11
145.0404823692
 21
215.9602193093
 31
0.0
  0
SPLINE
  5
265
330
1F
100
AcDbEntity
  8
0
  6
Continuous
 62
     7
370
    25
100
AcDbSpline
210
0.0
220
0.0
230
1.0
 70
     8
 71
     3
 72
    11
 73
     7
 74
     0
 42
0.00000001
 43
0.00000001
 40
0.0
 40
0.0
 40
0.0
 40
0.0
 40
0.1446702591042568
 40
0.3907520209323662
 40
0.5962314811354602
 40
1.0
 40
1.0
 40
1.0
 40
1.0
 10
151.6435321097163
 20
217.7746800176516
 30
0.0
 10
151.3124295203416
 20
217.7350041985198
 30
0.0
 10
150.4181268023183
 20
217.6278404552327
 30
0.0
 10
149.0649246320374
 20
217.3783199145335
 30
0.0
 10
147.1420031026858
 20
216.9330240382757
 30
0.0
 10
145.8114389561
 20
216.4777220731522
 30
0.0
 10
144.929630672479
 20
216.1759786018397
 30
0.0
  0
LINE
  5
266
330
1F
100
AcDbEntity
  8
0
  6
Continuous
 62
     7
370
    25
100
AcDbLine
 10
151.6435321097
 20
217.7746800177
 30
0.0
 11
151.6418154477
 21
217.532116162
 31
0.0
  0
LINE
  5
267
330
1F
100
AcDbEntity
  8
0
  6
Continuous
 62
     7
370
    25
100
AcDbLine
 10
159.3798413454
 20
215.4674652362
 30
0.0
 11
159.2484141653
 21
215.2635852046
 31
0.0
  0
SPLINE
  5
268
330
1F
100
AcDbEntity
  8
0
  6
Continuous
 62
     7
370
    25
100
AcDbSpline
210
0.0
220
0.0
230
1.0
 70
     8
 71
     3
 72
    11
 73
     7
 74
     0
 42
0.00000001
 43
0.00000001
 40
0.0
 40
0.0
 40
0.0
 40
0.0
 40
0.1446702591042567
 40
0.3907520209323685
 40
0.5962314811354854
 40
1.0
 40
1.0
 40
1.0
 40
1.0
 10
164.1213081031927
 20
210.4524067409921
 30
0.0
 10
163.9213965412213
 20
210.7193120850834
 30
0.0
 10
163.3814386581583
 20
211.4402190859216
 30
0.0
 10
162.4887464460064
 20
212.4873662714915
 30
0.0
 10
161.1416481402908
 20
213.9300172272652
 30
0.0
 10
160.082062998808
 20
214.8546685970114
 30
0.0
 10
159.3798413454148
 20
215.4674652362384
 30
0.0
  0
LINE
  5
269
330
1F
100
AcDbEntity
  8
0
  6
Continuous
 62
     7
370
    25
100
AcDbLine
 10
163.9103833112
 20
210.3326114861
 30
0.0
 11
164.1213081032
 21
210.452406741
 31
0.0
  0
SPLINE
  5
26A
330
1F
100
AcDbEntity
  8
0
  6
Continuous
 62
     7
370
    25
100
AcDbSpline
210
0.0
220
0.0
230
1.0
 70
     8
 71
     3
 72
    11
 73
     7
 74
     0
 42
0.00000001
 43
0.00000001
 40
0.0
 40
0.0
 40
0.0
 40
0.0
 40
0.144670259104255
 40
0.3907520209323662
 40
0.5962314811354772
 40
1.0
 40
1.0
 40
1.0
 40
1.0
 10
138.9609827676381
 20
196.1625380314871
 30
0.0
 10
139.1608943296096
 20
195.8956326873958
 30
0.0
 10
139.7008522126725
 20
195.1747256865577
 30
0.0
 10
140.5935444248245
 20
194.1275785009876
 30
0.0
 10
141.9406427305401
 20
192.6849275452142
 30
0.0
 10
143.0002278720229
 20
191.7602761754678
 30
0.0
 10
143.7024495254161
 20
191.1474795362407
 30
0.0
  0
LINE
  5
26B
330
1F
100
AcDbEntity
  8
0
  6
Continuous
 62
     7
370
    25
100
AcDbLine
 10
138.9609827676
 20
196.1625380315
 30
0.0
 11
139.1719075597
 21
196.2823332863
 31
0.0
  0
LINE
  5
26C
330
1F
100
AcDbEntity
  8
0
  6
Continuous
 62
     7
370
    25
100
AcDbLine
 10
165.7490772316
 20
202.6108382815
 30
0.0
 11
165.9913561084
 21
202.5989590206
 31
0.0
  0
SPLINE
  5
26D
330
1F
100
AcDbEntity
  8
0
  6
Continuous
 62
     7
370
    25
100
AcDbSpline
210
0.0
220
0.0
230
1.0
 70
     8
 71
     3
 72
    11
 73
     7
 74
     0
 42
0.00000001
 43
0.00000001
 40
0.0
 40
0.0
 40
0.0
 40
0.0
 40
0.1446702591042554
 40
0.3907520209323582
 40
0.5962314811354736
 40
0.9999999999999999
 40
0.9999999999999999
 40
0.9999999999999999
 40
0.9999999999999999
 10
164.018921428892
 20
195.9851991095801
 30
0.0
 10
164.1501124562951
 20
196.2917802728033
 30
0.0
 10
164.5044572912555
 20
197.1198510169285
 30
0.0
 10
164.9649672493845
 20
198.4165187431976
 30
0.0
 10
165.5407904730205
 20
200.3044655752291
 30
0.0
 10
165.8117694781236
 20
201.6844189100989
 30
0.0
 10
165.9913561083513
 20
202.5989590206385
 30
0.0
  0
LINE
  5
26E
330
1F
100
AcDbEntity
  8
0
  6
Continuous
 62
     7
370
    25
100
AcDbLine
 10
163.8097132989
 20
196.1079677103
 30
0.0
 11
164.0189214289
 21
195.9851991096
 31
0.0
  0
SPLINE
  5
26F
330
1F
100
AcDbEntity
  8
0
  6
Continuous
 62
     7
370
    25
100
AcDbSpline
210
0.0
220
0.0
230
1.0
 70
     8
 71
     3
 72
     9
 73
     5
 74
     0
 42
0.00000001
 43
0.00000001
 40
0.0
 40
0.0
 40
0.0
 40
0.0
 40
0.5862283062032664
 40
1.0
 40
1.0
 40
1.0
 40
1.0
 10
137.0909347624796
 20
204.0159857518408
 30
0.0
 10
137.0376575842473
 20
203.6875001996461
 30
0.0
 10
136.9467763052838
 20
203.127162957792
 30
0.0
 10
136.8773993607892
 20
202.5625775377607
 30
0.0
 10
136.8486931449553
 20
202.3289680722214
 30
0.0
  0
SPLINE
  5
270
330
1F
100
AcDbEntity
  8
0
  6
Continuous
 62
     7
370
    25
100
AcDbSpline
210
0.0
220
0.0
230
1.0
 70
     8
 71
     3
 72
     9
 73
     5
 74
     0
 42
0.00000001
 43
0.00000001
 40
0.0
 40
0.0
 40
0.0
 40
0.0
 40
0.5863847898283588
 40
1.0
 40
1.0
 40
1.0
 40
1.0
 10
137.9844282949419
 20
197.5593383087159
 30
0.0
 10
138.1705242263759
 20
197.2825157855247
 30
0.0
 10
138.4878856836684
 20
196.8104323891048
 30
0.0
 10
138.8225574391543
 20
196.3521079787874
 30
0.0
 10
138.9609827676381
 20
196.1625380314871
 30
0.0
  0
ARC
  5
271
330
1F
100
AcDbEntity
  8
0
  6
Continuous
 62
     7
370
    25
100
AcDbCircle
 10
151.5411454354
 20
203.3074723862
 30
0.0
 40
14.725
100
AcDbArc
 50
183.8102214952
 51
202.9772526207
  0
SPLINE
  5
272
330
1F
100
AcDbEntity
  8
0
  6
Continuous
 62
     7
370
    25
100
AcDbSpline
210
0.0
220
0.0
230
1.0
 70
     8
 71
     3
 72
     9
 73
     5
 74
     0
 42
0.00000001
 43
0.00000001
 40
0.0
 40
0.0
 40
0.0
 40
0.0
 40
0.5862283062032682
 40
1.0
 40
1.0
 40
1.0
 40
1.0
 10
144.929630672479
 20
216.1759786018397
 30
0.0
 10
144.618515250386
 20
216.0578752155335
 30
0.0
 10
144.0878083247721
 20
215.8564120909172
 30
0.0
 10
143.5641745361714
 20
215.6342015772708
 30
0.0
 10
143.3475096965329
 20
215.5422571566599
 30
0.0
  0
SPLINE
  5
273
330
1F
100
AcDbEntity
  8
0
  6
Continuous
 62
     7
370
    25
100
AcDbSpline
210
0.0
220
0.0
230
1.0
 70
     8
 71
     3
 72
     9
 73
     5
 74
     0
 42
0.00000001
 43
0.00000001
 40
0.0
 40
0.0
 40
0.0
 40
0.0
 40
0.5863847898283563
 40
1.0
 40
1.0
 40
1.0
 40
1.0
 10
139.784756729684
 20
212.1738667830478
 30
0.0
 10
139.6380693579778
 20
211.8742917172894
 30
0.0
 10
139.3879138726195
 20
211.3634069348821
 30
0.0
 10
139.1583291678531
 20
210.8444104875435
 30
0.0
 10
139.063369441939
 20
210.6297456628991
 30
0.0
  0
ARC
  5
274
330
1F
100
AcDbEntity
  8
0
  6
Continuous
 62
     7
370
    25
100
AcDbCircle
 10
151.5411454354
 20
203.3074723862
 30
0.0
 40
14.725
100
AcDbArc
 50
123.8102214952
 51
142.9772526207
  0
SPLINE
  5
275
330
1F
100
AcDbEntity
  8
0
  6
Continuous
 62
     7
370
    25
100
AcDbSpline
210
0.0
220
0.0
230
1.0
 70
     8
 71
     3
 72
     9
 73
     5
 74
     0
 42
0.00000001
 43
0.00000001
 40
0.0
 40
0.0
 40
0.0
 40
0.0
 40
0.5863847898283614
 40
1.0
 40
1.0
 40
1.0
 40
1.0
 10
163.2975341411468
 20
194.4410779894314
 30
0.0
 10
163.4442215128531
 20
194.7406530551899
 30
0.0
 10
163.6943769982113
 20
195.2515378375972
 30
0.0
 10
163.9239617029778
 20
195.7705342849358
 30
0.0
 10
164.018921428892
 20
195.9851991095801
 30
0.0
  0
ARC
  5
276
330
1F
100
AcDbEntity
  8
0
  6
Continuous
 62
     7
370
    25
100
AcDbCircle
 10
151.5411454354
 20
203.3074723862
 30
0.0
 40
14.72500000000002
100
AcDbArc
 50
303.8102214952
 51
322.9772526207
  0
SPLINE
  5
277
330
1F
100
AcDbEntity
  8
0
  6
Continuous
 62
     7
370
    25
100
AcDbSpline
210
0.0
220
0.0
230
1.0
 70
     8
 71
     3
 72
     9
 73
     5
 74
     0
 42
0.00000001
 43
0.00000001
 40
0.0
 40
0.0
 40
0.0
 40
0.0
 40
0.5862283062032726
 40
0.9999999999999999
 40
0.9999999999999999
 40
0.9999999999999999
 40
0.9999999999999999
 10
159.3798413454148
 20
215.4674652362384
 30
0.0
 10
159.1220031015542
 20
215.677847402127
 30
0.0
 10
158.6821774549037
 20
216.0367215193649
 30
0.0
 10
158.2279206107976
 20
216.3790964257497
 30
0.0
 10
158.0399619869931
 20
216.5207614706781
 30
0.0
  0
SPLINE
  5
278
330
1F
100
AcDbEntity
  8
0
  6
Continuous
 62
     7
370
    25
100
AcDbSpline
210
0.0
220
0.0
230
1.0
 70
     8
 71
     3
 72
     9
 73
     5
 74
     0
 42
0.00000001
 43
0.00000001
 40
0.0
 40
0.0
 40
0.0
 40
0.0
 40
0.586384789828368
 40
1.0
 40
1.0
 40
1.0
 40
1.0
 10
153.3414738701576
 20
217.9220008605715
 30
0.0
 10
153.0086905670173
 20
217.8992483180043
 30
0.0
 10
152.4411736243666
 20
217.8604469320169
 30
0.0
 10
151.8769171641142
 20
217.7997748949957
 30
0.0
 10
151.6435321097163
 20
217.7746800176516
 30
0.0
  0
ARC
  5
279
330
1F
100
AcDbEntity
  8
0
  6
Continuous
 62
     7
370
    25
100
AcDbCircle
 10
151.5411454354
 20
203.3074723862
 30
0.0
 40
14.72499999999999
100
AcDbArc
 50
63.8102214952
 51
82.9772526207
  0
SPLINE
  5
27A
330
1F
100
AcDbEntity
  8
0
  6
Continuous
 62
     7
370
    25
100
AcDbSpline
210
0.0
220
0.0
230
1.0
 70
     8
 71
     3
 72
     9
 73
     5
 74
     0
 42
0.00000001
 43
0.00000001
 40
0.0
 40
0.0
 40
0.0
 40
0.0
 40
0.5862283062032884
 40
1.0
 40
1.0
 40
1.0
 40
1.0
 10
165.9913561083513
 20
202.5989590206385
 30
0.0
 10
166.0446332865836
 20
202.9274445728332
 30
0.0
 10
166.1355145655471
 20
203.4877818146873
 30
0.0
 10
166.2048915100417
 20
204.0523672347186
 30
0.0
 10
166.2335977258756
 20
204.2859767002578
 30
0.0
  0
SPLINE
  5
27B
330
1F
100
AcDbEntity
  8
0
  6
Continuous
 62
     7
370
    25
100
AcDbSpline
210
0.0
220
0.0
230
1.0
 70
     8
 71
     3
 72
     9
 73
     5
 74
     0
 42
0.00000001
 43
0.00000001
 40
0.0
 40
0.0
 40
0.0
 40
0.0
 40
0.5863847898283552
 40
1.0
 40
1.0
 40
1.0
 40
1.0
 10
165.0978625758891
 20
209.0556064637634
 30
0.0
 10
164.911766644455
 20
209.3324289869546
 30
0.0
 10
164.5944051871625
 20
209.8045123833745
 30
0.0
 10
164.2597334316766
 20
210.2628367936919
 30
0.0
 10
164.1213081031927
 20
210.4524067409921
 30
0.0
  0
ARC
  5
27C
330
1F
100
AcDbEntity
  8
0
  6
Continuous
 62
     7
370
    25
100
AcDbCircle
 10
151.5411454354
 20
203.3074723862
 30
0.0
 40
14.72500000000003
100
AcDbArc
 50
3.8102214952
 51
22.9772526207
  0
SPLINE
  5
27D
330
1F
100
AcDbEntity
  8
0
  6
Continuous
 62
     7
370
    25
100
AcDbSpline
210
0.0
220
0.0
230
1.0
 70
    24
 71
     3
 72
    12
 73
     8
 74
     0
 42
0.00000001
 43
0.00000001
 40
0.0
 40
0.0
 40
0.0
 40
0.0
 40
0.3013828945620929
 40
0.4108442493795583
 40
0.6247185195336493
 40
0.6986171054378645
 40
1.0
 40
1.0
 40
1.0
 40
1.0
 10
143.4786032146016
 20
191.0203454729889
 30
0.0
 10
143.0120318910789
 20
191.5138388578855
 30
0.0
 10
142.3760032754759
 20
192.1865675460424
 30
0.0
 10
141.4042300486034
 20
193.2144139543053
 30
0.0
 10
140.7851575908873
 20
193.8692080817025
 30
0.0
 10
139.8690251364658
 20
194.838203138091
 30
0.0
 10
139.2880647296626
 20
195.452686076047
 30
0.0
 10
138.821504192727
 20
195.9461680519497
 30
0.0
  0
ARC
  5
27E
330
1F
100
AcDbEntity
  8
0
  6
Continuous
 62
     7
370
    25
100
AcDbCircle
 10
139.1999414051
 20
195.8553571055
 30
0.0
 40
0.3891803587963652
100
AcDbArc
 50
127.8796482479
 51
166.5062686971
  0
SPLINE
  5
27F
330
1F
100
AcDbEntity
  8
0
  6
Continuous
 62
     7
370
    25
100
AcDbSpline
210
0.0
220
0.0
230
1.0
 70
    24
 71
     3
 72
    12
 73
     8
 74
     0
 42
0.00000001
 43
0.00000001
 40
0.0
 40
0.0
 40
0.0
 40
0.0
 40
0.3013828945620972
 40
0.410844249379557
 40
0.6247185195336499
 40
0.6986171054378603
 40
0.9999999999999999
 40
0.9999999999999999
 40
0.9999999999999999
 40
0.9999999999999999
 10
166.213380592221
 20
202.4686694605556
 30
0.0
 10
166.0192884460623
 20
201.8178601492592
 30
0.0
 10
165.7547026200654
 20
200.9306788665349
 30
0.0
 10
165.3504481327574
 20
199.5751753612142
 30
0.0
 10
165.0929160130406
 20
198.7116458223502
 30
0.0
 10
164.7118079052773
 20
197.4337543153955
 30
0.0
 10
164.4701302742169
 20
196.623386375533
 30
0.0
 10
164.2760426152432
 20
195.9725921101921
 30
0.0
  0
ARC
  5
280
330
1F
100
AcDbEntity
  8
0
  6
Continuous
 62
     7
370
    25
100
AcDbCircle
 10
164.1654685956
 20
196.345733823
 30
0.0
 40
0.3891803587963979
100
AcDbArc
 50
247.8796482479
 51
286.5062686971
  0
ARC
  5
281
330
1F
100
AcDbEntity
  8
0
  6
Continuous
 62
     7
370
    25
100
AcDbCircle
 10
165.9164825037
 20
202.2170489592
 30
0.0
 40
0.3891803587984348
100
AcDbArc
 50
40.2812054189
 51
78.9078258679
  0
ARC
  5
282
330
1F
100
AcDbEntity
  8
0
  6
Continuous
 62
     7
370
    25
100
AcDbCircle
 10
137.1658083672
 20
204.3978958133
 30
0.0
 40
0.3891803588380205
100
AcDbArc
 50
220.281205421
 51
258.9078258659
  0
SPLINE
  5
283
330
1F
100
AcDbEntity
  8
0
  6
Continuous
 62
     7
370
    25
100
AcDbSpline
210
0.0
220
0.0
230
1.0
 70
    24
 71
     3
 72
    12
 73
     8
 74
     0
 42
0.00000001
 43
0.00000001
 40
0.0
 40
0.0
 40
0.0
 40
0.0
 40
0.3013828945621498
 40
0.4108442493795798
 40
0.6247185195336612
 40
0.698617105437863
 40
0.9999999999999999
 40
0.9999999999999999
 40
0.9999999999999999
 40
0.9999999999999999
 10
136.8689102786099
 20
204.1462753119237
 30
0.0
 10
137.0630024247687
 20
204.7970846232202
 30
0.0
 10
137.3275882507656
 20
205.6842659059446
 30
0.0
 10
137.7318427380736
 20
207.0397694112653
 30
0.0
 10
137.9893748577904
 20
207.9032989501292
 30
0.0
 10
138.3704829655536
 20
209.1811904570838
 30
0.0
 10
138.612160596614
 20
209.9915583969463
 30
0.0
 10
138.8062482555877
 20
210.6423526622872
 30
0.0
  0
ARC
  5
284
330
1F
100
AcDbEntity
  8
0
  6
Continuous
 62
     7
370
    25
100
AcDbCircle
 10
138.9168222752
 20
210.2692109495
 30
0.0
 40
0.3891803587963616
100
AcDbArc
 50
67.8796482479
 51
106.5062686971
  0
ARC
  5
285
330
1F
100
AcDbEntity
  8
0
  6
Continuous
 62
     7
370
    25
100
AcDbCircle
 10
145.29781129
 20
216.3020911888
 30
0.0
 40
0.3891803588381743
100
AcDbArc
 50
160.281205421
 51
198.9078258659
  0
SPLINE
  5
286
330
1F
100
AcDbEntity
  8
0
  6
Continuous
 62
     7
370
    25
100
AcDbSpline
210
0.0
220
0.0
230
1.0
 70
    24
 71
     3
 72
    12
 73
     8
 74
     0
 42
0.00000001
 43
0.00000001
 40
0.0
 40
0.0
 40
0.0
 40
0.0
 40
0.3013828945621492
 40
0.4108442493795583
 40
0.6247185195336378
 40
0.6986171054378632
 40
1.0
 40
1.0
 40
1.0
 40
1.0
 10
144.9314524994238
 20
216.4334022251744
 30
0.0
 10
145.5921159691054
 20
216.5907181515741
 30
0.0
 10
146.4927304107052
 20
216.8051707461417
 30
0.0
 10
147.8687581248857
 20
217.1328278431995
 30
0.0
 10
148.7453627023185
 20
217.3415632546662
 30
0.0
 10
150.0426032645033
 20
217.6504597052324
 30
0.0
 10
150.8652413023669
 20
217.8463447071389
 30
0.0
 10
151.5258894982761
 20
218.003656996577
 30
0.0
  0
ARC
  5
287
330
1F
100
AcDbEntity
  8
0
  6
Continuous
 62
     7
370
    25
100
AcDbCircle
 10
151.2580263056
 20
217.7213262302
 30
0.0
 40
0.3891803587968481
100
AcDbArc
 50
7.8796482479
 51
46.5062686971
  0
SPLINE
  5
288
330
1F
100
AcDbEntity
  8
0
  6
Continuous
 62
     7
370
    25
100
AcDbSpline
210
0.0
220
0.0
230
1.0
 70
    24
 71
     3
 72
    12
 73
     8
 74
     0
 42
0.00000001
 43
0.00000001
 40
0.0
 40
0.0
 40
0.0
 40
0.0
 40
0.3013828945621533
 40
0.4108442493795545
 40
0.624718519533648
 40
0.698617105437859
 40
1.0
 40
1.0
 40
1.0
 40
1.0
 10
159.6036876562293
 20
215.5945992994903
 30
0.0
 10
160.0702589797522
 20
215.1011059145935
 30
0.0
 10
160.706287595355
 20
214.4283772264368
 30
0.0
 10
161.6780608222276
 20
213.4005308181739
 30
0.0
 10
162.2971332799436
 20
212.7457366907768
 30
0.0
 10
163.2132657343651
 20
211.7767416343882
 30
0.0
 10
163.7942261411683
 20
211.1622586964322
 30
0.0
 10
164.2607866781039
 20
210.6687767205295
 30
0.0
  0
ARC
  5
289
330
1F
100
AcDbEntity
  8
0
  6
Continuous
 62
     7
370
    25
100
AcDbCircle
 10
163.8823494658
 20
210.7595876669
 30
0.0
 40
0.3891803587967055
100
AcDbArc
 50
307.8796482479
 51
346.5062686971
  0
ARC
  5
28A
330
1F
100
AcDbEntity
  8
0
  6
Continuous
 62
     7
370
    25
100
AcDbCircle
 10
159.6731483582
 20
215.2116677618
 30
0.0
 40
0.3891803587976903
100
AcDbArc
 50
100.2812054189
 51
138.9078258679
  0
LINE
  5
28B
330
1F
100
AcDbEntity
  8
0
  6
Continuous
 62
     7
370
    25
100
AcDbLine
 10
138.8062482556
 20
210.6423526623
 30
0.0
 11
139.3056110595
 21
212.3167633425
 31
0.0
  0
LINE
  5
28C
330
1F
100
AcDbEntity
  8
0
  6
Continuous
 62
     7
370
    25
100
AcDbLine
 10
139.3056110595
 20
212.3167633425
 30
0.0
 11
139.7847567297
 21
212.173866783
 31
0.0
  0
LINE
  5
28D
330
1F
100
AcDbEntity
  8
0
  6
Continuous
 62
     7
370
    25
100
AcDbLine
 10
138.8215041927
 20
195.9461680519
 30
0.0
 11
137.6211034092
 21
197.2158342659
 31
0.0
  0
LINE
  5
28E
330
1F
100
AcDbEntity
  8
0
  6
Continuous
 62
     7
370
    25
100
AcDbLine
 10
137.9844282949
 20
197.5593383087
 30
0.0
 11
137.6211034092
 21
197.2158342659
 31
0.0
  0
LINE
  5
28F
330
1F
100
AcDbEntity
  8
0
  6
Continuous
 62
     7
370
    25
100
AcDbLine
 10
151.5258894983
 20
218.0036569966
 30
0.0
 11
153.2256530857
 21
218.4084014628
 31
0.0
  0
LINE
  5
290
330
1F
100
AcDbEntity
  8
0
  6
Continuous
 62
     7
370
    25
100
AcDbLine
 10
153.2256530857
 20
218.4084014628
 30
0.0
 11
153.3414738702
 21
217.9220008606
 31
0.0
  0
LINE
  5
291
330
1F
100
AcDbEntity
  8
0
  6
Continuous
 62
     7
370
    25
100
AcDbLine
 10
164.2760426152
 20
195.9725921102
 30
0.0
 11
163.7766798114
 21
194.29818143
 31
0.0
  0
LINE
  5
292
330
1F
100
AcDbEntity
  8
0
  6
Continuous
 62
     7
370
    25
100
AcDbLine
 10
163.7766798114
 20
194.29818143
 30
0.0
 11
163.2975341411
 21
194.4410779894
 31
0.0
  0
LINE
  5
293
330
1F
100
AcDbEntity
  8
0
  6
Continuous
 62
     7
370
    25
100
AcDbLine
 10
164.2607866781
 20
210.6687767205
 30
0.0
 11
165.4611874616
 21
209.3991105066
 31
0.0
  0
LINE
  5
294
330
1F
100
AcDbEntity
  8
0
  6
Continuous
 62
     7
370
    25
100
AcDbLine
 10
165.4611874616
 20
209.3991105066
 30
0.0
 11
165.0978625759
 21
209.0556064638
 31
0.0
  0
LINE
  5
295
330
1F
100
AcDbEntity
  8
0
  6
Continuous
 62
     7
370
    25
100
AcDbLine
 10
136.848693145
 20
202.3289680722
 30
0.0
 11
136.3695474747
 21
202.4718646317
 31
0.0
  0
LINE
  5
296
330
1F
100
AcDbEntity
  8
0
  6
Continuous
 62
     7
370
    25
100
AcDbLine
 10
136.3695474747
 20
202.4718646317
 30
0.0
 11
136.8689102786
 21
204.1462753119
 31
0.0
  0
LINE
  5
297
330
1F
100
AcDbEntity
  8
0
  6
Continuous
 62
     7
370
    25
100
AcDbLine
 10
143.3475096965
 20
215.5422571567
 30
0.0
 11
143.231688912
 21
216.0286577589
 31
0.0
  0
LINE
  5
298
330
1F
100
AcDbEntity
  8
0
  6
Continuous
 62
     7
370
    25
100
AcDbLine
 10
143.231688912
 20
216.0286577589
 30
0.0
 11
144.9314524994
 21
216.4334022252
 31
0.0
  0
LINE
  5
299
330
1F
100
AcDbEntity
  8
0
  6
Continuous
 62
     7
370
    25
100
AcDbLine
 10
159.8506019588
 20
190.5862870136
 30
0.0
 11
159.4792285983
 21
190.4978562967
 31
0.0
  0
LINE
  5
29A
330
1F
100
AcDbEntity
  8
0
  6
Continuous
 62
     7
370
    25
100
AcDbLine
 10
159.8506019588
 20
190.5862870136
 30
0.0
 11
159.7347811743
 21
191.0726876158
 31
0.0
  0
LINE
  5
29B
330
1F
100
AcDbEntity
  8
0
  6
Continuous
 62
     7
370
    25
100
AcDbLine
 10
158.4032868727
 20
216.8642655135
 30
0.0
 11
159.6036876562
 21
215.5945992995
 31
0.0
  0
LINE
  5
29C
330
1F
100
AcDbEntity
  8
0
  6
Continuous
 62
     7
370
    25
100
AcDbLine
 10
158.039961987
 20
216.5207614707
 30
0.0
 11
158.4032868727
 21
216.8642655135
 31
0.0
  0
LINE
  5
29D
330
1F
100
AcDbEntity
  8
0
  6
Continuous
 62
     7
370
    25
100
AcDbLine
 10
166.7127433961
 20
204.1430801408
 30
0.0
 11
166.2133805922
 21
202.4686694606
 31
0.0
  0
LINE
  5
29E
330
1F
100
AcDbEntity
  8
0
  6
Continuous
 62
     7
370
    25
100
AcDbLine
 10
166.2335977259
 20
204.2859767003
 30
0.0
 11
166.7127433961
 21
204.1430801408
 31
0.0
  0
ARC
  5
29F
330
1F
100
AcDbEntity
  8
0
  6
Continuous
 62
     7
370
    25
100
AcDbCircle
 10
136.2997057065
 20
200.4881613019
 30
0.0
 40
0.5000000000000066
100
AcDbArc
 50
163.3937370579
 51
190.4799268165
  0
LINE
  5
2A0
330
1F
100
AcDbEntity
  8
0
  6
Continuous
 62
     7
370
    25
100
AcDbLine
 10
136.2997057065
 20
200.4881613019
 30
0.0
 11
135.8205600363
 21
200.6310578613
 31
0.0
  0
LINE
  5
2A1
330
1F
100
AcDbEntity
  8
0
  6
Continuous
 62
     7
370
    25
100
AcDbLine
 10
136.2997057065
 20
200.4881613019
 30
0.0
 11
135.8080463604
 21
200.397215783
 31
0.0
  0
LINE
  5
2A2
330
1F
100
AcDbEntity
  8
0
  6
Continuous
 62
     7
370
    25
100
AcDbLine
 10
136.6647365876
 20
198.9551787619
 30
0.0
 11
137.9844282949
 21
197.5593383087
 31
0.0
  0
LINE
  5
2A3
330
1F
100
AcDbEntity
  8
0
  6
Continuous
 62
     7
370
    25
100
AcDbLine
 10
137.6211034092
 20
197.2158342659
 30
0.0
 11
136.3014117019
 21
198.6116747191
 31
0.0
  0
LINE
  5
2A4
330
1F
100
AcDbEntity
  8
0
  6
Continuous
 62
     7
370
    25
100
AcDbLine
 10
136.6647365876
 20
198.9551787619
 30
0.0
 11
136.3014117019
 21
198.6116747191
 31
0.0
  0
LINE
  5
2A5
330
1F
100
AcDbEntity
  8
0
  6
Continuous
 62
     7
370
    25
100
AcDbLine
 10
136.848693145
 20
202.3289680722
 30
0.0
 11
136.2997057065
 21
200.4881613019
 31
0.0
  0
LINE
  5
2A6
330
1F
100
AcDbEntity
  8
0
  6
Continuous
 62
     7
370
    25
100
AcDbLine
 10
135.8205600363
 20
200.6310578613
 30
0.0
 11
136.3695474747
 21
202.4718646317
 31
0.0
  0
ARC
  5
2A7
330
1F
100
AcDbEntity
  8
0
  6
Continuous
 62
     7
370
    25
100
AcDbCircle
 10
151.5411454354
 20
203.3074723862
 30
0.0
 40
15.50000000000002
100
AcDbArc
 50
190.4799268165
 51
196.3075472994
  0
LINE
  5
2A8
330
1F
100
AcDbEntity
  8
0
  6
Continuous
 62
     7
370
    25
100
AcDbLine
 10
136.6647365876
 20
198.9551787619
 30
0.0
 11
136.1848524312
 21
198.8147821934
 31
0.0
  0
ARC
  5
2A9
330
1F
100
AcDbEntity
  8
0
  6
Continuous
 62
     7
370
    25
100
AcDbCircle
 10
151.5411454354
 20
203.3074723862
 30
0.0
 40
16.00000000000001
100
AcDbArc
 50
190.4799268165
 51
196.3075472994
  0
ARC
  5
2AA
330
1F
100
AcDbEntity
  8
0
  6
Continuous
 62
     7
370
    25
100
AcDbCircle
 10
136.6647365876
 20
198.9551787619
 30
0.0
 40
0.4999999999999811
100
AcDbArc
 50
196.3075472994
 51
223.3937370579
  0
ARC
  5
2AB
330
1F
100
AcDbEntity
  8
0
  6
Continuous
 62
     7
370
    25
100
AcDbCircle
 10
140.3337441681
 20
214.0146735534
 30
0.0
 40
0.5000000000000056
100
AcDbArc
 50
136.3075472994
 51
163.3937370579
  0
LINE
  5
2AC
330
1F
100
AcDbEntity
  8
0
  6
Continuous
 62
     7
370
    25
100
AcDbLine
 10
140.3337441681
 20
214.0146735534
 30
0.0
 11
139.972215095
 21
214.3600671394
 31
0.0
  0
LINE
  5
2AD
330
1F
100
AcDbEntity
  8
0
  6
Continuous
 62
     7
370
    25
100
AcDbLine
 10
139.8545984979
 20
214.1575701129
 30
0.0
 11
140.3337441681
 21
214.0146735534
 31
0.0
  0
LINE
  5
2AE
330
1F
100
AcDbEntity
  8
0
  6
Continuous
 62
     7
370
    25
100
AcDbLine
 10
143.3475096965
 20
215.5422571567
 30
0.0
 11
141.4788305507
 21
215.0972908395
 31
0.0
  0
LINE
  5
2AF
330
1F
100
AcDbEntity
  8
0
  6
Continuous
 62
     7
370
    25
100
AcDbLine
 10
140.3337441681
 20
214.0146735534
 30
0.0
 11
139.7847567297
 21
212.173866783
 31
0.0
  0
ARC
  5
2B0
330
1F
100
AcDbEntity
  8
0
  6
Continuous
 62
     7
370
    25
100
AcDbCircle
 10
151.5411454354
 20
203.3074723862
 30
0.0
 40
15.50000000000001
100
AcDbArc
 50
130.4799268165
 51
136.3075472994
  0
LINE
  5
2B1
330
1F
100
AcDbEntity
  8
0
  6
Continuous
 62
     7
370
    25
100
AcDbLine
 10
139.3056110595
 20
212.3167633425
 30
0.0
 11
139.8545984979
 21
214.1575701129
 31
0.0
  0
ARC
  5
2B2
330
1F
100
AcDbEntity
  8
0
  6
Continuous
 62
     7
370
    25
100
AcDbCircle
 10
141.4788305507
 20
215.0972908395
 30
0.0
 40
0.4999999999999946
100
AcDbArc
 50
103.3937370579
 51
130.4799268165
  0
LINE
  5
2B3
330
1F
100
AcDbEntity
  8
0
  6
Continuous
 62
     7
370
    25
100
AcDbLine
 10
141.4788305507
 20
215.0972908395
 30
0.0
 11
141.3630097662
 21
215.5836914418
 31
0.0
  0
LINE
  5
2B4
330
1F
100
AcDbEntity
  8
0
  6
Continuous
 62
     7
370
    25
100
AcDbLine
 10
141.4788305507
 20
215.0972908395
 30
0.0
 11
141.154239748
 21
215.4776075638
 31
0.0
  0
LINE
  5
2B5
330
1F
100
AcDbEntity
  8
0
  6
Continuous
 62
     7
370
    25
100
AcDbLine
 10
141.3630097662
 20
215.5836914418
 30
0.0
 11
143.231688912
 21
216.0286577589
 31
0.0
  0
ARC
  5
2B6
330
1F
100
AcDbEntity
  8
0
  6
Continuous
 62
     7
370
    25
100
AcDbCircle
 10
151.5411454354
 20
203.3074723862
 30
0.0
 40
16.0
100
AcDbArc
 50
130.4799268165
 51
136.3075472994
  0
ARC
  5
2B7
330
1F
100
AcDbEntity
  8
0
  6
Continuous
 62
     7
370
    25
100
AcDbCircle
 10
156.7202702796
 20
217.9166019239
 30
0.0
 40
0.5000000000000177
100
AcDbArc
 50
43.3937370579
 51
70.4799268165
  0
LINE
  5
2B8
330
1F
100
AcDbEntity
  8
0
  6
Continuous
 62
     7
370
    25
100
AcDbLine
 10
156.7202702796
 20
217.9166019239
 30
0.0
 11
157.0835951654
 21
218.2601059667
 31
0.0
  0
LINE
  5
2B9
330
1F
100
AcDbEntity
  8
0
  6
Continuous
 62
     7
370
    25
100
AcDbLine
 10
156.887338823
 20
218.387864167
 30
0.0
 11
156.7202702796
 21
217.9166019239
 31
0.0
  0
ARC
  5
2BA
330
1F
100
AcDbEntity
  8
0
  6
Continuous
 62
     7
370
    25
100
AcDbCircle
 10
151.5411454354
 20
203.3074723862
 30
0.0
 40
16.00000000000004
100
AcDbArc
 50
70.4799268165
 51
76.3075472994
  0
ARC
  5
2BB
330
1F
100
AcDbEntity
  8
0
  6
Continuous
 62
     7
370
    25
100
AcDbCircle
 10
151.5411454354
 20
203.3074723862
 30
0.0
 40
15.50000000000002
100
AcDbArc
 50
70.4799268165
 51
76.3075472994
  0
LINE
  5
2BC
330
1F
100
AcDbEntity
  8
0
  6
Continuous
 62
     7
370
    25
100
AcDbLine
 10
155.210153016
 20
218.3669671777
 30
0.0
 11
155.3285080992
 21
218.8527573323
 31
0.0
  0
ARC
  5
2BD
330
1F
100
AcDbEntity
  8
0
  6
Continuous
 62
     7
370
    25
100
AcDbCircle
 10
151.5411454354
 20
203.3074723862
 30
0.0
 40
16.00000000000002
100
AcDbArc
 50
310.4799268165
 51
316.3075472994
  0
LINE
  5
2BE
330
1F
100
AcDbEntity
  8
0
  6
Continuous
 62
     7
370
    25
100
AcDbLine
 10
161.9280511228
 20
191.1373372086
 30
0.0
 11
161.6034603201
 21
191.5176539329
 31
0.0
  0
ARC
  5
2BF
330
1F
100
AcDbEntity
  8
0
  6
Continuous
 62
     7
370
    25
100
AcDbCircle
 10
151.5411454354
 20
203.3074723862
 30
0.0
 40
15.50000000000001
100
AcDbArc
 50
310.4799268165
 51
316.3075472994
  0
LINE
  5
2C0
330
1F
100
AcDbEntity
  8
0
  6
Continuous
 62
     7
370
    25
100
AcDbLine
 10
163.1100757758
 20
192.2548776331
 30
0.0
 11
162.7485467027
 21
192.6002712191
 31
0.0
  0
LINE
  5
2C1
330
1F
100
AcDbEntity
  8
0
  6
Continuous
 62
     7
370
    25
100
AcDbLine
 10
158.039961987
 20
216.5207614707
 30
0.0
 11
156.7202702796
 21
217.9166019239
 31
0.0
  0
LINE
  5
2C2
330
1F
100
AcDbEntity
  8
0
  6
Continuous
 62
     7
370
    25
100
AcDbLine
 10
155.210153016
 20
218.3669671777
 30
0.0
 11
153.3414738702
 21
217.9220008606
 31
0.0
  0
LINE
  5
2C3
330
1F
100
AcDbEntity
  8
0
  6
Continuous
 62
     7
370
    25
100
AcDbLine
 10
161.7192811046
 20
191.0312533307
 30
0.0
 11
159.8506019588
 21
190.5862870136
 31
0.0
  0
LINE
  5
2C4
330
1F
100
AcDbEntity
  8
0
  6
Continuous
 62
     7
370
    25
100
AcDbLine
 10
159.7347811743
 20
191.0726876158
 30
0.0
 11
161.6034603201
 21
191.5176539329
 31
0.0
  0
LINE
  5
2C5
330
1F
100
AcDbEntity
  8
0
  6
Continuous
 62
     7
370
    25
100
AcDbLine
 10
161.7192811046
 20
191.0312533307
 30
0.0
 11
161.6034603201
 21
191.5176539329
 31
0.0
  0
LINE
  5
2C6
330
1F
100
AcDbEntity
  8
0
  6
Continuous
 62
     7
370
    25
100
AcDbLine
 10
157.0835951654
 20
218.2601059667
 30
0.0
 11
158.4032868727
 21
216.8642655135
 31
0.0
  0
LINE
  5
2C7
330
1F
100
AcDbEntity
  8
0
  6
Continuous
 62
     7
370
    25
100
AcDbLine
 10
153.2256530857
 20
218.4084014628
 30
0.0
 11
155.0943322315
 21
218.85336778
 31
0.0
  0
LINE
  5
2C8
330
1F
100
AcDbEntity
  8
0
  6
Continuous
 62
     7
370
    25
100
AcDbLine
 10
155.0943322315
 20
218.85336778
 30
0.0
 11
155.210153016
 21
218.3669671777
 31
0.0
  0
ARC
  5
2C9
330
1F
100
AcDbEntity
  8
0
  6
Continuous
 62
     7
370
    25
100
AcDbCircle
 10
155.210153016
 20
218.3669671777
 30
0.0
 40
0.5000000000000296
100
AcDbArc
 50
76.3075472994
 51
103.3937370579
  0
LINE
  5
2CA
330
1F
100
AcDbEntity
  8
0
  6
Continuous
 62
     7
370
    25
100
AcDbLine
 10
162.7485467027
 20
192.6002712191
 30
0.0
 11
163.2975341411
 21
194.4410779894
 31
0.0
  0
ARC
  5
2CB
330
1F
100
AcDbEntity
  8
0
  6
Continuous
 62
     7
370
    25
100
AcDbCircle
 10
161.6034603201
 20
191.5176539329
 30
0.0
 40
0.5000000000000379
100
AcDbArc
 50
283.3937370579
 51
310.4799268165
  0
LINE
  5
2CC
330
1F
100
AcDbEntity
  8
0
  6
Continuous
 62
     7
370
    25
100
AcDbLine
 10
166.2335977259
 20
204.2859767003
 30
0.0
 11
166.7825851643
 21
206.1267834706
 31
0.0
  0
LINE
  5
2CD
330
1F
100
AcDbEntity
  8
0
  6
Continuous
 62
     7
370
    25
100
AcDbLine
 10
166.4175542832
 20
207.6597660105
 30
0.0
 11
165.0978625759
 21
209.0556064638
 31
0.0
  0
ARC
  5
2CE
330
1F
100
AcDbEntity
  8
0
  6
Continuous
 62
     7
370
    25
100
AcDbCircle
 10
151.5411454354
 20
203.3074723862
 30
0.0
 40
15.50000000000001
100
AcDbArc
 50
10.4799268165
 51
16.3075472994
  0
LINE
  5
2CF
330
1F
100
AcDbEntity
  8
0
  6
Continuous
 62
     7
370
    25
100
AcDbLine
 10
163.7766798114
 20
194.29818143
 30
0.0
 11
163.2276923729
 21
192.4573746596
 31
0.0
  0
LINE
  5
2D0
330
1F
100
AcDbEntity
  8
0
  6
Continuous
 62
     7
370
    25
100
AcDbLine
 10
163.2276923729
 20
192.4573746596
 30
0.0
 11
162.7485467027
 21
192.6002712191
 31
0.0
  0
LINE
  5
2D1
330
1F
100
AcDbEntity
  8
0
  6
Continuous
 62
     7
370
    25
100
AcDbLine
 10
166.7825851643
 20
206.1267834706
 30
0.0
 11
167.2617308345
 21
205.9838869111
 31
0.0
  0
LINE
  5
2D2
330
1F
100
AcDbEntity
  8
0
  6
Continuous
 62
     7
370
    25
100
AcDbLine
 10
167.2617308345
 20
205.9838869111
 30
0.0
 11
166.7127433961
 21
204.1430801408
 31
0.0
  0
LINE
  5
2D3
330
1F
100
AcDbEntity
  8
0
  6
Continuous
 62
     7
370
    25
100
AcDbLine
 10
166.8974384396
 20
207.8001625791
 30
0.0
 11
166.4175542832
 21
207.6597660105
 31
0.0
  0
LINE
  5
2D4
330
1F
100
AcDbEntity
  8
0
  6
Continuous
 62
     7
370
    25
100
AcDbLine
 10
166.780879169
 20
208.0032700533
 30
0.0
 11
166.4175542832
 21
207.6597660105
 31
0.0
  0
ARC
  5
2D5
330
1F
100
AcDbEntity
  8
0
  6
Continuous
 62
     7
370
    25
100
AcDbCircle
 10
166.4175542832
 20
207.6597660105
 30
0.0
 40
0.5000000000000006
100
AcDbArc
 50
16.3075472994
 51
43.3937370579
  0
ARC
  5
2D6
330
1F
100
AcDbEntity
  8
0
  6
Continuous
 62
     7
370
    25
100
AcDbCircle
 10
151.5411454354
 20
203.3074723862
 30
0.0
 40
16.00000000000001
100
AcDbArc
 50
10.4799268165
 51
16.3075472994
  0
LINE
  5
2D7
330
1F
100
AcDbEntity
  8
0
  6
Continuous
 62
     7
370
    25
100
AcDbLine
 10
167.2742445104
 20
206.2177289895
 30
0.0
 11
166.7825851643
 21
206.1267834706
 31
0.0
  0
ARC
  5
2D8
330
1F
100
AcDbEntity
  8
0
  6
Continuous
 62
     7
370
    25
100
AcDbCircle
 10
162.7485467027
 20
192.6002712191
 30
0.0
 40
0.5000000000000137
100
AcDbArc
 50
316.3075472994
 51
343.3937370579
  0
ARC
  5
2D9
330
1F
100
AcDbEntity
  8
0
  6
Continuous
 62
     7
370
    25
100
AcDbCircle
 10
166.7825851643
 20
206.1267834706
 30
0.0
 40
0.5000000000000137
100
AcDbArc
 50
343.3937370579
 51
10.4799268165
  0
LINE
  5
2DA
330
1F
100
AcDbEntity
  8
0
  6
Continuous
 62
     7
370
    25
100
AcDbLine
 10
165.4611874616
 20
209.3991105066
 30
0.0
 11
166.780879169
 21
208.0032700533
 31
0.0
  0
ARC
  5
2DB
330
1F
100
AcDbEntity
  8
0
  6
Continuous
 62
     7
370
    25
100
AcDbCircle
 10
151.5411454354
 20
203.3074723862
 30
0.0
 40
8.050000000000018
100
AcDbArc
 50
349.0921683084
 51
191.2482012006
  0
ARC
  5
2DC
330
1F
100
AcDbEntity
  8
0
  6
Continuous
 62
     7
370
    25
100
AcDbCircle
 10
151.5411454354
 20
203.3074723862
 30
0.0
 40
8.250000000000002
100
AcDbArc
 50
343.4210588908
 51
196.9193106183
  0
ARC
  5
2DD
330
1F
100
AcDbEntity
  8
0
  6
Continuous
 62
     7
370
    25
100
AcDbCircle
 10
151.5411454354
 20
203.3074723862
 30
0.0
 40
9.574999999999996
100
AcDbArc
 50
325.7652944393
 51
215.5640833096
  0
ARC
  5
2DE
330
1F
100
AcDbEntity
  8
0
  6
Continuous
 62
     7
370
    25
100
AcDbCircle
 10
152.4470808157
 20
-101.69118217
 30
0.0
 40
7.900000000000043
100
AcDbArc
 50
180.1701847545
 51
0.1701847545
  0
ARC
  5
2DF
330
1F
100
AcDbEntity
  8
0
  6
Continuous
 62
     7
370
    25
100
AcDbCircle
 10
152.4470808157
 20
-101.69118217
 30
0.0
 40
10.82499999999995
100
AcDbArc
 50
137.0391566566
 51
180.1701847545
  0
ARC
  5
2E0
330
1F
100
AcDbEntity
  8
0
  6
Continuous
 62
     7
370
    25
100
AcDbCircle
 10
152.4470808157
 20
-101.69118217
 30
0.0
 40
10.82499999999998
100
AcDbArc
 50
180.1701847545
 51
43.3012128524
  0
ARC
  5
2E1
330
1F
100
AcDbEntity
  8
0
  6
Continuous
 62
     7
370
    25
100
AcDbCircle
 10
151.5411454354
 20
203.3074723862
 30
0.0
 40
7.900000000000015
100
AcDbArc
 50
0.1701847545
 51
180.1701847545
  0
SPLINE
  5
2E2
330
1F
100
AcDbEntity
  8
0
  6
Continuous
 62
     7
370
    25
100
AcDbSpline
210
0.0
220
0.0
230
1.0
 70
     8
 71
     3
 72
     9
 73
     5
 74
     0
 42
0.00000001
 43
0.00000001
 40
0.0
 40
0.0
 40
0.0
 40
0.0
 40
0.8027847135059467
 40
1.0
 40
1.0
 40
1.0
 40
1.0
 10
155.5726673599956
 20
210.0240473594157
 30
0.0
 10
156.189688848428
 20
209.6295447008102
 30
0.0
 10
156.9582902904482
 20
209.1381269496144
 30
0.0
 10
157.5404673367918
 20
208.4465877066293
 30
0.0
 10
157.6552815497768
 20
208.3102055967021
 30
0.0
  0
LINE
  5
2E3
330
1F
100
AcDbEntity
  8
0
  6
Continuous
 62
     8
370
    25
100
AcDbLine
 10
243.4461504249
 20
197.3823446151
 30
0.0
 11
243.4461504249
 21
209.2326001574
 31
0.0
  0
LINE
  5
2E4
330
1F
100
AcDbEntity
  8
0
  6
Continuous
 62
     8
370
    25
100
AcDbLine
 10
244.2005146398
 20
205.6797641705
 30
0.0
 11
244.2005146398
 21
199.11003902
 31
0.0
  0
LINE
  5
2E5
330
1F
100
AcDbEntity
  8
0
  6
Continuous
 62
     8
370
    25
100
AcDbLine
 10
244.2005146398
 20
207.5049057525
 30
0.0
 11
244.2005146398
 21
205.6797641705
 31
0.0
  0
LINE
  5
2E6
330
1F
100
AcDbEntity
  8
0
  6
Continuous
 62
     8
370
    25
100
AcDbLine
 10
244.7382653635
 20
204.5654429124
 30
0.0
 11
244.9611672371
 21
204.5654429124
 31
0.0
  0
LINE
  5
2E7
330
1F
100
AcDbEntity
  8
0
  6
Continuous
 62
     8
370
    25
100
AcDbLine
 10
244.9611672371
 20
201.8546570515
 30
0.0
 11
244.8227255394
 21
201.8546570515
 31
0.0
  0
LINE
  5
2E8
330
1F
100
AcDbEntity
  8
0
  6
Continuous
 62
     8
370
    25
100
AcDbLine
 10
244.806924315
 20
204.0820756107
 30
0.0
 11
244.9611672371
 21
204.0820756107
 31
0.0
  0
LINE
  5
2E9
330
1F
100
AcDbEntity
  8
0
  6
Continuous
 62
     8
370
    25
100
AcDbLine
 10
58.8817762311
 20
205.6797641705
 30
0.0
 11
58.8817762311
 21
207.5049057525
 31
0.0
  0
LINE
  5
2EA
330
1F
100
AcDbEntity
  8
0
  6
Continuous
 62
     8
370
    25
100
AcDbLine
 10
58.8817762311
 20
199.11003902
 30
0.0
 11
58.8817762311
 21
205.6797641705
 31
0.0
  0
LINE
  5
2EB
330
1F
100
AcDbEntity
  8
0
  6
Continuous
 62
     8
370
    25
100
AcDbLine
 10
58.1211236337
 20
204.5654429124
 30
0.0
 11
58.3440255074
 21
204.5654429124
 31
0.0
  0
LINE
  5
2EC
330
1F
100
AcDbEntity
  8
0
  6
Continuous
 62
     8
370
    25
100
AcDbLine
 10
58.2595653314
 20
201.8546570515
 30
0.0
 11
58.1211236337
 21
201.8546570515
 31
0.0
  0
LINE
  5
2ED
330
1F
100
AcDbEntity
  8
0
  6
Continuous
 62
     8
370
    25
100
AcDbLine
 10
58.1211236337
 20
204.0820756107
 30
0.0
 11
58.2753665559
 21
204.0820756107
 31
0.0
  0
LINE
  5
2EE
330
1F
100
AcDbEntity
  8
0
  6
Continuous
 62
     8
370
    25
100
AcDbLine
 10
59.6361404459
 20
197.7969478387
 30
0.0
 11
59.6361404459
 21
197.3823446151
 31
0.0
  0
LINE
  5
2EF
330
1F
100
AcDbEntity
  8
0
  6
Continuous
 62
     8
370
    25
100
AcDbLine
 10
59.6361404459
 20
209.2326001574
 30
0.0
 11
59.6361404459
 21
197.7969478387
 31
0.0
  0
LINE
  5
2F0
330
1F
100
AcDbEntity
  8
0
  6
Continuous
 62
     8
370
    25
100
AcDbLine
 10
66.1031014783
 20
211.453063732
 30
0.0
 11
66.1031014783
 21
212.2831304305
 31
0.0
  0
LINE
  5
2F1
330
1F
100
AcDbEntity
  8
0
  6
Continuous
 62
     8
370
    25
100
AcDbLine
 10
67.0365216922
 20
194.3155214316
 30
0.0
 11
67.0365216922
 21
195.1514749698
 31
0.0
  0
LINE
  5
2F2
330
1F
100
AcDbEntity
  8
0
  6
Continuous
 62
     8
370
    25
100
AcDbLine
 10
61.7324192322
 20
212.2068398881
 30
0.0
 11
61.7324192322
 21
194.4081048844
 31
0.0
  0
ARC
  5
2F3
330
1F
100
AcDbEntity
  8
0
  6
Continuous
 62
     8
370
    25
100
AcDbCircle
 10
71.5763039219
 20
193.6738366476
 30
0.0
 40
1.997193254156797
100
AcDbArc
 50
201.0122086051
 51
269.4244113789
  0
SPLINE
  5
2F4
330
1F
100
AcDbEntity
  8
0
  6
Continuous
 62
     8
370
    25
100
AcDbSpline
210
0.0
220
0.0
230
1.0
 70
     8
 71
     3
 72
    11
 73
     7
 74
     0
 42
0.00000001
 43
0.00000001
 40
0.0
 40
0.0
 40
0.0
 40
0.0
 40
0.2826501073666257
 40
0.8581489095904484
 40
0.8613649112870391
 40
1.0
 40
1.0
 40
1.0
 40
1.0
 10
68.33202802136611
 20
193.9775734147317
 30
0.0
 10
68.21975862455656
 20
194.0385009164806
 30
0.0
 10
67.87889952724322
 20
194.2234818092071
 30
0.0
 10
67.50104554972606
 20
194.6205131791358
 30
0.0
 10
67.19066645637653
 20
194.9947087832399
 30
0.0
 10
67.12916396164526
 20
195.0736937163963
 30
0.0
 10
67.06905583143266
 20
195.1508879288872
 30
0.0
  0
SPLINE
  5
2F5
330
1F
100
AcDbEntity
  8
0
  6
Continuous
 62
     8
370
    25
100
AcDbSpline
210
0.0
220
0.0
230
1.0
 70
     8
 71
     3
 72
     9
 73
     5
 74
     0
 42
0.00000001
 43
0.00000001
 40
0.0
 40
0.0
 40
0.0
 40
0.0
 40
0.3530215453708971
 40
1.0
 40
1.0
 40
1.0
 40
1.0
 10
66.1477078114492
 20
211.45387034906
 30
0.0
 10
66.3398053237835
 20
211.6471813544202
 30
0.0
 10
66.88395769876804
 20
212.1947711768971
 30
0.0
 10
67.4041949385758
 20
212.4989927410566
 30
0.0
 10
67.74077722402713
 20
212.6958175385013
 30
0.0
  0
ARC
  5
2F6
330
1F
100
AcDbEntity
  8
0
  6
Continuous
 62
     8
370
    25
100
AcDbCircle
 10
71.4706178456
 20
213.0487250088
 30
0.0
 40
1.935629434209638
100
AcDbArc
 50
89.1328601458
 51
155.5788705464
  0
ARC
  5
2F7
330
1F
100
AcDbEntity
  8
0
  6
Continuous
 62
     8
370
    25
100
AcDbCircle
 10
71.5764898884
 20
193.6258568407
 30
0.0
 40
1.996106121819957
100
AcDbArc
 50
199.5637302954
 51
269.4187596751
  0
LINE
  5
2F8
330
1F
100
AcDbEntity
  8
0
  6
Continuous
 62
     8
370
    25
100
AcDbLine
 10
75.5824192322
 20
191.3356589239
 30
0.0
 11
75.5824192322
 21
191.561338473
 31
0.0
  0
LINE
  5
2F9
330
1F
100
AcDbEntity
  8
0
  6
Continuous
 62
     8
370
    25
100
AcDbLine
 10
75.5824192322
 20
215.0536062995
 30
0.0
 11
75.5824192322
 21
215.2792858485
 31
0.0
  0
LINE
  5
2FA
330
1F
100
AcDbEntity
  8
0
  6
Continuous
 62
     8
370
    25
100
AcDbLine
 10
71.5562406225
 20
191.6298534296
 30
0.0
 11
71.5562406225
 21
191.405936133
 31
0.0
  0
LINE
  5
2FB
330
1F
100
AcDbEntity
  8
0
  6
Continuous
 62
     8
370
    25
100
AcDbLine
 10
71.5562406225
 20
215.2090086395
 30
0.0
 11
71.5562406225
 21
215.1924198332
 31
0.0
  0
ARC
  5
2FC
330
1F
100
AcDbEntity
  8
0
  6
Continuous
 62
     8
370
    25
100
AcDbCircle
 10
71.590220983
 20
213.1924962044
 30
0.0
 40
2.000212285190878
100
AcDbArc
 50
90.9734091321
 51
152.2807513659
  0
LINE
  5
2FD
330
1F
100
AcDbEntity
  8
0
  6
Continuous
 62
     8
370
    25
100
AcDbLine
 10
236.9791893926
 20
195.4073023293
 30
0.0
 11
236.9791893926
 21
194.5772356308
 31
0.0
  0
LINE
  5
2FE
330
1F
100
AcDbEntity
  8
0
  6
Continuous
 62
     8
370
    25
100
AcDbLine
 10
236.0457691787
 20
212.5448446297
 30
0.0
 11
236.0457691787
 21
211.7088910915
 31
0.0
  0
LINE
  5
2FF
330
1F
100
AcDbEntity
  8
0
  6
Continuous
 62
     8
370
    25
100
AcDbLine
 10
241.3498716386
 20
194.6535261732
 30
0.0
 11
241.3498716386
 21
212.4522611769
 31
0.0
  0
ARC
  5
300
330
1F
100
AcDbEntity
  8
0
  6
Continuous
 62
     8
370
    25
100
AcDbCircle
 10
231.5059869489
 20
213.1865294137
 30
0.0
 40
1.997193254156763
100
AcDbArc
 50
21.0122086051
 51
89.4244113789
  0
SPLINE
  5
301
330
1F
100
AcDbEntity
  8
0
  6
Continuous
 62
     8
370
    25
100
AcDbSpline
210
0.0
220
0.0
230
1.0
 70
     8
 71
     3
 72
    11
 73
     7
 74
     0
 42
0.00000001
 43
0.00000001
 40
0.0
 40
0.0
 40
0.0
 40
0.0
 40
0.2826501073666252
 40
0.8581489095904481
 40
0.8613649112870386
 40
1.0
 40
1.0
 40
1.0
 40
1.0
 10
234.7502628494646
 20
212.8827926465759
 30
0.0
 10
234.8625322462742
 20
212.8218651448268
 30
0.0
 10
235.2033913435874
 20
212.6368842520999
 30
0.0
 10
235.5812453211052
 20
212.2398528821748
 30
0.0
 10
235.8916244144541
 20
211.8656572780669
 30
0.0
 10
235.9531269091854
 20
211.7866723449108
 30
0.0
 10
236.0132350393981
 20
211.7094781324204
 30
0.0
  0
SPLINE
  5
302
330
1F
100
AcDbEntity
  8
0
  6
Continuous
 62
     8
370
    25
100
AcDbSpline
210
0.0
220
0.0
230
1.0
 70
     8
 71
     3
 72
     9
 73
     5
 74
     0
 42
0.00000001
 43
0.00000001
 40
0.0
 40
0.0
 40
0.0
 40
0.0
 40
0.3530215453708969
 40
1.0
 40
1.0
 40
1.0
 40
1.0
 10
236.9345830593815
 20
195.4064957122476
 30
0.0
 10
236.7424855470473
 20
195.2131847068874
 30
0.0
 10
236.1983331720627
 20
194.6655948844105
 30
0.0
 10
235.6780959322549
 20
194.361373320251
 30
0.0
 10
235.3415136468036
 20
194.1645485228062
 30
0.0
  0
ARC
  5
303
330
1F
100
AcDbEntity
  8
0
  6
Continuous
 62
     8
370
    25
100
AcDbCircle
 10
231.6116730253
 20
193.8116410525
 30
0.0
 40
1.935629434209512
100
AcDbArc
 50
269.1328601458
 51
335.5788705465
  0
ARC
  5
304
330
1F
100
AcDbEntity
  8
0
  6
Continuous
 62
     8
370
    25
100
AcDbCircle
 10
231.5058009825
 20
213.2345092206
 30
0.0
 40
1.996106121819842
100
AcDbArc
 50
19.5637302954
 51
89.4187596751
  0
LINE
  5
305
330
1F
100
AcDbEntity
  8
0
  6
Continuous
 62
     8
370
    25
100
AcDbLine
 10
227.4998716386
 20
215.5247071374
 30
0.0
 11
227.4998716386
 21
215.2990275883
 31
0.0
  0
LINE
  5
306
330
1F
100
AcDbEntity
  8
0
  6
Continuous
 62
     8
370
    25
100
AcDbLine
 10
227.4998716386
 20
191.8067597618
 30
0.0
 11
227.4998716386
 21
191.5810802128
 31
0.0
  0
LINE
  5
307
330
1F
100
AcDbEntity
  8
0
  6
Continuous
 62
     8
370
    25
100
AcDbLine
 10
231.5260502483
 20
191.6513574218
 30
0.0
 11
231.5260502483
 21
191.6679462281
 31
0.0
  0
LINE
  5
308
330
1F
100
AcDbEntity
  8
0
  6
Continuous
 62
     8
370
    25
100
AcDbLine
 10
231.5260502483
 20
215.2305126317
 30
0.0
 11
231.5260502483
 21
215.4544299283
 31
0.0
  0
ARC
  5
309
330
1F
100
AcDbEntity
  8
0
  6
Continuous
 62
     8
370
    25
100
AcDbCircle
 10
231.4920698878
 20
193.6678698569
 30
0.0
 40
2.000212285190779
100
AcDbArc
 50
270.9734091321
 51
332.2807513659
  0
SPLINE
  5
30A
330
1F
100
AcDbEntity
  8
0
  6
Continuous
 62
     8
370
    25
100
AcDbSpline
210
0.0
220
0.0
230
1.0
 70
     8
 71
     3
 72
     9
 73
     5
 74
     0
 42
0.00000001
 43
0.00000001
 40
0.0
 40
0.0
 40
0.0
 40
0.0
 40
0.0773535550223864
 40
1.0
 40
1.0
 40
1.0
 40
1.0
 10
140.3246954865843
 20
194.0689935580476
 30
0.0
 10
140.3064280943943
 20
194.0915720055834
 30
0.0
 10
140.0702735674995
 20
194.3834583646425
 30
0.0
 10
139.8847075291936
 20
194.7055397207844
 30
0.0
 10
139.7134956836421
 20
195.0027069390224
 30
0.0
  0
SPLINE
  5
30B
330
1F
100
AcDbEntity
  8
0
  6
Continuous
 62
     8
370
    25
100
AcDbSpline
210
0.0
220
0.0
230
1.0
 70
     8
 71
     3
 72
     9
 73
     5
 74
     0
 42
0.00000001
 43
0.00000001
 40
0.0
 40
0.0
 40
0.0
 40
0.0
 40
0.3142534279203384
 40
1.0
 40
1.0
 40
1.0
 40
1.0
 10
137.3286747450528
 20
205.687909023983
 30
0.0
 10
137.3733048870334
 20
206.0197465149986
 30
0.0
 10
137.5153244738235
 20
207.0757015548899
 30
0.0
 10
137.861472856629
 20
208.0340744040626
 30
0.0
 10
138.0988429235688
 20
208.691275300157
 30
0.0
  0
SPLINE
  5
30C
330
1F
100
AcDbEntity
  8
0
  6
Continuous
 62
     8
370
    25
100
AcDbSpline
210
0.0
220
0.0
230
1.0
 70
     8
 71
     3
 72
     9
 73
     5
 74
     0
 42
0.00000001
 43
0.00000001
 40
0.0
 40
0.0
 40
0.0
 40
0.0
 40
0.641922583594537
 40
0.9999999999999999
 40
0.9999999999999999
 40
0.9999999999999999
 40
0.9999999999999999
 10
138.0988429235688
 20
208.691275300157
 30
0.0
 10
138.1546332222233
 20
208.8514700659119
 30
0.0
 10
138.2415444792506
 20
209.1010247160346
 30
0.0
 10
138.386556785301
 20
209.3279442759011
 30
0.0
 10
138.4384824171985
 20
209.4091990456299
 30
0.0
  0
SPLINE
  5
30D
330
1F
100
AcDbEntity
  8
0
  6
Continuous
 62
     8
370
    25
100
AcDbSpline
210
0.0
220
0.0
230
1.0
 70
     8
 71
     3
 72
    10
 73
     6
 74
     0
 42
0.00000001
 43
0.00000001
 40
0.0
 40
0.0
 40
0.0
 40
0.0
 40
0.2828635036210195
 40
0.6380941432653132
 40
1.0
 40
1.0
 40
1.0
 40
1.0
 10
145.9680750506342
 20
216.680240811617
 30
0.0
 10
146.4372724036113
 20
216.9179595266884
 30
0.0
 10
147.4957054610317
 20
217.4542143559253
 30
0.0
 10
149.3079348701244
 20
217.8284688343468
 30
0.0
 10
150.5560265368671
 20
217.9352495699198
 30
0.0
 10
151.1858810850831
 20
217.9891369034823
 30
0.0
  0
SPLINE
  5
30E
330
1F
100
AcDbEntity
  8
0
  6
Continuous
 62
     8
370
    25
100
AcDbSpline
210
0.0
220
0.0
230
1.0
 70
     8
 71
     3
 72
     9
 73
     5
 74
     0
 42
0.00000001
 43
0.00000001
 40
0.0
 40
0.0
 40
0.0
 40
0.0
 40
0.6330670569873577
 40
1.0
 40
1.0
 40
1.0
 40
1.0
 10
151.5431476199354
 20
217.9970851463193
 30
0.0
 10
151.4633045962622
 20
217.9964329468276
 30
0.0
 10
151.3371836383132
 20
217.9954027250135
 30
0.0
 10
151.2264960189947
 20
217.9908188706532
 30
0.0
 10
151.1858810850831
 20
217.9891369034823
 30
0.0
  0
SPLINE
  5
30F
330
1F
100
AcDbEntity
  8
0
  6
Continuous
 62
     8
370
    25
100
AcDbSpline
210
0.0
220
0.0
230
1.0
 70
     8
 71
     3
 72
     9
 73
     5
 74
     0
 42
0.00000001
 43
0.00000001
 40
0.0
 40
0.0
 40
0.0
 40
0.0
 40
0.6811717280133059
 40
0.9999999999999999
 40
0.9999999999999999
 40
0.9999999999999999
 40
0.9999999999999999
 10
162.7575953842465
 20
212.5459512144316
 30
0.0
 10
162.235839746048
 20
213.1579837391789
 30
0.0
 10
161.4698719045462
 20
214.0564833385859
 30
0.0
 10
160.5189606390115
 20
214.7318565481175
 30
0.0
 10
160.2157832434084
 20
214.9471846214585
 30
0.0
  0
LINE
  5
310
330
1F
100
AcDbEntity
  8
0
  6
Continuous
 62
     8
370
    25
100
AcDbLine
 10
163.232157024
 20
211.756760281
 30
0.0
 11
162.7575953842
 21
212.5459512144
 31
0.0
  0
LINE
  5
311
330
1F
100
AcDbEntity
  8
0
  6
Continuous
 62
     8
370
    25
100
AcDbLine
 10
164.6030825115
 20
197.0691877936
 30
0.0
 11
164.9834479473
 21
197.9236694723
 31
0.0
  0
SPLINE
  5
312
330
1F
100
AcDbEntity
  8
0
  6
Continuous
 62
     8
370
    25
100
AcDbSpline
210
0.0
220
0.0
230
1.0
 70
     8
 71
     3
 72
    12
 73
     8
 74
     0
 42
0.00000001
 43
0.00000001
 40
0.0
 40
0.0
 40
0.0
 40
0.0
 40
0.1254318315789705
 40
0.6742703338162307
 40
0.9470765684950807
 40
0.9811089923874697
 40
1.0
 40
1.0
 40
1.0
 40
1.0
 10
143.6774492367378
 20
191.0734435518642
 30
0.0
 10
143.5152029893172
 20
191.1675458221683
 30
0.0
 10
142.6430333810796
 20
191.6734012211694
 30
0.0
 10
141.5832450860736
 20
192.6564007845206
 30
0.0
 10
140.7070675586922
 20
193.6044778153298
 30
0.0
 10
140.3931358500156
 20
193.9845505673521
 30
0.0
 10
140.3426989332793
 20
194.0467805713606
 30
0.0
 10
140.3246954865843
 20
194.0689935580476
 30
0.0
  0
ARC
  5
313
330
1F
100
AcDbEntity
  8
0
  6
Continuous
 62
     8
370
    25
100
AcDbCircle
 10
137.1239109952
 20
182.8215110182
 30
0.0
 40
15.56632358478908
100
AcDbArc
 50
92.208763631
 51
105.1370153966
  0
ARC
  5
314
330
1F
100
AcDbEntity
  8
0
  6
Continuous
 62
     8
370
    25
100
AcDbCircle
 10
165.9583798756
 20
223.7934337542
 30
0.0
 40
15.56632358474937
100
AcDbArc
 50
272.208763631
 51
285.1370153966
  0
LWPOLYLINE
  5
315
330
1F
100
AcDbEntity
  8
0
  6
Continuous
 62
     8
370
    25
100
AcDbPolyline
 90
        3
 70
   128
 43
0.0
 10
139.384992817
 20
212.5829378785
 10
139.3668642616
 20
212.5887471013
 10
139.1544542871
 20
212.66282449
  0
LWPOLYLINE
  5
316
330
1F
100
AcDbEntity
  8
0
  6
Continuous
 62
     8
370
    25
100
AcDbPolyline
 90
        3
 70
   128
 43
0.0
 10
163.9278365837
 20
193.9521202825
 10
163.7154266092
 20
194.0261976712
 10
163.6972980538
 20
194.0320068939
  0
SPLINE
  5
317
330
1F
100
AcDbEntity
  8
0
  6
Continuous
 62
     8
370
    25
100
AcDbSpline
210
0.0
220
0.0
230
1.0
 70
     8
 71
     3
 72
    10
 73
     6
 74
     0
 42
0.00000001
 43
0.00000001
 40
0.0
 40
0.0
 40
0.0
 40
0.0
 40
0.358759097311273
 40
0.7289595297368234
 40
0.9999999999999999
 40
0.9999999999999999
 40
0.9999999999999999
 40
0.9999999999999999
 10
150.9441210096852
 20
218.0346792041346
 30
0.0
 10
150.1590207849994
 20
217.9714303336655
 30
0.0
 10
148.5637823788588
 20
217.8429154967761
 30
0.0
 10
146.3470409000608
 20
217.3441370865201
 30
0.0
 10
145.0807962808493
 20
216.6393984221968
 30
0.0
 10
144.5455784935555
 20
216.3415186422422
 30
0.0
  0
LINE
  5
318
330
1F
100
AcDbEntity
  8
0
  6
Continuous
 62
     8
370
    25
100
AcDbLine
 10
139.4938354087
 20
212.9478973761
 30
0.0
 11
139.1544542871
 21
212.66282449
 31
0.0
  0
SPLINE
  5
319
330
1F
100
AcDbEntity
  8
0
  6
Continuous
 62
     8
370
    25
100
AcDbSpline
210
0.0
220
0.0
230
1.0
 70
     8
 71
     3
 72
     9
 73
     5
 74
     0
 42
0.00000001
 43
0.00000001
 40
0.0
 40
0.0
 40
0.0
 40
0.0
 40
0.357500315768378
 40
1.0
 40
1.0
 40
1.0
 40
1.0
 10
159.2271898501897
 20
215.9928217519674
 30
0.0
 10
159.8579876919596
 20
215.7059626257748
 30
0.0
 10
161.6224556209297
 20
214.9035601843225
 30
0.0
 10
163.0260363856117
 20
213.5393372771069
 30
0.0
 10
163.9278365837135
 20
212.6628244899993
 30
0.0
  0
SPLINE
  5
31A
330
1F
100
AcDbEntity
  8
0
  6
Continuous
 62
     8
370
    25
100
AcDbSpline
210
0.0
220
0.0
230
1.0
 70
     8
 71
     3
 72
    10
 73
     6
 74
     0
 42
0.00000001
 43
0.00000001
 40
0.0
 40
0.0
 40
0.0
 40
0.0
 40
0.4412172938442233
 40
0.8909877952022023
 40
1.0
 40
1.0
 40
1.0
 40
1.0
 10
139.1544542871173
 20
193.9521202824799
 30
0.0
 10
139.7644535764887
 20
193.3856519441202
 30
0.0
 10
140.9962772821656
 20
192.2417340086977
 30
0.0
 10
142.5338669762863
 20
191.1064023659258
 30
0.0
 10
143.4919810208727
 20
190.6706191933223
 30
0.0
 10
143.6788982666956
 20
190.585602810503
 30
0.0
  0
LINE
  5
31B
330
1F
100
AcDbEntity
  8
0
  6
Continuous
 62
     8
370
    25
100
AcDbLine
 10
163.9278365837
 20
193.9521202825
 30
0.0
 11
163.5809511416
 21
193.6418847002
 31
0.0
  0
LINE
  5
31C
330
1F
100
AcDbEntity
  8
0
  6
Continuous
 62
     8
370
    25
100
AcDbLine
 10
163.9278365837
 20
193.9521202825
 30
0.0
 11
163.4874707426
 21
193.3284360868
 31
0.0
  0
ARC
  5
31D
330
1F
100
AcDbEntity
  8
0
  6
Continuous
 62
     8
370
    25
100
AcDbCircle
 10
153.4763601639
 20
200.3543440201
 30
0.0
 40
12.18845010999256
100
AcDbArc
 50
299.5173717552
 51
309.1350639008
  0
ARC
  5
31E
330
1F
100
AcDbEntity
  8
0
  6
Continuous
 62
     8
370
    25
100
AcDbCircle
 10
150.0870341771
 20
201.0628863666
 30
0.0
 40
13.04163706573208
100
AcDbArc
 50
213.0407718554
 51
240.5832322453
  0
LINE
  5
31F
330
1F
100
AcDbEntity
  8
0
  6
Continuous
 62
     8
370
    25
100
AcDbLine
 10
139.1544542871
 20
212.66282449
 30
0.0
 11
139.5948201283
 21
213.2865086857
 31
0.0
  0
ARC
  5
320
330
1F
100
AcDbEntity
  8
0
  6
Continuous
 62
     8
370
    25
100
AcDbCircle
 10
149.0995961023
 20
207.0549921973
 30
0.0
 40
11.25322320145857
100
AcDbArc
 50
90.6584148711
 51
129.6881977018
  0
ARC
  5
321
330
1F
100
AcDbEntity
  8
0
  6
Continuous
 62
     8
370
    25
100
AcDbCircle
 10
153.2909732832
 20
205.8341029032
 30
0.0
 40
12.64018589195581
100
AcDbArc
 50
32.6999111742
 51
70.0907913412
  0
LINE
  5
322
330
1F
100
AcDbEntity
  8
0
  6
Continuous
 62
     8
370
    25
100
AcDbLine
 10
151.5869029848
 20
218.320699542
 30
0.0
 11
152.471508996
 21
218.2288261093
 31
0.0
  0
ARC
  5
323
330
1F
100
AcDbEntity
  8
0
  6
Continuous
 62
     8
370
    25
100
AcDbCircle
 10
151.5411454354
 20
203.3074723862
 30
0.0
 40
15.79423749544208
100
AcDbArc
 50
78.2700704922
 51
108.2473766402
  0
LWPOLYLINE
  5
324
330
1F
100
AcDbEntity
  8
0
  6
Continuous
 62
     8
370
    25
100
AcDbPolyline
 90
        3
 70
   128
 43
0.0
 10
143.6906918285
 20
186.6150983364
 10
141.7661102253
 20
187.6641460169
 10
140.8049928072
 20
188.3074723862
  0
ARC
  5
325
330
1F
100
AcDbEntity
  8
0
  6
Continuous
 62
     8
370
    25
100
AcDbCircle
 10
151.5411454354
 20
203.3074723862
 30
0.0
 40
18.44627261143964
100
AcDbArc
 50
54.407052935
 51
125.592947065
  0
LWPOLYLINE
  5
326
330
1F
100
AcDbEntity
  8
0
  6
Continuous
 62
     8
370
    25
100
AcDbPolyline
 90
        3
 70
   128
 43
0.0
 10
162.2772980636
 20
188.3074723862
 10
161.3161806455
 20
187.6641460169
 10
159.4906221301
 20
186.6620287593
  0
ARC
  5
327
330
1F
100
AcDbEntity
  8
0
  6
Continuous
 62
     8
370
    25
100
AcDbCircle
 10
151.5411454354
 20
203.3074723862
 30
0.0
 40
27.18743161379873
100
AcDbArc
 50
287.0625948779
 51
326.5145280392
  0
ARC
  5
328
330
1F
100
AcDbEntity
  8
0
  6
Continuous
 62
     8
370
    25
100
AcDbCircle
 10
151.5411454354
 20
203.3074723862
 30
0.0
 40
27.18743161379873
100
AcDbArc
 50
33.4854719608
 51
146.5145280392
  0
ARC
  5
329
330
1F
100
AcDbEntity
  8
0
  6
Continuous
 62
     8
370
    25
100
AcDbCircle
 10
151.5411454354
 20
203.3074723862
 30
0.0
 40
27.18743161379871
100
AcDbArc
 50
213.4854719608
 51
253.2777746311
  0
LINE
  5
32A
330
1F
100
AcDbEntity
  8
0
  6
Continuous
 62
     8
370
    25
100
AcDbLine
 10
143.5044451123
 20
195.7092065913
 30
0.0
 11
143.664171133
 21
195.5437444792
 31
0.0
  0
ARC
  5
32B
330
1F
100
AcDbEntity
  8
0
  6
Continuous
 62
     8
370
    25
100
AcDbCircle
 10
151.5411454354
 20
203.3074723862
 30
0.0
 40
11.05993649053895
100
AcDbArc
 50
315.7552119522
 51
223.3937370579
  0
ARC
  5
32C
330
1F
100
AcDbEntity
  8
0
  6
Continuous
 62
     8
370
    25
100
AcDbCircle
 10
151.5411454354
 20
203.3074723862
 30
0.0
 40
11.30993649053895
100
AcDbArc
 50
314.4770333604
 51
225.8633361486
  0
LINE
  5
32D
330
1F
100
AcDbEntity
  8
0
  6
Continuous
 62
     8
370
    25
100
AcDbLine
 10
159.4778402847
 20
190.9652558367
 30
0.0
 11
159.7347811743
 21
191.0726876158
 31
0.0
  0
ARC
  5
32E
330
1F
100
AcDbEntity
  8
0
  6
Continuous
 62
     8
370
    25
100
AcDbCircle
 10
143.4190819601
 20
191.3682406913
 30
0.0
 40
0.352950226845944
100
AcDbArc
 50
279.7087104406
 51
317.017838973
  0
ARC
  5
32F
330
1F
100
AcDbEntity
  8
0
  6
Continuous
 62
     8
370
    25
100
AcDbCircle
 10
151.5411454354
 20
203.3074723862
 30
0.0
 40
9.374999999999973
100
AcDbArc
 50
327.5929784313
 51
212.7473910778
  0
LWPOLYLINE
  5
330
330
1F
100
AcDbEntity
  8
0
  6
Continuous
 62
     8
370
    25
100
AcDbPolyline
 90
       17
 70
   128
 43
0.0
 10
144.406541191
 20
-54.3878442431
 10
144.4519575804
 20
-54.0868795309
 10
144.8174404612
 20
-53.4982007829
 10
145.533103739
 20
-52.9500235671
 10
146.5654837944
 20
-52.4679800408
 10
147.8663076835
 20
-52.0746100237
 10
149.3747503269
 20
-51.7883070605
 10
151.0202786232
 20
-51.6224583596
 10
152.725949498
 20
-51.5848188219
 10
154.4120076771
 20
-51.6771484303
 10
155.9996149537
 20
-51.895129955
 10
157.4145365763
 20
-52.2285708221
 10
158.5906123823
 20
-52.6618797073
 10
159.4728503742
 20
-53.1747955688
 10
160.0199980839
 20
-53.7433350308
 10
160.2064714926
 20
-54.3409138201
 10
160.2064714926
 20
-54.3409138201
  0
LWPOLYLINE
  5
331
330
1F
100
AcDbEntity
  8
0
  6
Continuous
 62
     8
370
    25
100
AcDbPolyline
 90
       17
 70
   128
 43
0.0
 10
143.7085254062
 20
180.6111191035
 10
143.7539417956
 20
180.9120838157
 10
144.1194246763
 20
181.5007625637
 10
144.8350879542
 20
182.0489397795
 10
145.8674680096
 20
182.5309833057
 10
147.1682918987
 20
182.9243533229
 10
148.6767345421
 20
183.2106562861
 10
150.3222628384
 20
183.376504987
 10
152.0279337132
 20
183.4141445247
 10
153.7139918922
 20
183.3218149163
 10
155.3015991689
 20
183.1038333916
 10
156.7165207915
 20
182.7703925245
 10
157.8925965975
 20
182.3370836392
 10
158.7748345894
 20
181.8241677778
 10
159.321982299
 20
181.2556283157
 10
159.5084557078
 20
180.6580495265
 10
159.5084557078
 20
180.6580495265
  0
ARC
  5
332
330
1F
100
AcDbEntity
  8
0
  6
Continuous
 62
     8
370
    25
100
AcDbCircle
 10
152.4470808157
 20
-101.69118217
 30
0.0
 40
8.410472292019541
100
AcDbArc
 50
160.1053769344
 51
0.1701847545
  0
LWPOLYLINE
  5
333
330
1F
100
AcDbEntity
  8
0
  6
Continuous
 62
     8
370
    25
100
AcDbPolyline
 90
        3
 70
   128
 43
0.0
 10
160.3384752578
 20
-98.7822411367
 10
160.6685338819
 20
-99.9181188166
 10
160.8575160067
 20
-101.6662007129
  0
ENDSEC
  0
SECTION
  2
OBJECTS
  0
DICTIONARY
  5
C
330
0
100
AcDbDictionary
281
     1
  3
ACAD_GROUP
350
D
  3
ACAD_LAYOUT
350
1A
  3
ACAD_MLINESTYLE
350
17
  3
ACAD_PLOTSETTINGS
350
19
  3
ACAD_PLOTSTYLENAME
350
E
  3
ACAD_SCALELIST
350
47
  3
DWGPROPS
350
334
  0
DICTIONARY
  5
D
102
{ACAD_REACTORS
330
C
102
}
330
C
100
AcDbDictionary
281
     1
  0
DICTIONARY
  5
1A
102
{ACAD_REACTORS
330
C
102
}
330
C
100
AcDbDictionary
281
     1
  3
Layout1
350
1E
  3
Layout2
350
26
  3
Model
350
22
  0
DICTIONARY
  5
17
102
{ACAD_REACTORS
330
C
102
}
330
C
100
AcDbDictionary
281
     1
  3
Standard
350
18
  0
DICTIONARY
  5
19
102
{ACAD_REACTORS
330
C
102
}
330
C
100
AcDbDictionary
281
     1
  0
ACDBDICTIONARYWDFLT
  5
E
102
{ACAD_REACTORS
330
C
102
}
330
C
100
AcDbDictionary
281
     1
  3
Normal
350
F
100
AcDbDictionaryWithDefault
340
F
  0
DICTIONARY
  5
47
102
{ACAD_REACTORS
330
C
102
}
330
C
100
AcDbDictionary
281
     1
  3
A0
350
48
  3
A1
350
49
  3
A2
350
4A
  3
A3
350
4B
  3
A4
350
4C
  3
A5
350
4D
  3
A6
350
4E
  3
A7
350
4F
  3
A8
350
50
  3
A9
350
51
  3
B0
350
52
  3
B1
350
53
  3
B2
350
54
  3
B3
350
55
  3
B4
350
56
  3
B5
350
57
  3
B6
350
58
  3
B7
350
59
  3
B8
350
5A
  3
B9
350
5B
  3
C0
350
5C
  3
C1
350
5D
  3
C2
350
5E
  3
C3
350
5F
  3
C4
350
60
  3
C5
350
61
  3
C6
350
62
  3
C7
350
63
  3
C8
350
64
  3
C9
350
65
  3
D0
350
66
  3
D1
350
67
  3
D2
350
68
  0
XRECORD
  5
334
102
{ACAD_REACTORS
330
C
102
}
330
C
100
AcDbXrecord
280
     1
  1
DWGPROPS COOKIE
  2

  3

  4

  6

  7

  8
DS-1
  9

300
=
301
=
302
=
303
=
304
=
305
=
306
=
307
=
308
=
309
=
 40
0.0
 41
2460383.506236458
 42
2460383.506236956
  1

 90
        0
  0
LAYOUT
  5
1E
102
{ACAD_REACTORS
330
1A
102
}
330
1A
100
AcDbPlotSettings
  1

  2
none_device
  4

  6

 40
0.0
 41
0.0
 42
0.0
 43
0.0
 44
0.0
 45
0.0
 46
0.0
 47
0.0
 48
0.0
 49
0.0
140
0.0
141
0.0
142
1.0
143
1.0
 70
   688
 72
     1
 73
     0
 74
     5
  7

 75
    16
147
1.0
148
0.0
149
0.0
100
AcDbLayout
  1
Layout1
 70
     1
 71
     1
 10
0.0
 20
0.0
 11
420.0
 21
297.0
 12
0.0
 22
0.0
 32
0.0
 14
1.0000000000E+20
 24
1.0000000000E+20
 34
1.0000000000E+20
 15
-1.0000000000E+20
 25
-1.0000000000E+20
 35
-1.0000000000E+20
146
0.0
 13
0.0
 23
0.0
 33
0.0
 16
1.0
 26
0.0
 36
0.0
 17
0.0
 27
1.0
 37
0.0
 76
     0
330
1B
  0
LAYOUT
  5
26
102
{ACAD_REACTORS
330
1A
102
}
330
1A
100
AcDbPlotSettings
  1

  2
none_device
  4

  6

 40
0.0
 41
0.0
 42
0.0
 43
0.0
 44
0.0
 45
0.0
 46
0.0
 47
0.0
 48
0.0
 49
0.0
140
0.0
141
0.0
142
1.0
143
1.0
 70
   688
 72
     1
 73
     0
 74
     5
  7

 75
    16
147
1.0
148
0.0
149
0.0
100
AcDbLayout
  1
Layout2
 70
     1
 71
     2
 10
0.0
 20
0.0
 11
0.0
 21
0.0
 12
0.0
 22
0.0
 32
0.0
 14
0.0
 24
0.0
 34
0.0
 15
0.0
 25
0.0
 35
0.0
146
0.0
 13
0.0
 23
0.0
 33
0.0
 16
1.0
 26
0.0
 36
0.0
 17
0.0
 27
1.0
 37
0.0
 76
     0
330
23
  0
LAYOUT
  5
22
102
{ACAD_REACTORS
330
1A
102
}
330
1A
100
AcDbPlotSettings
  1

  2
none_device
  4
Letter_(8.50_x_11.00_Inches)
  6

 40
6.35
 41
6.35
 42
6.35000508
 43
6.35000508
 44
215.9
 45
279.4
 46
0.0
 47
0.0
 48
0.0
 49
0.0
140
0.0
141
0.0
142
1.0
143
1.0
 70
  1712
 72
     1
 73
     0
 74
     0
  7

 75
     0
147
1.0
148
0.0
149
0.0
100
AcDbLayout
  1
Model
 70
     1
 71
     0
 10
0.0
 20
0.0
 11
279.4
 21
215.9
 12
0.0
 22
0.0
 32
0.0
 14
0.0
 24
0.0
 34
0.0
 15
279.4
 25
215.9
 35
0.0
146
0.0
 13
0.0
 23
0.0
 33
0.0
 16
1.0
 26
0.0
 36
0.0
 17
0.0
 27
1.0
 37
0.0
 76
     0
330
1F
331
29
  0
MLINESTYLE
  5
18
102
{ACAD_REACTORS
330
17
102
}
330
17
100
AcDbMlineStyle
  2
Standard
 70
     0
  3

 62
   256
 51
90.0
 52
90.0
 71
     2
 49
0.5
 62
   256
  6
BYLAYER
 49
-0.5
 62
   256
  6
BYLAYER
  0
ACDBPLACEHOLDER
  5
F
102
{ACAD_REACTORS
330
E
102
}
330
E
  0
SCALE
  5
48
102
{ACAD_REACTORS
330
47
102
}
330
47
100
AcDbScale
 70
     0
300
1:1
140
1.0
141
1.0
290
     1
  0
SCALE
  5
49
102
{ACAD_REACTORS
330
47
102
}
330
47
100
AcDbScale
 70
     0
300
1:2
140
1.0
141
2.0
290
     0
  0
SCALE
  5
4A
102
{ACAD_REACTORS
330
47
102
}
330
47
100
AcDbScale
 70
     0
300
1:4
140
1.0
141
4.0
290
     0
  0
SCALE
  5
4B
102
{ACAD_REACTORS
330
47
102
}
330
47
100
AcDbScale
 70
     0
300
1:5
140
1.0
141
5.0
290
     0
  0
SCALE
  5
4C
102
{ACAD_REACTORS
330
47
102
}
330
47
100
AcDbScale
 70
     0
300
1:8
140
1.0
141
8.0
290
     0
  0
SCALE
  5
4D
102
{ACAD_REACTORS
330
47
102
}
330
47
100
AcDbScale
 70
     0
300
1:10
140
1.0
141
10.0
290
     0
  0
SCALE
  5
4E
102
{ACAD_REACTORS
330
47
102
}
330
47
100
AcDbScale
 70
     0
300
1:16
140
1.0
141
16.0
290
     0
  0
SCALE
  5
4F
102
{ACAD_REACTORS
330
47
102
}
330
47
100
AcDbScale
 70
     0
300
1:20
140
1.0
141
20.0
290
     0
  0
SCALE
  5
50
102
{ACAD_REACTORS
330
47
102
}
330
47
100
AcDbScale
 70
     0
300
1:30
140
1.0
141
30.0
290
     0
  0
SCALE
  5
51
102
{ACAD_REACTORS
330
47
102
}
330
47
100
AcDbScale
 70
     0
300
1:40
140
1.0
141
40.0
290
     0
  0
SCALE
  5
52
102
{ACAD_REACTORS
330
47
102
}
330
47
100
AcDbScale
 70
     0
300
1:50
140
1.0
141
50.0
290
     0
  0
SCALE
  5
53
102
{ACAD_REACTORS
330
47
102
}
330
47
100
AcDbScale
 70
     0
300
1:100
140
1.0
141
100.0
290
     0
  0
SCALE
  5
54
102
{ACAD_REACTORS
330
47
102
}
330
47
100
AcDbScale
 70
     0
300
2:1
140
2.0
141
1.0
290
     0
  0
SCALE
  5
55
102
{ACAD_REACTORS
330
47
102
}
330
47
100
AcDbScale
 70
     0
300
4:1
140
4.0
141
1.0
290
     0
  0
SCALE
  5
56
102
{ACAD_REACTORS
330
47
102
}
330
47
100
AcDbScale
 70
     0
300
8:1
140
8.0
141
1.0
290
     0
  0
SCALE
  5
57
102
{ACAD_REACTORS
330
47
102
}
330
47
100
AcDbScale
 70
     0
300
10:1
140
10.0
141
1.0
290
     0
  0
SCALE
  5
58
102
{ACAD_REACTORS
330
47
102
}
330
47
100
AcDbScale
 70
     0
300
100:1
140
100.0
141
1.0
290
     0
  0
SCALE
  5
59
102
{ACAD_REACTORS
330
47
102
}
330
47
100
AcDbScale
 70
     0
300
1/128" = 1'-0"
140
0.0078125
141
12.0
290
     0
  0
SCALE
  5
5A
102
{ACAD_REACTORS
330
47
102
}
330
47
100
AcDbScale
 70
     0
300
1/64" = 1'-0"
140
0.015625
141
12.0
290
     0
  0
SCALE
  5
5B
102
{ACAD_REACTORS
330
47
102
}
330
47
100
AcDbScale
 70
     0
300
1/32" = 1'-0"
140
0.03125
141
12.0
290
     0
  0
SCALE
  5
5C
102
{ACAD_REACTORS
330
47
102
}
330
47
100
AcDbScale
 70
     0
300
1/16" = 1'-0"
140
0.0625
141
12.0
290
     0
  0
SCALE
  5
5D
102
{ACAD_REACTORS
330
47
102
}
330
47
100
AcDbScale
 70
     0
300
3/32" = 1'-0"
140
0.09375
141
12.0
290
     0
  0
SCALE
  5
5E
102
{ACAD_REACTORS
330
47
102
}
330
47
100
AcDbScale
 70
     0
300
1/8" = 1'-0"
140
0.125
141
12.0
290
     0
  0
SCALE
  5
5F
102
{ACAD_REACTORS
330
47
102
}
330
47
100
AcDbScale
 70
     0
300
3/16" = 1'-0"
140
0.1875
141
12.0
290
     0
  0
SCALE
  5
60
102
{ACAD_REACTORS
330
47
102
}
330
47
100
AcDbScale
 70
     0
300
1/4" = 1'-0"
140
0.25
141
12.0
290
     0
  0
SCALE
  5
61
102
{ACAD_REACTORS
330
47
102
}
330
47
100
AcDbScale
 70
     0
300
3/8" = 1'-0"
140
0.375
141
12.0
290
     0
  0
SCALE
  5
62
102
{ACAD_REACTORS
330
47
102
}
330
47
100
AcDbScale
 70
     0
300
1/2" = 1'-0"
140
0.5
141
12.0
290
     0
  0
SCALE
  5
63
102
{ACAD_REACTORS
330
47
102
}
330
47
100
AcDbScale
 70
     0
300
3/4" = 1'-0"
140
0.75
141
12.0
290
     0
  0
SCALE
  5
64
102
{ACAD_REACTORS
330
47
102
}
330
47
100
AcDbScale
 70
     0
300
1" = 1'-0"
140
1.0
141
12.0
290
     0
  0
SCALE
  5
65
102
{ACAD_REACTORS
330
47
102
}
330
47
100
AcDbScale
 70
     0
300
1-1/2" = 1'-0"
140
1.5
141
12.0
290
     0
  0
SCALE
  5
66
102
{ACAD_REACTORS
330
47
102
}
330
47
100
AcDbScale
 70
     0
300
3" = 1'-0"
140
3.0
141
12.0
290
     0
  0
SCALE
  5
67
102
{ACAD_REACTORS
330
47
102
}
330
47
100
AcDbScale
 70
     0
300
6" = 1'-0"
140
6.0
141
12.0
290
     0
  0
SCALE
  5
68
102
{ACAD_REACTORS
330
47
102
}
330
47
100
AcDbScale
 70
     0
300
1'-0" = 1'-0"
140
12.0
141
12.0
290
     0
  0
ENDSEC
  0
EOF
