  0
SECTION
  2
HEADER
  9
$ACADVER
  1
AC1015
  9
$ACADMAINTVER
 70
     6
  9
$DWGCODEPAGE
  3
ANSI_1252
  9
$INSBASE
 10
0.0
 20
0.0
 30
0.0
  9
$EXTMIN
 10
0.0
 20
0.0
 30
0.0
  9
$EXTMAX
 10
279.4
 20
215.9
 30
0.0
  9
$LIMMIN
 10
0.0
 20
0.0
  9
$LIMMAX
 10
279.4
 20
215.9
  9
$ORTHOMODE
 70
     0
  9
$REGENMODE
 70
     1
  9
$FILLMODE
 70
     1
  9
$QTEXTMODE
 70
     0
  9
$MIRRTEXT
 70
     1
  9
$LTSCALE
 40
1.0
  9
$ATTMODE
 70
     1
  9
$TEXTSIZE
 40
3.5
  9
$TRACEWID
 40
1.0
  9
$TEXTSTYLE
  7
Standard
  9
$CLAYER
  8
0
  9
$CELTYPE
  6
ByLayer
  9
$CECOLOR
 62
   256
  9
$CELTSCALE
 40
1.0
  9
$DISPSILH
 70
     0
  9
$DIMSCALE
 40
1.0
  9
$DIMASZ
 40
3.302
  9
$DIMEXO
 40
1.0
  9
$DIMDLI
 40
3.75
  9
$DIMRND
 40
0.0
  9
$DIMDLE
 40
0.0
  9
$DIMEXE
 40
1.0
  9
$DIMTP
 40
0.0
  9
$DIMTM
 40
0.0
  9
$DIMTXT
 40
3.5
  9
$DIMCEN
 40
2.5
  9
$DIMTSZ
 40
0.0
  9
$DIMTOL
 70
     0
  9
$DIMLIM
 70
     0
  9
$DIMTIH
 70
     1
  9
$DIMTOH
 70
     1
  9
$DIMSE1
 70
     0
  9
$DIMSE2
 70
     0
  9
$DIMTAD
 70
     1
  9
$DIMZIN
 70
     1
  9
$DIMBLK
  1

  9
$DIMASO
 70
     1
  9
$DIMSHO
 70
     1
  9
$DIMPOST
  1

  9
$DIMAPOST
  1

  9
$DIMALT
 70
     0
  9
$DIMALTD
 70
     3
  9
$DIMALTF
 40
0.0393700787
  9
$DIMLFAC
 40
2.0
  9
$DIMTOFL
 70
     1
  9
$DIMTVP
 40
0.0
  9
$DIMTIX
 70
     0
  9
$DIMSOXD
 70
     0
  9
$DIMSAH
 70
     0
  9
$DIMBLK1
  1

  9
$DIMBLK2
  1

  9
$DIMSTYLE
  2
ISO-25
  9
$DIMCLRD
 70
     0
  9
$DIMCLRE
 70
     0
  9
$DIMCLRT
 70
     0
  9
$DIMTFAC
 40
1.0
  9
$DIMGAP
 40
1.524
  9
$DIMJUST
 70
     0
  9
$DIMSD1
 70
     0
  9
$DIMSD2
 70
     0
  9
$DIMTOLJ
 70
     0
  9
$DIMTZIN
 70
     1
  9
$DIMALTZ
 70
     0
  9
$DIMALTTZ
 70
     0
  9
$DIMUPT
 70
     0
  9
$DIMDEC
 70
     2
  9
$DIMTDEC
 70
     2
  9
$DIMALTU
 70
     2
  9
$DIMALTTD
 70
     3
  9
$DIMTXSTY
  7
Standard
  9
$DIMAUNIT
 70
     0
  9
$DIMADEC
 70
     2
  9
$DIMALTRND
 40
0.0
  9
$DIMAZIN
 70
     0
  9
$DIMDSEP
 70
    44
  9
$DIMATFIT
 70
     3
  9
$DIMFRAC
 70
     0
  9
$DIMLDRBLK
  1

  9
$DIMLUNIT
 70
     2
  9
$DIMLWD
 70
    -2
  9
$DIMLWE
 70
    -2
  9
$DIMTMOVE
 70
     0
  9
$LUNITS
 70
     2
  9
$LUPREC
 70
     2
  9
$SKETCHINC
 40
1.0
  9
$FILLETRAD
 40
10.0
  9
$AUNITS
 70
     0
  9
$AUPREC
 70
     2
  9
$MENU
  1
.
  9
$ELEVATION
 40
0.0
  9
$PELEVATION
 40
0.0
  9
$THICKNESS
 40
0.0
  9
$LIMCHECK
 70
     0
  9
$CHAMFERA
 40
0.0
  9
$CHAMFERB
 40
0.0
  9
$CHAMFERC
 40
0.0
  9
$CHAMFERD
 40
0.0
  9
$SKPOLY
 70
     0
  9
$TDCREATE
 40
2460383.718021783
  9
$TDUCREATE
 40
2460383.488855116
  9
$TDUPDATE
 40
2460383.71802235
  9
$TDUUPDATE
 40
2460383.488855683
  9
$TDINDWG
 40
0.0000000116
  9
$TDUSRTIMER
 40
0.0000000116
  9
$USRTIMER
 70
     1
  9
$ANGBASE
 50
0.0
  9
$ANGDIR
 70
     0
  9
$PDMODE
 70
     0
  9
$PDSIZE
 40
-1.0
  9
$PLINEWID
 40
0.0
  9
$SPLFRAME
 70
     0
  9
$SPLINETYPE
 70
     6
  9
$SPLINESEGS
 70
     8
  9
$HANDSEED
  5
161
  9
$SURFTAB1
 70
     6
  9
$SURFTAB2
 70
     6
  9
$SURFTYPE
 70
     6
  9
$SURFU
 70
     6
  9
$SURFV
 70
     6
  9
$UCSBASE
  2

  9
$UCSNAME
  2

  9
$UCSORG
 10
0.0
 20
0.0
 30
0.0
  9
$UCSXDIR
 10
1.0
 20
0.0
 30
0.0
  9
$UCSYDIR
 10
0.0
 20
1.0
 30
0.0
  9
$UCSORTHOREF
  2

  9
$UCSORTHOVIEW
 70
     0
  9
$UCSORGTOP
 10
0.0
 20
0.0
 30
0.0
  9
$UCSORGBOTTOM
 10
0.0
 20
0.0
 30
0.0
  9
$UCSORGLEFT
 10
0.0
 20
0.0
 30
0.0
  9
$UCSORGRIGHT
 10
0.0
 20
0.0
 30
0.0
  9
$UCSORGFRONT
 10
0.0
 20
0.0
 30
0.0
  9
$UCSORGBACK
 10
0.0
 20
0.0
 30
0.0
  9
$PUCSBASE
  2

  9
$PUCSNAME
  2

  9
$PUCSORG
 10
0.0
 20
0.0
 30
0.0
  9
$PUCSXDIR
 10
1.0
 20
0.0
 30
0.0
  9
$PUCSYDIR
 10
0.0
 20
1.0
 30
0.0
  9
$PUCSORTHOREF
  2

  9
$PUCSORTHOVIEW
 70
     0
  9
$PUCSORGTOP
 10
0.0
 20
0.0
 30
0.0
  9
$PUCSORGBOTTOM
 10
0.0
 20
0.0
 30
0.0
  9
$PUCSORGLEFT
 10
0.0
 20
0.0
 30
0.0
  9
$PUCSORGRIGHT
 10
0.0
 20
0.0
 30
0.0
  9
$PUCSORGFRONT
 10
0.0
 20
0.0
 30
0.0
  9
$PUCSORGBACK
 10
0.0
 20
0.0
 30
0.0
  9
$USERI1
 70
     0
  9
$USERI2
 70
     0
  9
$USERI3
 70
     0
  9
$USERI4
 70
     0
  9
$USERI5
 70
     0
  9
$USERR1
 40
0.0
  9
$USERR2
 40
0.0
  9
$USERR3
 40
0.0
  9
$USERR4
 40
0.0
  9
$USERR5
 40
0.0
  9
$WORLDVIEW
 70
     1
  9
$SHADEDGE
 70
     3
  9
$SHADEDIF
 70
    70
  9
$TILEMODE
 70
     1
  9
$MAXACTVP
 70
    64
  9
$PINSBASE
 10
0.0
 20
0.0
 30
0.0
  9
$PLIMCHECK
 70
     0
  9
$PEXTMIN
 10
1.0000000000E+20
 20
1.0000000000E+20
 30
1.0000000000E+20
  9
$PEXTMAX
 10
-1.0000000000E+20
 20
-1.0000000000E+20
 30
-1.0000000000E+20
  9
$PLIMMIN
 10
0.0
 20
0.0
  9
$PLIMMAX
 10
420.0
 20
297.0
  9
$UNITMODE
 70
     0
  9
$VISRETAIN
 70
     1
  9
$PLINEGEN
 70
     0
  9
$PSLTSCALE
 70
     1
  9
$TREEDEPTH
 70
  3020
  9
$CMLSTYLE
  2
Standard
  9
$CMLJUST
 70
     0
  9
$CMLSCALE
 40
20.0
  9
$PROXYGRAPHICS
 70
     1
  9
$MEASUREMENT
 70
     1
  9
$CELWEIGHT
370
    -1
  9
$ENDCAPS
280
     0
  9
$JOINSTYLE
280
     0
  9
$LWDISPLAY
290
     1
  9
$INSUNITS
 70
     4
  9
$HYPERLINKBASE
  1

  9
$STYLESHEET
  1

  9
$XEDIT
290
     1
  9
$CEPSNTYPE
380
     0
  9
$PSTYLEMODE
290
     1
  9
$FINGERPRINTGUID
  2
{706a143b-1654-4218-a3bf-d191a812fe5e}
  9
$VERSIONGUID
  2
{FAEB1C32-E019-11D5-929B-00C0DF256EC4}
  9
$EXTNAMES
290
     1
  9
$PSVPSCALE
 40
0.0
  9
$OLESTARTUP
290
     0
  0
ENDSEC
  0
SECTION
  2
CLASSES
  0
CLASS
  1
ACDBDICTIONARYWDFLT
  2
AcDbDictionaryWithDefault
  3
ObjectDBX Classes
 90
        0
280
     0
281
     0
  0
CLASS
  1
VISUALSTYLE
  2
AcDbVisualStyle
  3
ObjectDBX Classes
 90
     4095
280
     0
281
     0
  0
CLASS
  1
MATERIAL
  2
AcDbMaterial
  3
ObjectDBX Classes
 90
     1153
280
     0
281
     0
  0
CLASS
  1
SCALE
  2
AcDbScale
  3
ObjectDBX Classes
 90
     1153
280
     0
281
     0
  0
CLASS
  1
TABLESTYLE
  2
AcDbTableStyle
  3
ObjectDBX Classes
 90
     4095
280
     0
281
     0
  0
CLASS
  1
MLEADERSTYLE
  2
AcDbMLeaderStyle
  3
ACDB_MLEADERSTYLE_CLASS
 90
     4095
280
     0
281
     0
  0
CLASS
  1
SUN
  2
AcDbSun
  3
SCENEOE
 90
     1153
280
     0
281
     0
  0
CLASS
  1
ACDBPLACEHOLDER
  2
AcDbPlaceHolder
  3
ObjectDBX Classes
 90
        0
280
     0
281
     0
  0
CLASS
  1
LAYOUT
  2
AcDbLayout
  3
ObjectDBX Classes
 90
        0
280
     0
281
     0
  0
ENDSEC
  0
SECTION
  2
TABLES
  0
TABLE
  2
VPORT
  5
8
330
0
100
AcDbSymbolTable
 70
     1
  0
VPORT
  5
29
330
8
100
AcDbSymbolTableRecord
100
AcDbViewportTableRecord
  2
*Active
 70
     0
 10
0.0
 20
0.0
 11
1.0
 21
1.0
 12
139.7
 22
107.95
 13
0.0
 23
0.0
 14
10.0
 24
10.0
 15
10.0
 25
10.0
 16
0.0
 26
0.0
 36
1.0
 17
0.0
 27
0.0
 37
0.0
 40
215.9
 41
1.2941176471
 42
50.0
 43
0.0
 44
0.0
 50
0.0
 51
0.0
 71
     0
 72
  2000
 73
     1
 74
     3
 75
     0
 76
     0
 77
     0
 78
     0
281
     0
 65
     1
110
0.0
120
0.0
130
0.0
111
1.0
121
0.0
131
0.0
112
0.0
122
1.0
132
0.0
 79
     0
146
0.0
  0
ENDTAB
  0
TABLE
  2
LTYPE
  5
5
330
0
100
AcDbSymbolTable
 70
     6
  0
LTYPE
  5
14
330
5
100
AcDbSymbolTableRecord
100
AcDbLinetypeTableRecord
  2
ByBlock
 70
     0
  3

 72
    65
 73
     0
 40
0.0
  0
LTYPE
  5
15
330
5
100
AcDbSymbolTableRecord
100
AcDbLinetypeTableRecord
  2
ByLayer
 70
     0
  3

 72
    65
 73
     0
 40
0.0
  0
LTYPE
  5
16
330
5
100
AcDbSymbolTableRecord
100
AcDbLinetypeTableRecord
  2
Continuous
 70
     0
  3
Solid line
 72
    65
 73
     0
 40
0.0
  0
LTYPE
  5
6E
330
5
100
AcDbSymbolTableRecord
100
AcDbLinetypeTableRecord
  2
HIDDEN
 70
     0
  3
Hidden __ __ __ __ __ __ __ __ __ __ __ __ __ __
 72
    65
 73
     2
 40
1.905
 49
1.27
 74
     0
 49
-0.635
 74
     0
  0
LTYPE
  5
6F
330
5
100
AcDbSymbolTableRecord
100
AcDbLinetypeTableRecord
  2
PHANTOM
 70
     0
  3
Phantom ______  __  __  ______  __  __  ______
 72
    65
 73
     6
 40
12.7
 49
6.35
 74
     0
 49
-1.27
 74
     0
 49
1.27
 74
     0
 49
-1.27
 74
     0
 49
1.27
 74
     0
 49
-1.27
 74
     0
  0
LTYPE
  5
70
330
5
100
AcDbSymbolTableRecord
100
AcDbLinetypeTableRecord
  2
CENTER
 70
     0
  3
Center ____ _ ____ _ ____ _ ____ _ ____ _ ____
 72
    65
 73
     4
 40
10.16
 49
6.35
 74
     0
 49
-1.27
 74
     0
 49
1.27
 74
     0
 49
-1.27
 74
     0
  0
LTYPE
  5
71
330
5
100
AcDbSymbolTableRecord
100
AcDbLinetypeTableRecord
  2
CENTERX2
 70
     0
  3
Center (2x) ________  __  ________  __  _____
 72
    65
 73
     4
 40
20.32
 49
12.7
 74
     0
 49
-2.54
 74
     0
 49
2.54
 74
     0
 49
-2.54
 74
     0
  0
LTYPE
  5
72
330
5
100
AcDbSymbolTableRecord
100
AcDbLinetypeTableRecord
  2
DOT2
 70
     0
  3
Dot (.5x) ........................................
 72
    65
 73
     2
 40
0.635
 49
0.0
 74
     0
 49
-0.635
 74
     0
  0
ENDTAB
  0
TABLE
  2
LAYER
  5
2
330
0
100
AcDbSymbolTable
 70
     5
  0
LAYER
  5
10
330
2
100
AcDbSymbolTableRecord
100
AcDbLayerTableRecord
  2
0
 70
     0
 62
     7
  6
Continuous
370
    -3
390
F
  0
LAYER
  5
73
330
2
100
AcDbSymbolTableRecord
100
AcDbLayerTableRecord
  2
FORMAT
 70
     0
 62
     7
  6
Continuous
370
    -3
390
F
  0
LAYER
  5
74
330
2
100
AcDbSymbolTableRecord
100
AcDbLayerTableRecord
  2
OUT_LINE
 70
     0
 62
     7
  6
Continuous
370
    50
390
F
  0
LAYER
  5
75
330
2
100
AcDbSymbolTableRecord
100
AcDbLayerTableRecord
  2
WATERMARK
 70
     0
 62
   254
  6
Continuous
370
    -3
390
F
  0
LAYER
  5
76
330
2
100
AcDbSymbolTableRecord
100
AcDbLayerTableRecord
  2
LAYER3
 70
     0
 62
     7
  6
Continuous
370
    35
390
F
  0
ENDTAB
  0
TABLE
  2
STYLE
  5
3
330
0
100
AcDbSymbolTable
 70
     1
  0
STYLE
  5
11
330
3
100
AcDbSymbolTableRecord
100
AcDbTextStyleTableRecord
  2
Standard
 70
     0
 40
0.0
 41
1.0
 50
0.0
 71
     0
 42
3.5
  3
txt
  4

  0
ENDTAB
  0
TABLE
  2
VIEW
  5
6
330
0
100
AcDbSymbolTable
 70
     0
  0
ENDTAB
  0
TABLE
  2
UCS
  5
7
330
0
100
AcDbSymbolTable
 70
     0
  0
ENDTAB
  0
TABLE
  2
APPID
  5
9
330
0
100
AcDbSymbolTable
 70
     1
  0
APPID
  5
12
330
9
100
AcDbSymbolTableRecord
100
AcDbRegAppTableRecord
  2
ACAD
 70
     0
  0
ENDTAB
  0
TABLE
  2
DIMSTYLE
  5
A
330
0
100
AcDbSymbolTable
 70
     1
100
AcDbDimStyleTable
  0
DIMSTYLE
105
27
330
A
100
AcDbSymbolTableRecord
100
AcDbDimStyleTableRecord
  2
ISO-25
 70
     0
 41
2.5
 42
0.625
 43
3.75
 44
1.25
 73
     0
 74
     0
 77
     1
 78
     8
140
2.5
141
2.5
143
0.0393700787
147
0.625
171
     3
172
     1
178
     0
271
     2
272
     2
274
     3
278
    44
283
     0
284
     8
340
11
  0
ENDTAB
  0
TABLE
  2
BLOCK_RECORD
  5
1
330
0
100
AcDbSymbolTable
 70
     4
  0
BLOCK_RECORD
  5
1F
330
1
100
AcDbSymbolTableRecord
100
AcDbBlockTableRecord
  2
*Model_Space
340
22
  0
BLOCK_RECORD
  5
1B
330
1
100
AcDbSymbolTableRecord
100
AcDbBlockTableRecord
  2
*Paper_Space
340
1E
  0
BLOCK_RECORD
  5
23
330
1
100
AcDbSymbolTableRecord
100
AcDbBlockTableRecord
  2
*Paper_Space0
340
26
  0
BLOCK_RECORD
  5
77
330
1
100
AcDbSymbolTableRecord
100
AcDbBlockTableRecord
  2
Block5
340
0
  0
BLOCK_RECORD
  5
85
330
1
100
AcDbSymbolTableRecord
100
AcDbBlockTableRecord
  2
Block2
340
0
  0
BLOCK_RECORD
  5
90
330
1
100
AcDbSymbolTableRecord
100
AcDbBlockTableRecord
  2
Block7
340
0
  0
ENDTAB
  0
ENDSEC
  0
SECTION
  2
BLOCKS
  0
BLOCK
  5
20
330
1F
100
AcDbEntity
  8
0
100
AcDbBlockBegin
  2
*Model_Space
 70
     0
 10
0.0
 20
0.0
 30
0.0
  3
*Model_Space
  1

  0
ENDBLK
  5
21
330
1F
100
AcDbEntity
  8
0
100
AcDbBlockEnd
  0
BLOCK
  5
1C
330
1B
100
AcDbEntity
 67
     1
  8
0
100
AcDbBlockBegin
  2
*Paper_Space
 70
     0
 10
0.0
 20
0.0
 30
0.0
  3
*Paper_Space
  1

  0
ENDBLK
  5
1D
330
1B
100
AcDbEntity
 67
     1
  8
0
100
AcDbBlockEnd
  0
BLOCK
  5
24
330
23
100
AcDbEntity
  8
0
100
AcDbBlockBegin
  2
*Paper_Space0
 70
     0
 10
0.0
 20
0.0
 30
0.0
  3
*Paper_Space0
  1

  0
ENDBLK
  5
25
330
23
100
AcDbEntity
  8
0
100
AcDbBlockEnd
  0
BLOCK
  5
78
330
77
100
AcDbEntity
  8
0
100
AcDbBlockBegin
  2
Block5
 70
     0
 10
0.0
 20
0.0
 30
0.0
  3
Block5
  1

  0
LINE
  5
7A
330
77
100
AcDbEntity
  8
LAYER3
100
AcDbLine
 10
251.0883122991
 20
64.4632252413
 30
0.0
 11
250.3611798328
 21
64.9733337839
 31
0.0
  0
LINE
  5
7B
330
77
100
AcDbEntity
  8
LAYER3
100
AcDbLine
 10
250.3611798328
 20
64.9733337839
 30
0.0
 11
251.0883122991
 21
65.4834423266
 31
0.0
  0
LINE
  5
7C
330
77
100
AcDbEntity
  8
LAYER3
100
AcDbLine
 10
250.3611798328
 20
65.6106440044
 30
0.0
 11
250.3611798328
 21
64.3360235634
 31
0.0
  0
LINE
  5
7D
330
77
100
AcDbEntity
  8
LAYER3
100
AcDbLine
 10
251.0883122991
 20
65.4834423266
 30
0.0
 11
251.0883122991
 21
64.4632252413
 31
0.0
  0
LINE
  5
7E
330
77
100
AcDbEntity
  8
LAYER3
  6
Continuous
 62
     7
370
    18
100
AcDbLine
 10
254.0738326611
 20
65.4834423266
 30
0.0
 11
254.0738326611
 21
64.4632252413
 31
0.0
  0
LINE
  5
7F
330
77
100
AcDbEntity
  8
LAYER3
100
AcDbLine
 10
251.0883122991
 20
64.9733337839
 30
0.0
 11
254.0738326611
 21
64.9733337839
 31
0.0
  0
LINE
  5
80
330
77
100
AcDbEntity
  8
LAYER3
100
AcDbLine
 10
254.0738326611
 20
64.9733337839
 30
0.0
 11
254.0738326611
 21
64.4632252413
 31
0.0
  0
LINE
  5
81
330
77
100
AcDbEntity
  8
LAYER3
100
AcDbLine
 10
254.0738326611
 20
65.4834423266
 30
0.0
 11
254.8009651274
 21
64.9733337839
 31
0.0
  0
LINE
  5
82
330
77
100
AcDbEntity
  8
LAYER3
100
AcDbLine
 10
254.8009651274
 20
64.9733337839
 30
0.0
 11
254.0738326611
 21
64.4632252413
 31
0.0
  0
LINE
  5
83
330
77
100
AcDbEntity
  8
LAYER3
100
AcDbLine
 10
254.0738326611
 20
65.4834423266
 30
0.0
 11
254.0738326611
 21
64.9733337839
 31
0.0
  0
LINE
  5
84
330
77
100
AcDbEntity
  8
LAYER3
100
AcDbLine
 10
254.8009651274
 20
65.6106440044
 30
0.0
 11
254.8009651274
 21
64.3360235634
 31
0.0
  0
ENDBLK
  5
79
330
77
100
AcDbEntity
  8
0
100
AcDbBlockEnd
  0
BLOCK
  5
86
330
85
100
AcDbEntity
  8
0
100
AcDbBlockBegin
  2
Block2
 70
     0
 10
0.0
 20
0.0
 30
0.0
  3
Block2
  1

  0
CIRCLE
  5
88
330
85
100
AcDbEntity
  8
FORMAT
100
AcDbCircle
 10
44.9757425281
 20
71.5551333392
 30
0.0
 40
3.500000000000012
  0
CIRCLE
  5
89
330
85
100
AcDbEntity
  8
FORMAT
100
AcDbCircle
 10
44.9757425281
 20
71.5551333392
 30
0.0
 40
1.664444312410222
  0
LINE
  5
8A
330
85
100
AcDbEntity
  8
FORMAT
100
AcDbLine
 10
50.8419693267
 20
74.6444962432
 30
0.0
 11
58.8419693267
 21
73.6204905773
 31
0.0
  0
LINE
  5
8B
330
85
100
AcDbEntity
  8
FORMAT
100
AcDbLine
 10
58.8419693267
 20
73.6204905773
 30
0.0
 11
58.8419693267
 21
69.4897761011
 31
0.0
  0
LINE
  5
8C
330
85
100
AcDbEntity
  8
FORMAT
100
AcDbLine
 10
58.8419693267
 20
69.4897761011
 30
0.0
 11
50.8419693267
 21
68.4657704351
 31
0.0
  0
LINE
  5
8D
330
85
100
AcDbEntity
  8
FORMAT
100
AcDbLine
 10
50.8419693267
 20
68.4657704351
 30
0.0
 11
50.8419693267
 21
74.6444962432
 31
0.0
  0
LINE
  5
8E
330
85
100
AcDbEntity
  8
FORMAT
  6
CENTERX2
100
AcDbLine
 10
58.8419693267
 20
71.5551333392
 30
0.0
 11
40.5246830005
 21
71.5551333392
 31
0.0
  0
LINE
  5
8F
330
85
100
AcDbEntity
  8
FORMAT
100
AcDbLine
 10
44.9757425281
 20
77.2283416432
 30
0.0
 11
44.9757425281
 21
65.8819250352
 31
0.0
  0
ENDBLK
  5
87
330
85
100
AcDbEntity
  8
0
100
AcDbBlockEnd
  0
BLOCK
  5
91
330
90
100
AcDbEntity
  8
0
100
AcDbBlockBegin
  2
Block7
 70
     0
 10
0.0
 20
0.0
 30
0.0
  3
Block7
  1

  0
LINE
  5
93
330
90
100
AcDbEntity
  8
FORMAT
100
AcDbLine
 10
221.8284763776
 20
80.2705155621
 30
0.0
 11
222.3963943455
 21
79.286852787
 31
0.0
  0
LINE
  5
94
330
90
100
AcDbEntity
  8
FORMAT
100
AcDbLine
 10
222.3963943455
 20
79.286852787
 30
0.0
 11
222.9643123135
 21
80.2705155621
 31
0.0
  0
LINE
  5
95
330
90
100
AcDbEntity
  8
FORMAT
100
AcDbLine
 10
221.8284763776
 20
80.2705155621
 30
0.0
 11
222.9643123135
 21
80.2705155621
 31
0.0
  0
LINE
  5
96
330
90
100
AcDbEntity
  8
FORMAT
100
AcDbLine
 10
222.9643123135
 20
80.2705155621
 30
0.0
 11
223.3725273771
 21
80.9775647926
 31
0.0
  0
LINE
  5
97
330
90
100
AcDbEntity
  8
FORMAT
100
AcDbLine
 10
223.3725273771
 20
80.9775647926
 30
0.0
 11
224.1023154201
 21
80.9775647926
 31
0.0
  0
ENDBLK
  5
92
330
90
100
AcDbEntity
  8
0
100
AcDbBlockEnd
  0
ENDSEC
  0
SECTION
  2
ENTITIES
  0
SPLINE
  5
98
330
1F
100
AcDbEntity
  8
0
  6
Continuous
 62
     7
370
    25
100
AcDbSpline
210
0.0
220
0.0
230
1.0
 70
     8
 71
     3
 72
    55
 73
    51
 74
     0
 42
0.00000001
 43
0.00000001
 40
0.0
 40
0.0
 40
0.0
 40
0.0
 40
0.0261984255880911
 40
0.0538636511300283
 40
0.080318520581217
 40
0.1031873186220493
 40
0.1224530869094529
 40
0.1380982686526578
 40
0.1481119761019996
 40
0.1591899903445836
 40
0.1728559368549607
 40
0.1891565071328246
 40
0.2072766627279793
 40
0.2220016914315064
 40
0.2363577027703953
 40
0.2500142808924623
 40
0.2618140176429765
 40
0.2716772465360832
 40
0.2807097058641
 40
0.2966070180572501
 40
0.3151214056701299
 40
0.3356778192599524
 40
0.3576156946396636
 40
0.3844695482355277
 40
0.4086485225647992
 40
0.4302868995784299
 40
0.4458753878130055
 40
0.4637619705687445
 40
0.4840966255558857
 40
0.506868589090603
 40
0.5320684645639244
 40
0.5582335105485916
 40
0.5823864828480587
 40
0.6044544242285472
 40
0.630651272356447
 40
0.6531939934504395
 40
0.6742980002465562
 40
0.6977586920403146
 40
0.723638125887999
 40
0.7519327697921038
 40
0.7748070077346642
 40
0.7998972500427124
 40
0.8274304335234208
 40
0.8573897490993909
 40
0.878712635025041
 40
0.9010999129416933
 40
0.9245483705916886
 40
0.9490546111297641
 40
0.9746197003790976
 40
1.0
 40
1.0
 40
1.0
 40
1.0
 10
216.0436820709887
 20
106.4686869609905
 30
0.0
 10
217.9217159755371
 20
106.7505526385336
 30
0.0
 10
221.782931326239
 20
107.3300651160931
 30
0.0
 10
227.181736873717
 20
108.2519001695869
 30
0.0
 10
232.0089388781449
 20
109.1687622281868
 30
0.0
 10
235.966833153796
 20
110.012853086048
 30
0.0
 10
239.0320603564434
 20
110.7417131875417
 30
0.0
 10
241.2325159176864
 20
111.3212709068336
 30
0.0
 10
242.9267246172746
 20
111.8055333599752
 30
0.0
 10
244.4706283455289
 20
112.2803107432419
 30
0.0
 10
246.1842719343347
 20
112.859909236885
 30
0.0
 10
248.0146354644282
 20
113.565106198878
 30
0.0
 10
249.6697866608307
 20
114.318259829638
 30
0.0
 10
251.1801157716542
 20
115.1588180888242
 30
0.0
 10
252.4714747824123
 20
116.0580711347474
 30
0.0
 10
253.5926048947965
 20
117.0822644019671
 30
0.0
 10
254.4652163219823
 20
118.1673784537433
 30
0.0
 10
255.1300476268684
 20
119.3290884774764
 30
0.0
 10
255.7091366967904
 20
120.9390653994795
 30
0.0
 10
255.9250711382243
 20
123.0954426516396
 30
0.0
 10
255.1653430713842
 20
125.8248957274106
 30
0.0
 10
253.6157158419367
 20
127.8840326614355
 30
0.0
 10
251.514146240708
 20
129.5223231101645
 30
0.0
 10
249.0067950185989
 20
130.726973251501
 30
0.0
 10
246.3975116935241
 20
131.6160111948843
 30
0.0
 10
243.8462799511709
 20
132.2945197576375
 30
0.0
 10
241.3759702273903
 20
132.8412032292529
 30
0.0
 10
238.7403852651322
 20
133.3454714037633
 30
0.0
 10
235.4845600409425
 20
133.877604354612
 30
0.0
 10
231.5119372673448
 20
134.4273061705373
 30
0.0
 10
226.8384847157699
 20
134.9675036004781
 30
0.0
 10
221.7413661535388
 20
135.4576613502473
 30
0.0
 10
216.5995077164952
 20
135.8719152669644
 30
0.0
 10
211.2755149649641
 20
136.235179128951
 30
0.0
 10
205.9372798704628
 20
136.5387722564097
 30
0.0
 10
200.6115156685754
 20
136.7893742901913
 30
0.0
 10
195.4882649282889
 20
136.9901997702859
 30
0.0
 10
190.1528975513728
 20
137.1597177505477
 30
0.0
 10
184.3958437084742
 20
137.2991967118697
 30
0.0
 10
178.8943199900543
 20
137.3914735140502
 30
0.0
 10
173.7289106834855
 20
137.444920884072
 30
0.0
 10
168.944400500531
 20
137.4665833216205
 30
0.0
 10
164.1756951514698
 20
137.4598045993295
 30
0.0
 10
160.1773698522459
 20
137.4295863400868
 30
0.0
 10
156.9718546572956
 20
137.3887417199323
 30
0.0
 10
154.4892519482791
 20
137.3460927401008
 30
0.0
 10
152.3900809272273
 20
137.3003577967088
 30
0.0
 10
150.7882590234287
 20
137.2577640956194
 30
0.0
 10
149.7396024109351
 20
137.2235360856592
 30
0.0
 10
149.6215419984204
 20
137.2178262805522
 30
0.0
 10
149.5627259071226
 20
137.21498173333
 30
0.0
  0
SPLINE
  5
99
330
1F
100
AcDbEntity
  8
0
  6
Continuous
 62
     7
370
    25
100
AcDbSpline
210
0.0
220
0.0
230
1.0
 70
     8
 71
     3
 72
    30
 73
    26
 74
     0
 42
0.00000001
 43
0.00000001
 40
0.0
 40
0.0
 40
0.0
 40
0.0
 40
0.0050119394005478
 40
0.0482918528558657
 40
0.0884441783687414
 40
0.1428156792381017
 40
0.1902066592488959
 40
0.2306356573716955
 40
0.2655035867841226
 40
0.3010463699455118
 40
0.3380120032996587
 40
0.3894904866707591
 40
0.4434618268963134
 40
0.4999004917143108
 40
0.5578104696003835
 40
0.6133615163699798
 40
0.6661623251813037
 40
0.7162207406729292
 40
0.7640443925863593
 40
0.813521367199959
 40
0.8522145462134901
 40
0.892104916507875
 40
0.9321976699933007
 40
0.9722600752003104
 40
0.9999999999999999
 40
0.9999999999999999
 40
0.9999999999999999
 40
0.9999999999999999
 10
164.6401015576388
 20
125.4577543178116
 30
0.0
 10
164.7605180941766
 20
125.4584354631949
 30
0.0
 10
165.9207750723955
 20
125.4649985458654
 30
0.0
 10
168.3184403427778
 20
125.4652837900546
 30
0.0
 10
172.1876613565365
 20
125.4544943600279
 30
0.0
 10
176.4794450995803
 20
125.4195298900806
 30
0.0
 10
181.0052894917226
 20
125.3565561796397
 30
0.0
 10
185.0527169715186
 20
125.2786274522302
 30
0.0
 10
188.7933554749843
 20
125.1884348514081
 30
0.0
 10
192.4785242365296
 20
125.0816643022922
 30
0.0
 10
196.7800418253047
 20
124.9339135204487
 30
0.0
 10
201.7504252859276
 20
124.7287319788277
 30
0.0
 10
207.3685556563069
 20
124.4453736672645
 30
0.0
 10
213.0968582684611
 20
124.0936329486175
 30
0.0
 10
218.6726312200207
 20
123.6768187952691
 30
0.0
 10
223.8470302995508
 20
123.2099643781146
 30
0.0
 10
228.4513587966289
 20
122.7121587516353
 30
0.0
 10
232.4705446208932
 20
122.1921053684045
 30
0.0
 10
236.0264635205527
 20
121.6419305631955
 30
0.0
 10
238.8804813694418
 20
121.1081872336436
 30
0.0
 10
241.1601369111891
 20
120.5960448421099
 30
0.0
 10
242.9460024914003
 20
120.1067352632268
 30
0.0
 10
244.2095898338681
 20
119.6794382377149
 30
0.0
 10
244.9084752630841
 20
119.3656183783173
 30
0.0
 10
244.9469358513488
 20
119.3685273897965
 30
0.0
 10
244.9626712077312
 20
119.3697175518406
 30
0.0
  0
SPLINE
  5
9A
330
1F
100
AcDbEntity
  8
0
  6
Continuous
 62
     7
370
    25
100
AcDbSpline
210
0.0
220
0.0
230
1.0
 70
     8
 71
     3
 72
    13
 73
     9
 74
     0
 42
0.00000001
 43
0.00000001
 40
0.0
 40
0.0
 40
0.0
 40
0.0
 40
0.0751988534463252
 40
0.2757919330911646
 40
0.4501252892286254
 40
0.6449635227689446
 40
0.8603756613364388
 40
0.9999999999999999
 40
0.9999999999999999
 40
0.9999999999999999
 40
0.9999999999999999
 10
234.1148500837831
 20
121.921842147493
 30
0.0
 10
233.6996393749907
 20
121.8235978463541
 30
0.0
 10
232.1768533381035
 20
121.4632866915356
 30
0.0
 10
229.3380012373986
 20
120.8800241966018
 30
0.0
 10
225.5487709182434
 20
120.15656738596
 30
0.0
 10
221.3856427559486
 20
119.4346315617164
 30
0.0
 10
217.2815981441451
 20
118.7743197255047
 30
0.0
 10
214.4863371802252
 20
118.3742942469565
 30
0.0
 10
213.3870516461775
 20
118.2169771923077
 30
0.0
  0
ARC
  5
9B
330
1F
100
AcDbEntity
  8
0
  6
Continuous
 62
     7
370
    25
100
AcDbCircle
 10
149.3958747347
 20
131.2162864051
 30
0.0
 40
7.50000000000001
100
AcDbArc
 50
55.8545400577
 51
150.986331992
  0
SPLINE
  5
9C
330
1F
100
AcDbEntity
  8
0
  6
Continuous
 62
     7
370
    25
100
AcDbSpline
210
0.0
220
0.0
230
1.0
 70
     8
 71
     3
 72
    55
 73
    51
 74
     0
 42
0.00000001
 43
0.00000001
 40
0.0
 40
0.0
 40
0.0
 40
0.0
 40
0.0238060924911371
 40
0.0515392830440547
 40
0.0780591440309169
 40
0.100984123725053
 40
0.1202972221219197
 40
0.1359808392990742
 40
0.1460191473697186
 40
0.1571243769103866
 40
0.1708238964781482
 40
0.1871645122794533
 40
0.2053291835635237
 40
0.2200903871659692
 40
0.2344816668407989
 40
0.2481717950049795
 40
0.2600005201053847
 40
0.2698879799399316
 40
0.2789426292622605
 40
0.294878996296881
 40
0.313438868106357
 40
0.3340457825270245
 40
0.3560375525673387
 40
0.3829573778810826
 40
0.4071957525667082
 40
0.4288872884649149
 40
0.4445140728548008
 40
0.4624445974823155
 40
0.4828292085071333
 40
0.5056571158023436
 40
0.5309188996743759
 40
0.5571482251869644
 40
0.5813605339637388
 40
0.6034826895372756
 40
0.6297438953212514
 40
0.6523419969970641
 40
0.6734978498933138
 40
0.6970161774425796
 40
0.7229591891563827
 40
0.7513233443601782
 40
0.7742537773202199
 40
0.7994056586917708
 40
0.8270064827964381
 40
0.8570393992620531
 40
0.8784146690070181
 40
0.900856945629072
 40
0.9243630089790196
 40
0.9489294538665863
 40
0.9745573487333525
 40
0.9999999999999999
 40
0.9999999999999999
 40
0.9999999999999999
 40
0.9999999999999999
 10
71.05925080652518
 20
114.9522363014501
 30
0.0
 10
69.33879211906464
 20
114.926868792256
 30
0.0
 10
65.61406462371258
 20
114.8719491015524
 30
0.0
 10
60.31122929016584
 20
114.6863609045381
 30
0.0
 10
55.40371595698236
 20
114.4247656713282
 30
0.0
 10
51.36863858962873
 20
114.1184566135223
 30
0.0
 10
48.23335193900448
 20
113.8068295717841
 30
0.0
 10
45.97509802094221
 20
113.5272889388935
 30
0.0
 10
44.23128389394682
 20
113.2743656547189
 30
0.0
 10
42.63769227365169
 20
113.0107050313401
 30
0.0
 10
40.86184754477271
 20
112.6659084357714
 30
0.0
 10
38.95350879539173
 20
112.2122825243014
 30
0.0
 10
37.21237808886323
 20
111.6876590597888
 30
0.0
 10
35.60305436101607
 20
111.0570170531484
 30
0.0
 10
34.20286344994285
 20
110.3388739270738
 30
0.0
 10
32.95462863501793
 20
109.4741112868249
 30
0.0
 10
31.9445106389577
 20
108.5156829680085
 30
0.0
 10
31.13003813563735
 20
107.4535128382621
 30
0.0
 10
30.34048057379039
 20
105.9356298728074
 30
0.0
 10
29.83760263295744
 20
103.8276203108617
 30
0.0
 10
30.22481694563171
 20
101.0209913891053
 30
0.0
 10
31.48461209398495
 20
98.7728130937967
 30
0.0
 10
33.34775490461838
 20
96.86774373800155
 30
0.0
 10
35.6711162005707
 20
95.33804298213286
 30
0.0
 10
38.13777331625055
 20
94.10745344497802
 30
0.0
 10
40.57510680378773
 20
93.09327262113567
 30
0.0
 10
42.94990837451845
 20
92.22056966525794
 30
0.0
 10
45.49417767084719
 20
91.36775770892544
 30
0.0
 10
48.64936294895158
 20
90.40423851934872
 30
0.0
 10
52.51253041278625
 20
89.32727940494016
 30
0.0
 10
57.07148324043558
 20
88.16584876542491
 30
0.0
 10
62.05698670926805
 20
86.99724814101985
 30
0.0
 10
67.09699558351565
 20
85.8978732997506
 30
0.0
 10
72.32432804222493
 20
84.82462830539602
 30
0.0
 10
77.573768548554
 20
83.80860808821721
 30
0.0
 10
82.81794980459576
 20
82.84677199655587
 30
0.0
 10
87.86811175163284
 20
81.96139448950049
 30
0.0
 10
93.13267245211294
 20
81.07862497073957
 30
0.0
 10
98.81914260345062
 20
80.16913030410858
 30
0.0
 10
104.2587098163583
 20
79.34064568215335
 30
0.0
 10
109.3703945455612
 20
78.59566973959858
 30
0.0
 10
114.1088720443807
 20
77.93322129241501
 30
0.0
 10
118.8354974488717
 20
77.30107499379271
 30
0.0
 10
122.8018276878276
 20
76.79536482269673
 30
0.0
 10
125.9839183229187
 20
76.40639806561
 30
0.0
 10
128.4498549873122
 20
76.11606805769408
 30
0.0
 10
130.5362298834707
 20
75.88016457456922
 30
0.0
 10
132.1293182456491
 20
75.70777807523308
 30
0.0
 10
133.173107141765
 20
75.60120890550073
 30
0.0
 10
133.290868227067
 20
75.59105067406067
 30
0.0
 10
133.3495351976197
 20
75.5859899813604
 30
0.0
  0
SPLINE
  5
9D
330
1F
100
AcDbEntity
  8
0
  6
Continuous
 62
     7
370
    25
100
AcDbSpline
210
0.0
220
0.0
230
1.0
 70
     8
 71
     3
 72
    14
 73
    10
 74
     0
 42
0.00000001
 43
0.00000001
 40
0.0
 40
0.0
 40
0.0
 40
0.0
 40
0.070693737283796
 40
0.2394799685894856
 40
0.3960689993987538
 40
0.6081110297426334
 40
0.7929299047194245
 40
0.9505979239879121
 40
1.0
 40
1.0
 40
1.0
 40
1.0
 10
120.9248409943829
 20
89.13506133582777
 30
0.0
 10
120.4962689172614
 20
89.19036598948162
 30
0.0
 10
119.0444510970298
 20
89.3777143633087
 30
0.0
 10
116.3438689215298
 20
89.741227386179
 30
0.0
 10
112.5013696508031
 20
90.27207767994648
 30
0.0
 10
108.2576143091612
 20
90.88050097986346
 30
0.0
 10
103.7751691126642
 20
91.55147959564738
 30
0.0
 10
100.5109572380557
 20
92.05371640687109
 30
0.0
 10
98.73839434937567
 20
92.33806157193958
 30
0.0
 10
98.31550235019962
 20
92.40589967014178
 30
0.0
  0
SPLINE
  5
9E
330
1F
100
AcDbEntity
  8
0
  6
Continuous
 62
     7
370
    25
100
AcDbSpline
210
0.0
220
0.0
230
1.0
 70
     8
 71
     3
 72
    18
 73
    14
 74
     0
 42
0.00000001
 43
0.00000001
 40
0.0
 40
0.0
 40
0.0
 40
0.0
 40
0.0937724282626433
 40
0.2076192897566025
 40
0.3158297865352451
 40
0.4184199954780004
 40
0.5164302579687314
 40
0.6178288562586326
 40
0.697127037806574
 40
0.778878754937716
 40
0.8610452381706495
 40
0.9431495253433831
 40
1.0
 40
1.0
 40
1.0
 40
1.0
 10
71.0592508065252
 20
97.34499209899546
 30
0.0
 10
69.57562247717685
 20
97.65560878323136
 30
0.0
 10
66.29075649141683
 20
98.34333775178257
 30
0.0
 10
61.61532648792046
 20
99.41716226019484
 30
0.0
 10
57.11395994562803
 20
100.5266621623317
 30
0.0
 10
53.20197385671399
 20
101.5806417652915
 30
0.0
 10
49.75148787646423
 20
102.6022021976452
 30
0.0
 10
46.99478928753144
 20
103.5134978904329
 30
0.0
 10
44.80427743939351
 20
104.3264268717633
 30
0.0
 10
43.10006825200522
 20
105.0505786759593
 30
0.0
 10
41.90511543676106
 20
105.6433065372754
 30
0.0
 10
41.2545729865902
 20
106.0479272157336
 30
0.0
 10
41.21606935457238
 20
106.0501969926936
 30
0.0
 10
41.20031638772615
 20
106.0511256251192
 30
0.0
  0
SPLINE
  5
9F
330
1F
100
AcDbEntity
  8
0
  6
Continuous
 62
     7
370
    25
100
AcDbSpline
210
0.0
220
0.0
230
1.0
 70
     8
 71
     3
 72
    13
 73
     9
 74
     0
 42
0.00000001
 43
0.00000001
 40
0.0
 40
0.0
 40
0.0
 40
0.0
 40
0.080592890267487
 40
0.2955745730368418
 40
0.4824129142778149
 40
0.6912269540665695
 40
0.9220906714000839
 40
1.0
 40
1.0
 40
1.0
 40
1.0
 10
51.60844009473306
 20
102.068723838694
 30
0.0
 10
52.03306559312865
 20
102.1104579951541
 30
0.0
 10
53.5903803881717
 20
102.2635180906021
 30
0.0
 10
56.48202292080684
 20
102.46112300894
 30
0.0
 10
60.33306353103605
 20
102.6707233797449
 30
0.0
 10
64.55934140823133
 20
102.8271328017528
 30
0.0
 10
68.19618873651864
 20
102.9231178099624
 30
0.0
 10
70.48239688634513
 20
102.9425883322695
 30
0.0
 10
71.05925080652517
 20
102.9475011164014
 30
0.0
  0
ARC
  5
A0
330
1F
100
AcDbEntity
  8
0
  6
Continuous
 62
     7
370
    25
100
AcDbCircle
 10
134.3185280581
 20
81.5082562529
 30
0.0
 40
7.499999999999994
100
AcDbArc
 50
228.1554703019
 51
331.1220255538
  0
LINE
  5
A1
330
1F
100
AcDbEntity
  8
0
  6
Continuous
 62
     7
370
    25
100
AcDbLine
 10
73.2415085548
 20
114.0970731231
 30
0.0
 11
73.2415085548
 21
110.5361984623
 31
0.0
  0
LINE
  5
A2
330
1F
100
AcDbEntity
  8
0
  6
Continuous
 62
     7
370
    25
100
AcDbLine
 10
101.9292508065
 20
120.4066380245
 30
0.0
 11
82.4105981694
 21
119.3944317904
 31
0.0
  0
LINE
  5
A3
330
1F
100
AcDbEntity
  8
0
  6
Continuous
 62
     7
370
    25
100
AcDbLine
 10
74.6533563985
 20
93.6329808673
 30
0.0
 11
101.9292508065
 21
92.2184964316
 31
0.0
  0
LINE
  5
A4
330
1F
100
AcDbEntity
  8
0
  6
Continuous
 62
     7
370
    25
100
AcDbLine
 10
73.7297407274
 20
118.2281389041
 30
0.0
 11
73.2137254311
 21
117.8125672281
 31
0.0
  0
LINE
  5
A5
330
1F
100
AcDbEntity
  8
0
  6
Continuous
 62
     7
370
    25
100
AcDbLine
 10
73.2137254311
 20
94.8125672281
 30
0.0
 11
74.1907423481
 21
94.0257290072
 31
0.0
  0
ARC
  5
A6
330
1F
100
AcDbEntity
  8
0
  6
Continuous
 62
     7
370
    25
100
AcDbCircle
 10
74.6792508065
 20
94.1323098967
 30
0.0
 40
0.5000000000000019
100
AcDbArc
 50
192.3077052324
 51
267.0313913905
  0
ARC
  5
A7
330
1F
100
AcDbEntity
  8
0
  6
Continuous
 62
     7
370
    25
100
AcDbCircle
 10
71.3592508065
 20
95.1125672281
 30
0.0
 40
0.3000000000000114
100
AcDbArc
 50
180.0
 51
270.0
  0
ARC
  5
A8
330
1F
100
AcDbEntity
  8
0
  6
Continuous
 62
     7
370
    25
100
AcDbCircle
 10
71.3592508065
 20
117.5125672281
 30
0.0
 40
0.3000000000000114
100
AcDbArc
 50
90.0
 51
180.0
  0
LINE
  5
A9
330
1F
100
AcDbEntity
  8
0
  6
Continuous
 62
     7
370
    25
100
AcDbLine
 10
73.2137254311
 20
117.8125672281
 30
0.0
 11
71.3592508065
 21
117.8125672281
 31
0.0
  0
LINE
  5
AA
330
1F
100
AcDbEntity
  8
0
  6
Continuous
 62
     7
370
    25
100
AcDbLine
 10
71.3592508065
 20
94.8125672281
 30
0.0
 11
73.2137254311
 21
94.8125672281
 31
0.0
  0
LINE
  5
AB
330
1F
100
AcDbEntity
  8
0
  6
Continuous
 62
     7
370
    25
100
AcDbLine
 10
74.1879021941
 20
104.7423909432
 30
0.0
 11
74.1817859849
 21
104.8772943921
 31
0.0
  0
LINE
  5
AC
330
1F
100
AcDbEntity
  8
0
  6
Continuous
 62
     7
370
    25
100
AcDbLine
 10
213.8614243227
 20
110.1219137161
 30
0.0
 11
213.8614243227
 21
113.333291214
 31
0.0
  0
LINE
  5
AD
330
1F
100
AcDbEntity
  8
0
  6
Continuous
 62
     7
370
    25
100
AcDbLine
 10
185.173682071
 20
92.2184964316
 30
0.0
 11
212.4495764791
 21
93.6329808673
 31
0.0
  0
LINE
  5
AE
330
1F
100
AcDbEntity
  8
0
  6
Continuous
 62
     7
370
    25
100
AcDbLine
 10
212.4495764791
 20
118.9921535889
 30
0.0
 11
185.173682071
 21
120.4066380245
 31
0.0
  0
LINE
  5
AF
330
1F
100
AcDbEntity
  8
0
  6
Continuous
 62
     7
370
    25
100
AcDbLine
 10
212.9121905294
 20
94.0257290072
 30
0.0
 11
213.8892074464
 21
94.8125672281
 31
0.0
  0
LINE
  5
B0
330
1F
100
AcDbEntity
  8
0
  6
Continuous
 62
     7
370
    25
100
AcDbLine
 10
213.8892074464
 20
117.8125672281
 30
0.0
 11
213.0519534302
 21
118.4868477335
 31
0.0
  0
ARC
  5
B1
330
1F
100
AcDbEntity
  8
0
  6
Continuous
 62
     7
370
    25
100
AcDbCircle
 10
212.423682071
 20
118.4928245594
 30
0.0
 40
0.5000000000000026
100
AcDbArc
 50
44.7917566454
 51
87.0313913905
  0
ARC
  5
B2
330
1F
100
AcDbEntity
  8
0
  6
Continuous
 62
     7
370
    25
100
AcDbCircle
 10
212.423682071
 20
94.1323098967
 30
0.0
 40
0.5000000000000026
100
AcDbArc
 50
272.9686086095
 51
347.6922947676
  0
ARC
  5
B3
330
1F
100
AcDbEntity
  8
0
  6
Continuous
 62
     7
370
    25
100
AcDbCircle
 10
215.743682071
 20
117.5125672281
 30
0.0
 40
0.2999999999999972
100
AcDbArc
 50
0.0
 51
90.0
  0
ARC
  5
B4
330
1F
100
AcDbEntity
  8
0
  6
Continuous
 62
     7
370
    25
100
AcDbCircle
 10
215.743682071
 20
95.1125672281
 30
0.0
 40
0.2999999999999972
100
AcDbArc
 50
270.0
 51
0.0
  0
LINE
  5
B5
330
1F
100
AcDbEntity
  8
0
  6
Continuous
 62
     7
370
    25
100
AcDbLine
 10
213.8892074464
 20
94.8125672281
 30
0.0
 11
215.743682071
 21
94.8125672281
 31
0.0
  0
LINE
  5
B6
330
1F
100
AcDbEntity
  8
0
  6
Continuous
 62
     7
370
    25
100
AcDbLine
 10
215.743682071
 20
117.8125672281
 30
0.0
 11
213.8892074464
 21
117.8125672281
 31
0.0
  0
LINE
  5
B7
330
1F
100
AcDbEntity
  8
0
  6
Continuous
 62
     7
370
    25
100
AcDbLine
 10
212.9211820628
 20
104.6210285108
 30
0.0
 11
212.9174354431
 21
104.4958503976
 31
0.0
  0
LINE
  5
B8
330
1F
100
AcDbEntity
  8
0
  6
Continuous
 62
     7
370
    25
100
AcDbLine
 10
181.7004486086
 20
94.1125672281
 30
0.0
 11
184.3204486086
 21
94.1125672281
 31
0.0
  0
LINE
  5
B9
330
1F
100
AcDbEntity
  8
0
  6
Continuous
 62
     7
370
    25
100
AcDbLine
 10
184.3204486086
 20
118.5125672281
 30
0.0
 11
181.7004486086
 21
118.5125672281
 31
0.0
  0
LINE
  5
BA
330
1F
100
AcDbEntity
  8
0
  6
Continuous
 62
     7
370
    25
100
AcDbLine
 10
184.3204486086
 20
95.1125672281
 30
0.0
 11
185.173682071
 21
95.1125672281
 31
0.0
  0
LINE
  5
BB
330
1F
100
AcDbEntity
  8
0
  6
Continuous
 62
     7
370
    25
100
AcDbLine
 10
185.173682071
 20
117.5125672281
 30
0.0
 11
184.3204486086
 21
117.5125672281
 31
0.0
  0
LINE
  5
BC
330
1F
100
AcDbEntity
  8
0
  6
Continuous
 62
     7
370
    25
100
AcDbLine
 10
181.4365854682
 20
97.0196056621
 30
0.0
 11
181.4664649271
 21
96.9679332536
 31
0.0
  0
SPLINE
  5
BD
330
1F
100
AcDbEntity
  8
0
  6
Continuous
 62
     7
370
    25
100
AcDbSpline
210
0.0
220
0.0
230
1.0
 70
     8
 71
     3
 72
     9
 73
     5
 74
     0
 42
0.00000001
 43
0.00000001
 40
0.0
 40
0.0
 40
0.0
 40
0.0
 40
0.4999819775249091
 40
0.9999999999999999
 40
0.9999999999999999
 40
0.9999999999999999
 40
0.9999999999999999
 10
181.391129382622
 20
114.8427139988547
 30
0.0
 10
181.3128342618482
 20
114.978168022238
 30
0.0
 10
181.1562383758097
 20
115.2490858342236
 30
0.0
 10
180.9996597181481
 20
115.5200047901287
 30
0.0
 10
180.9213675673822
 20
115.6554691507114
 30
0.0
  0
LINE
  5
BE
330
1F
100
AcDbEntity
  8
0
  6
Continuous
 62
     7
370
    25
100
AcDbLine
 10
181.6714286119
 20
96.9697579646
 30
0.0
 11
181.7059192525
 21
97.0294343265
 31
0.0
  0
LINE
  5
BF
330
1F
100
AcDbEntity
  8
0
  6
Continuous
 62
     7
370
    25
100
AcDbLine
 10
181.6145867524
 20
96.9625672281
 30
0.0
 11
181.7004486086
 21
96.9625672281
 31
0.0
  0
SPLINE
  5
C0
330
1F
100
AcDbEntity
  8
0
  6
Continuous
 62
     7
370
    25
100
AcDbSpline
210
0.0
220
0.0
230
1.0
 70
     8
 71
     3
 72
     9
 73
     5
 74
     0
 42
0.00000001
 43
0.00000001
 40
0.0
 40
0.0
 40
0.0
 40
0.0
 40
0.5094805097067069
 40
1.0
 40
1.0
 40
1.0
 40
1.0
 10
181.7557362124022
 20
114.8506683151928
 30
0.0
 10
181.6930314096812
 20
114.8506525779749
 30
0.0
 10
181.5699554499019
 20
114.8506216892215
 30
0.0
 10
181.4468955543437
 20
114.8506523208437
 30
0.0
 10
181.386532277099
 20
114.8506673462515
 30
0.0
  0
LINE
  5
C1
330
1F
100
AcDbEntity
  8
0
  6
Continuous
 62
     7
370
    25
100
AcDbLine
 10
105.2880797169
 20
118.5125672281
 30
0.0
 11
102.6680797169
 21
118.5125672281
 31
0.0
  0
LINE
  5
C2
330
1F
100
AcDbEntity
  8
0
  6
Continuous
 62
     7
370
    25
100
AcDbLine
 10
102.6680797169
 20
94.1125672281
 30
0.0
 11
105.2880797169
 21
94.1125672281
 31
0.0
  0
LINE
  5
C3
330
1F
100
AcDbEntity
  8
0
  6
Continuous
 62
     7
370
    25
100
AcDbLine
 10
102.6680797169
 20
117.5125672281
 30
0.0
 11
101.9292508065
 21
117.5125672281
 31
0.0
  0
LINE
  5
C4
330
1F
100
AcDbEntity
  8
0
  6
Continuous
 62
     7
370
    25
100
AcDbLine
 10
101.9292508065
 20
95.1125672281
 30
0.0
 11
102.6680797169
 21
95.1125672281
 31
0.0
  0
LINE
  5
C5
330
1F
100
AcDbEntity
  8
0
  6
Continuous
 62
     7
370
    25
100
AcDbLine
 10
105.2880797169
 20
97.5918888684
 30
0.0
 11
105.3966225803
 21
97.7798030409
 31
0.0
  0
SPLINE
  5
C6
330
1F
100
AcDbEntity
  8
0
  6
Continuous
 62
     7
370
    25
100
AcDbSpline
210
0.0
220
0.0
230
1.0
 70
     8
 71
     3
 72
     9
 73
     5
 74
     0
 42
0.00000001
 43
0.00000001
 40
0.0
 40
0.0
 40
0.0
 40
0.0
 40
0.4999833221316091
 40
1.0
 40
1.0
 40
1.0
 40
1.0
 10
105.7505830718488
 20
97.78550360092636
 30
0.0
 10
105.8288736887552
 20
97.65006428144298
 30
0.0
 10
105.9854601456244
 20
97.37917660681822
 30
0.0
 10
106.1420308702714
 20
97.10827248570965
 30
0.0
 10
106.2203188438608
 20
96.9728159070521
 30
0.0
  0
LINE
  5
C7
330
1F
100
AcDbEntity
  8
0
  6
Continuous
 62
     7
370
    25
100
AcDbLine
 10
105.470115362
 20
115.6519514402
 30
0.0
 11
105.2880797169
 21
115.3369958552
 31
0.0
  0
SPLINE
  5
C8
330
1F
100
AcDbEntity
  8
0
  6
Continuous
 62
     7
370
    25
100
AcDbSpline
210
0.0
220
0.0
230
1.0
 70
     8
 71
     3
 72
     9
 73
     5
 74
     0
 42
0.00000001
 43
0.00000001
 40
0.0
 40
0.0
 40
0.0
 40
0.0
 40
0.5099720912989508
 40
1.0
 40
1.0
 40
1.0
 40
1.0
 10
105.3880759814587
 20
97.77446633044585
 30
0.0
 10
105.4507875186334
 20
97.77448358698118
 30
0.0
 10
105.5737580463245
 20
97.77451742517671
 30
0.0
 10
105.6967116453622
 20
97.77448388599605
 30
0.0
 10
105.7569623403659
 20
97.7744674508615
 30
0.0
  0
LINE
  5
C9
330
1F
100
AcDbEntity
  8
0
  6
Continuous
 62
     7
370
    25
100
AcDbLine
 10
146.4784511451
 20
91.3242636997
 30
0.0
 11
181.6145867524
 21
91.9375672281
 31
0.0
  0
LINE
  5
CA
330
1F
100
AcDbEntity
  8
0
  6
Continuous
 62
     7
370
    25
100
AcDbLine
 10
181.6145867524
 20
120.6875672281
 30
0.0
 11
146.4784511451
 21
121.3008707564
 31
0.0
  0
LINE
  5
CB
330
1F
100
AcDbEntity
  8
0
  6
Continuous
 62
     7
370
    25
100
AcDbLine
 10
140.4346140685
 20
121.2979713254
 30
0.0
 11
105.4645867524
 21
120.6875672281
 31
0.0
  0
LINE
  5
CC
330
1F
100
AcDbEntity
  8
0
  6
Continuous
 62
     7
370
    25
100
AcDbLine
 10
105.4645867524
 20
91.9375672281
 30
0.0
 11
140.4346140685
 21
91.3271631307
 31
0.0
  0
LINE
  5
CD
330
1F
100
AcDbEntity
  8
0
  6
Continuous
 62
     7
370
    25
100
AcDbLine
 10
138.1087375551
 20
69.1072544667
 30
0.0
 11
138.9474125623
 21
70.0064694322
 31
0.0
  0
SPLINE
  5
CE
330
1F
100
AcDbEntity
  8
0
  6
Continuous
 62
     7
370
    25
100
AcDbSpline
210
0.0
220
0.0
230
1.0
 70
    24
 71
     3
 72
    11
 73
     7
 74
     0
 42
0.00000001
 43
0.00000001
 40
0.0
 40
0.0
 40
0.0
 40
0.0
 40
0.0335577103766656
 40
0.3342690293917783
 40
0.6450301528246554
 40
0.9999999999999999
 40
0.9999999999999999
 40
0.9999999999999999
 40
0.9999999999999999
 10
141.8204597414968
 20
73.08690821727534
 30
0.0
 10
141.8721255437032
 20
73.14230352791643
 30
0.0
 10
142.3867696407654
 20
73.69409733366223
 30
0.0
 10
143.4159573935586
 20
74.79757725344083
 30
0.0
 10
144.9141383071856
 20
76.40390471885836
 30
0.0
 10
145.872899295447
 20
77.43187410106508
 30
0.0
 10
146.3841136695805
 20
77.97999060850269
 30
0.0
  0
LINE
  5
CF
330
1F
100
AcDbEntity
  8
0
  6
Continuous
 62
     7
370
    25
100
AcDbLine
 10
125.4740502274
 20
72.0253376497
 30
0.0
 11
126.6721307346
 21
71.7486312707
 31
0.0
  0
SPLINE
  5
D0
330
1F
100
AcDbEntity
  8
0
  6
Continuous
 62
     7
370
    25
100
AcDbSpline
210
0.0
220
0.0
230
1.0
 70
    24
 71
     3
 72
    11
 73
     7
 74
     0
 42
0.00000001
 43
0.00000001
 40
0.0
 40
0.0
 40
0.0
 40
0.0
 40
0.029698224993054
 40
0.2958246176998582
 40
0.5708449828911969
 40
1.0
 40
1.0
 40
1.0
 40
1.0
 10
130.7763925668266
 20
70.80071881980749
 30
0.0
 10
130.8501972438541
 20
70.7836730329767
 30
0.0
 10
131.5853671191991
 20
70.61387960681095
 30
0.0
 10
133.0566965256536
 20
70.2740641854798
 30
0.0
 10
135.4787357897411
 20
69.71467463654815
 30
0.0
 10
137.1128422246756
 20
69.3372645445244
 30
0.0
 10
138.1087375551134
 20
69.10725446667928
 30
0.0
  0
SPLINE
  5
D1
330
1F
100
AcDbEntity
  8
0
  6
Continuous
 62
     7
370
    25
100
AcDbSpline
210
0.0
220
0.0
230
1.0
 70
    24
 71
     3
 72
    10
 73
     6
 74
     0
 42
0.00000001
 43
0.00000001
 40
0.0
 40
0.0
 40
0.0
 40
0.0
 40
0.2128340742322879
 40
0.6853738540344292
 40
1.0
 40
1.0
 40
1.0
 40
1.0
 10
124.0626026739116
 20
76.64338413108382
 30
0.0
 10
124.1678781156244
 20
76.29893854258741
 30
0.0
 10
124.5068888472572
 20
75.18974584708273
 30
0.0
 10
124.9791970781057
 20
73.64442355843207
 30
0.0
 10
125.3327406797889
 20
72.48768147348174
 30
0.0
 10
125.4740502273534
 20
72.02533764970767
 30
0.0
  0
LINE
  5
D2
330
1F
100
AcDbEntity
  8
0
  6
Continuous
 62
     7
370
    25
100
AcDbLine
 10
143.9784691557
 20
142.99772308
 30
0.0
 11
143.2678224044
 21
141.994256829
 31
0.0
  0
SPLINE
  5
D3
330
1F
100
AcDbEntity
  8
0
  6
Continuous
 62
     7
370
    25
100
AcDbSpline
210
0.0
220
0.0
230
1.0
 70
    24
 71
     3
 72
    11
 73
     7
 74
     0
 42
0.00000001
 43
0.00000001
 40
0.0
 40
0.0
 40
0.0
 40
0.0
 40
0.0429189794356286
 40
0.427516819155968
 40
0.8249679597807874
 40
1.0
 40
1.0
 40
1.0
 40
1.0
 10
140.8333613479726
 20
138.5566846382586
 30
0.0
 10
140.7895789539049
 20
138.4948618623747
 30
0.0
 10
140.3534616441974
 20
137.879043945806
 30
0.0
 10
139.483413990129
 20
136.6504962094107
 30
0.0
 10
138.4928937355482
 20
135.2518355602743
 30
0.0
 10
137.9436504569331
 20
134.4762785163381
 30
0.0
 10
137.7757238263359
 20
134.2391583069611
 30
0.0
  0
LINE
  5
D4
330
1F
100
AcDbEntity
  8
0
  6
Continuous
 62
     7
370
    25
100
AcDbLine
 10
156.8901953988
 20
141.7986155966
 30
0.0
 11
155.6658447579
 21
141.9123206108
 31
0.0
  0
SPLINE
  5
D5
330
1F
100
AcDbEntity
  8
0
  6
Continuous
 62
     7
370
    25
100
AcDbSpline
210
0.0
220
0.0
230
1.0
 70
    24
 71
     3
 72
    11
 73
     7
 74
     0
 42
0.00000001
 43
0.00000001
 40
0.0
 40
0.0
 40
0.0
 40
0.0
 40
0.0296982249931803
 40
0.2958246176999496
 40
0.5708449828912526
 40
0.9999999999999999
 40
0.9999999999999999
 40
0.9999999999999999
 40
0.9999999999999999
 10
151.4715893851637
 20
142.3018396348443
 30
0.0
 10
151.3961664039278
 20
142.3088441406338
 30
0.0
 10
150.6448765677503
 20
142.3786161639732
 30
0.0
 10
149.1412855395961
 20
142.51825413491
 30
0.0
 10
146.6661385797498
 20
142.7481201641504
 30
0.0
 10
144.9962013353519
 20
142.9032066497926
 30
0.0
 10
143.9784691556934
 20
142.9977230800343
 30
0.0
  0
SPLINE
  5
D6
330
1F
100
AcDbEntity
  8
0
  6
Continuous
 62
     7
370
    25
100
AcDbSpline
210
0.0
220
0.0
230
1.0
 70
    24
 71
     3
 72
    10
 73
     6
 74
     0
 42
0.00000001
 43
0.00000001
 40
0.0
 40
0.0
 40
0.0
 40
0.0
 40
0.2128340742324459
 40
0.6853738540344916
 40
1.0
 40
1.0
 40
1.0
 40
1.0
 10
158.9075994120798
 20
137.4112908368665
 30
0.0
 10
158.7571275804519
 20
137.7385276165067
 30
0.0
 10
158.2725742515814
 20
138.7923040555129
 30
0.0
 10
157.5974967270196
 20
140.2604206641514
 30
0.0
 10
157.0921713402056
 20
141.3593708826907
 30
0.0
 10
156.8901953987842
 20
141.7986155966052
 30
0.0
  0
ARC
  5
D7
330
1F
100
AcDbEntity
  8
0
  6
Continuous
 62
     7
370
    25
100
AcDbCircle
 10
149.3958747347
 20
131.2162864051
 30
0.0
 40
6.000000000000025
100
AcDbArc
 50
88.5808473143
 51
142.8191021903
  0
ARC
  5
D8
330
1F
100
AcDbEntity
  8
0
  6
Continuous
 62
     7
370
    25
100
AcDbCircle
 10
149.3958747347
 20
131.2162864051
 30
0.0
 40
6.500000000000029
100
AcDbArc
 50
70.0772313884
 51
145.9190090916
  0
LINE
  5
D9
330
1F
100
AcDbEntity
  8
0
  6
Continuous
 62
     7
370
    25
100
AcDbLine
 10
155.3301365987
 20
142.4465076613
 30
0.0
 11
142.6373487688
 21
141.9706185601
 31
0.0
  0
LINE
  5
DA
330
1F
100
AcDbEntity
  8
0
  6
Continuous
 62
     7
370
    25
100
AcDbLine
 10
158.4977268001
 20
137.4061605016
 30
0.0
 11
155.3301365987
 21
142.4465076613
 31
0.0
  0
LINE
  5
DB
330
1F
100
AcDbEntity
  8
0
  6
Continuous
 62
     7
370
    25
100
AcDbLine
 10
142.6373487688
 20
141.9706185601
 30
0.0
 11
138.6592722053
 21
134.4423562412
 31
0.0
  0
ARC
  5
DC
330
1F
100
AcDbEntity
  8
0
  6
Continuous
 62
     7
370
    25
100
AcDbCircle
 10
134.3185280581
 20
81.5082562529
 30
0.0
 40
5.999999999999998
100
AcDbArc
 50
260.8817775585
 51
325.2355346442
  0
ARC
  5
DD
330
1F
100
AcDbEntity
  8
0
  6
Continuous
 62
     7
370
    25
100
AcDbCircle
 10
134.3185280581
 20
81.5082562529
 30
0.0
 40
6.500000000000019
100
AcDbArc
 50
242.3781616326
 51
327.4291751218
  0
LINE
  5
DE
330
1F
100
AcDbEntity
  8
0
  6
Continuous
 62
     7
370
    25
100
AcDbLine
 10
126.9332475202
 20
71.1742848619
 30
0.0
 11
139.5753695357
 21
69.9454299975
 31
0.0
  0
LINE
  5
DF
330
1F
100
AcDbEntity
  8
0
  6
Continuous
 62
     7
370
    25
100
AcDbLine
 10
124.4694677495
 20
76.5935575451
 30
0.0
 11
126.9332475202
 21
71.1742848619
 31
0.0
  0
LINE
  5
E0
330
1F
100
AcDbEntity
  8
0
  6
Continuous
 62
     7
370
    25
100
AcDbLine
 10
139.5753695357
 20
69.9454299975
 30
0.0
 11
145.1963518871
 21
77.8106790575
 31
0.0
  0
ARC
  5
E1
330
1F
100
AcDbEntity
  8
0
  6
Continuous
 62
     7
370
    25
100
AcDbCircle
 10
75.7373473
 20
105.024474336
 30
0.0
 40
7.04524736567091
100
AcDbArc
 50
87.1380396668
 51
102.7769208817
  0
LWPOLYLINE
  5
E2
330
1F
100
AcDbEntity
  8
0
  6
Continuous
 62
     7
370
    25
100
AcDbPolyline
 90
        9
 70
   128
 43
0.0
 10
88.6074301997
 20
109.697518791
 10
87.9533379892
 20
110.1394051904
 10
86.9788332744
 20
110.556168215
 10
85.7062265412
 20
110.9382664173
 10
84.1646530767
 20
111.2769519724
 10
82.3894059409
 20
111.5644709524
 10
80.4211279604
 20
111.7942408461
 10
78.3048812451
 20
111.9610012603
 10
76.0891155272
 20
112.0609343521
  0
LWPOLYLINE
  5
E3
330
1F
100
AcDbEntity
  8
0
  6
Continuous
 62
     7
370
    25
100
AcDbPolyline
 90
        9
 70
   128
 43
0.0
 10
101.2726220001
 20
106.7522877315
 10
98.9761395231
 20
106.9570263244
 10
96.8237093013
 20
107.2185826682
 10
94.8491665154
 20
107.5328452214
 10
93.0835500401
 20
107.8948739258
 10
91.5546145278
 20
108.2989778622
 10
90.2863941185
 20
108.7388047087
 10
89.2988246347
 20
109.2074405962
 10
88.6074301997
 20
109.697518791
  0
ARC
  5
E4
330
1F
100
AcDbEntity
  8
0
  6
Continuous
 62
     7
370
    25
100
AcDbCircle
 10
101.3819480072
 20
105.9038028704
 30
0.0
 40
0.8554991147092218
100
AcDbArc
 50
50.2270602879
 51
97.3420233441
  0
LINE
  5
E5
330
1F
100
AcDbEntity
  8
0
  6
Continuous
 62
     7
370
    25
100
AcDbLine
 10
101.9292508065
 20
105.2189837402
 30
0.0
 11
101.9292508065
 21
106.5613273043
 31
0.0
  0
LINE
  5
E6
330
1F
100
AcDbEntity
  8
0
  6
Continuous
 62
     7
370
    25
100
AcDbLine
 10
74.6274619904
 20
104.9146429831
 30
0.0
 11
101.9292508065
 21
105.2189837402
 31
0.0
  0
SPLINE
  5
E7
330
1F
100
AcDbEntity
  8
0
  6
Continuous
 62
     7
370
    25
100
AcDbSpline
210
0.0
220
0.0
230
1.0
 70
     8
 71
     3
 72
     9
 73
     5
 74
     0
 42
0.00000001
 43
0.00000001
 40
0.0
 40
0.0
 40
0.0
 40
0.0
 40
0.319090608546276
 40
1.0
 40
1.0
 40
1.0
 40
1.0
 10
74.17925080652519
 20
104.8859320939129
 30
0.0
 10
74.22333834405445
 20
104.8909817787981
 30
0.0
 10
74.36150454621917
 20
104.9068070169903
 30
0.0
 10
74.51972690222989
 20
104.9114687591066
 30
0.0
 10
74.62746199037555
 20
104.9146429830942
 30
0.0
  0
LINE
  5
E8
330
1F
100
AcDbEntity
  8
0
  6
Continuous
 62
     7
370
    25
100
AcDbLine
 10
74.1792508065
 20
104.8859320939
 30
0.0
 11
74.1792508065
 21
111.8952709245
 31
0.0
  0
SPLINE
  5
E9
330
1F
100
AcDbEntity
  8
0
  6
Continuous
 62
     7
370
    25
100
AcDbSpline
210
0.0
220
0.0
230
1.0
 70
     8
 71
     3
 72
    10
 73
     6
 74
     0
 42
0.00000001
 43
0.00000001
 40
0.0
 40
0.0
 40
0.0
 40
0.0
 40
0.6754403570339765
 40
0.9255657459022093
 40
1.0
 40
1.0
 40
1.0
 40
1.0
 10
74.17925080652519
 20
111.8952709245406
 30
0.0
 10
74.08017869173052
 20
112.0705650040399
 30
0.0
 10
73.94441873176793
 20
112.3107730309284
 30
0.0
 10
73.85247910867909
 20
112.474555896296
 30
0.0
 10
73.83216938197235
 20
112.5017663384343
 30
0.0
 10
73.82751156517007
 20
112.5080067599042
 30
0.0
  0
LINE
  5
EA
330
1F
100
AcDbEntity
  8
0
  6
Continuous
 62
     7
370
    25
100
AcDbLine
 10
73.8275115652
 20
112.5080067599
 30
0.0
 11
73.8275115652
 21
118.7634984028
 31
0.0
  0
SPLINE
  5
EB
330
1F
100
AcDbEntity
  8
0
  6
Continuous
 62
     7
370
    25
100
AcDbSpline
210
0.0
220
0.0
230
1.0
 70
     8
 71
     3
 72
     9
 73
     5
 74
     0
 42
0.00000001
 43
0.00000001
 40
0.0
 40
0.0
 40
0.0
 40
0.0
 40
0.3946348614555809
 40
0.9999999999999999
 40
0.9999999999999999
 40
0.9999999999999999
 40
0.9999999999999999
 10
73.82751156517007
 20
118.7634984027978
 30
0.0
 10
73.85868555378866
 20
118.8721559913406
 30
0.0
 10
73.93768006659883
 20
119.1474930159057
 30
0.0
 10
74.08815719739376
 20
119.5092004615824
 30
0.0
 10
74.17925080652519
 20
119.728165539547
 30
0.0
  0
ARC
  5
EC
330
1F
100
AcDbEntity
  8
0
  6
Continuous
 62
     7
370
    25
100
AcDbCircle
 10
75.7373473
 20
112.857368951
 30
0.0
 40
7.04524736567036
100
AcDbArc
 50
87.1380396668
 51
102.7769208817
  0
LINE
  5
ED
330
1F
100
AcDbEntity
  8
0
  6
Continuous
 62
     7
370
    25
100
AcDbLine
 10
76.0891155272
 20
119.8938289671
 30
0.0
 11
76.0891155272
 21
112.0609343521
 31
0.0
  0
LINE
  5
EE
330
1F
100
AcDbEntity
  8
0
  6
Continuous
 62
     7
370
    25
100
AcDbLine
 10
88.6074301997
 20
117.530413406
 30
0.0
 11
88.6074301997
 21
109.697518791
 31
0.0
  0
LWPOLYLINE
  5
EF
330
1F
100
AcDbEntity
  8
0
  6
Continuous
 62
     7
370
    25
100
AcDbPolyline
 90
        9
 70
   128
 43
0.0
 10
76.0891155272
 20
119.8938289671
 10
78.3048812451
 20
119.7938958753
 10
80.4211279604
 20
119.6271354611
 10
82.3894059409
 20
119.3973655674
 10
84.1646530767
 20
119.1098465874
 10
85.7062265412
 20
118.7711610323
 10
86.9788332744
 20
118.38906283
 10
87.9533379892
 20
117.9722998054
 10
88.6074301997
 20
117.530413406
  0
SPLINE
  5
F0
330
1F
100
AcDbEntity
  8
0
  6
Continuous
 62
     7
370
    25
100
AcDbSpline
210
0.0
220
0.0
230
1.0
 70
     8
 71
     3
 72
    25
 73
    21
 74
     0
 42
0.00000001
 43
0.00000001
 40
0.0
 40
0.0
 40
0.0
 40
0.0
 40
0.4148573598990562
 40
0.4496769257725275
 40
0.4678155697173949
 40
0.4791961299301026
 40
0.486499248956567
 40
0.491222417497459
 40
0.4943031976304199
 40
0.4963408991486036
 40
0.4983987690570055
 40
0.4991520515016158
 40
0.4999138975343522
 40
0.5005698425296736
 40
0.5014559077305891
 40
0.5038278152241055
 40
0.5143812730596805
 40
0.5562638582030331
 40
0.7237604427820121
 40
1.0
 40
1.0
 40
1.0
 40
1.0
 10
73.82751156517007
 20
112.5080067599042
 30
0.0
 10
73.57499223583869
 20
112.9176597154519
 30
0.0
 10
73.3012786014958
 20
113.3616954238438
 30
0.0
 10
73.25017022681956
 20
113.8562221309137
 30
0.0
 10
73.24528142903873
 20
113.9259486494291
 30
0.0
 10
73.2433463402607
 20
113.9676232860788
 30
0.0
 10
73.2424402672295
 20
113.9961647249429
 30
0.0
 10
73.24199435988785
 20
114.0169044047192
 30
0.0
 10
73.24176314846092
 20
114.0328397327405
 30
0.0
 10
73.2416256528364
 20
114.047273172578
 30
0.0
 10
73.24155083755049
 20
114.0601741494345
 30
0.0
 10
73.24151529963987
 20
114.074446089223
 30
0.0
 10
73.24150588048742
 20
114.0856113103732
 30
0.0
 10
73.24151355687916
 20
114.0986506418342
 30
0.0
 10
73.2415513201756
 20
114.1193768065751
 30
0.0
 10
73.24177143659392
 20
114.1786573863779
 30
0.0
 10
73.24323099542555
 20
114.3590804378886
 30
0.0
 10
73.2582701925621
 20
115.0522369288635
 30
0.0
 10
73.35703875956068
 20
116.564460067157
 30
0.0
 10
73.64700102893605
 20
117.9197735701765
 30
0.0
 10
73.82751156517007
 20
118.7634984027978
 30
0.0
  0
LINE
  5
F1
330
1F
100
AcDbEntity
  8
0
  6
Continuous
 62
     7
370
    25
100
AcDbLine
 10
74.1799565263
 20
104.8755686792
 30
0.0
 11
74.1792508065
 21
104.8859320939
 31
0.0
  0
LINE
  5
F2
330
1F
100
AcDbEntity
  8
0
  6
Continuous
 62
     7
370
    25
100
AcDbLine
 10
74.1796982335
 20
104.8328761209
 30
0.0
 11
74.1799565263
 21
104.8755686792
 31
0.0
  0
SPLINE
  5
F3
330
1F
100
AcDbEntity
  8
0
  6
Continuous
 62
     7
370
    25
100
AcDbSpline
210
0.0
220
0.0
230
1.0
 70
     8
 71
     3
 72
    14
 73
    10
 74
     0
 42
0.00000001
 43
0.00000001
 40
0.0
 40
0.0
 40
0.0
 40
0.0
 40
0.4541128638753106
 40
0.9111704221317743
 40
0.9426819806645491
 40
0.9636030445491809
 40
0.9846479471445826
 40
0.9930547201104964
 40
1.0
 40
1.0
 40
1.0
 40
1.0
 10
74.17925080652518
 20
104.8337781516583
 30
0.0
 10
73.94816033969138
 20
105.6471446366554
 30
0.0
 10
73.48448090013827
 20
107.2791518807537
 30
0.0
 10
73.29589594283185
 20
108.9534524159758
 30
0.0
 10
73.25112604305268
 20
110.0420044350495
 30
0.0
 10
73.24586966215385
 20
110.2142144265195
 30
0.0
 10
73.24300442086958
 20
110.3481821613129
 30
0.0
 10
73.24167734758389
 20
110.4632024291844
 30
0.0
 10
73.24156156286867
 20
110.5134613102072
 30
0.0
 10
73.2415091817792
 20
110.5361984645751
 30
0.0
  0
LINE
  5
F4
330
1F
100
AcDbEntity
  8
0
  6
Continuous
 62
     7
370
    25
100
AcDbLine
 10
101.2726220001
 20
106.7522877315
 30
0.0
 11
101.2726220001
 21
114.5851823465
 31
0.0
  0
LWPOLYLINE
  5
F5
330
1F
100
AcDbEntity
  8
0
  6
Continuous
 62
     7
370
    25
100
AcDbPolyline
 90
        9
 70
   128
 43
0.0
 10
88.6074301997
 20
117.530413406
 10
89.2988246347
 20
117.0403352112
 10
90.2863941185
 20
116.5716993237
 10
91.5546145278
 20
116.1318724772
 10
93.0835500401
 20
115.7277685408
 10
94.8491665154
 20
115.3657398364
 10
96.8237093013
 20
115.0514772832
 10
98.9761395231
 20
114.7899209394
 10
101.2726220001
 20
114.5851823465
  0
LINE
  5
F6
330
1F
100
AcDbEntity
  8
0
  6
Continuous
 62
     7
370
    25
100
AcDbLine
 10
101.9292508065
 20
114.3942219193
 30
0.0
 11
101.9292508065
 21
106.5613273043
 31
0.0
  0
ARC
  5
F7
330
1F
100
AcDbEntity
  8
0
  6
Continuous
 62
     7
370
    25
100
AcDbCircle
 10
101.3819480072
 20
113.7366974854
 30
0.0
 40
0.8554991147092654
100
AcDbArc
 50
50.2270602879
 51
97.3420233441
  0
SPLINE
  5
F8
330
1F
100
AcDbEntity
  8
0
  6
Continuous
 62
     7
370
    25
100
AcDbSpline
210
0.0
220
0.0
230
1.0
 70
     8
 71
     3
 72
    11
 73
     7
 74
     0
 42
0.00000001
 43
0.00000001
 40
0.0
 40
0.0
 40
0.0
 40
0.0
 40
0.0366078402557414
 40
0.1830392013805609
 40
0.7687646538305766
 40
1.0
 40
1.0
 40
1.0
 40
1.0
 10
101.9292508065252
 20
104.7833194668968
 30
0.0
 10
101.5964086332362
 20
104.7798205289837
 30
0.0
 10
99.93219776586548
 20
104.7623258394086
 30
0.0
 10
92.94253222932225
 20
104.6888495593461
 30
0.0
 10
84.18338150511919
 20
104.5967773971785
 30
0.0
 10
76.7557097275477
 20
104.5187000843328
 30
0.0
 10
74.65335639845037
 20
104.4966008177654
 30
0.0
  0
LINE
  5
F9
330
1F
100
AcDbEntity
  8
0
  6
Continuous
 62
     7
370
    25
100
AcDbLine
 10
101.9292508065
 20
114.3942219193
 30
0.0
 11
101.9292508065
 21
120.4066380245
 31
0.0
  0
LINE
  5
FA
330
1F
100
AcDbEntity
  8
0
  6
Continuous
 62
     7
370
    25
100
AcDbLine
 10
101.9292508065
 20
92.2184964316
 30
0.0
 11
101.9292508065
 21
104.7833194669
 31
0.0
  0
LINE
  5
FB
330
1F
100
AcDbEntity
  8
0
  6
Continuous
 62
     7
370
    25
100
AcDbLine
 10
73.2137254311
 20
112.18904162
 30
0.0
 11
73.2137254311
 21
117.8125672281
 31
0.0
  0
LINE
  5
FC
330
1F
100
AcDbEntity
  8
0
  6
Continuous
 62
     7
370
    25
100
AcDbLine
 10
73.2137254311
 20
94.8125672281
 30
0.0
 11
73.2137254311
 21
112.18904162
 31
0.0
  0
LINE
  5
FD
330
1F
100
AcDbEntity
  8
0
  6
Continuous
 62
     7
370
    25
100
AcDbLine
 10
74.1907423481
 20
104.7582195837
 30
0.0
 11
74.1907423481
 21
94.0257290072
 31
0.0
  0
SPLINE
  5
FE
330
1F
100
AcDbEntity
  8
0
  6
Continuous
 62
     7
370
    25
100
AcDbSpline
210
0.0
220
0.0
230
1.0
 70
     8
 71
     3
 72
    10
 73
     6
 74
     0
 42
0.00000001
 43
0.00000001
 40
0.0
 40
0.0
 40
0.0
 40
0.0
 40
0.14441819160569
 40
0.5759361571407138
 40
1.0
 40
1.0
 40
1.0
 40
1.0
 10
73.31969643374151
 20
109.3313919250553
 30
0.0
 10
73.2882690477755
 20
109.1053809295793
 30
0.0
 10
73.16293741399032
 20
108.204054699423
 30
0.0
 10
73.38977077373072
 20
106.59959739372
 30
0.0
 10
73.9176237410641
 20
105.3671061001732
 30
0.0
 10
74.17925080652518
 20
104.7562293972043
 30
0.0
  0
ARC
  5
FF
330
1F
100
AcDbEntity
  8
0
  6
Continuous
 62
     7
370
    25
100
AcDbCircle
 10
71.6659813131
 20
104.5213796021
 30
0.0
 40
2.98747784744312
100
AcDbArc
 50
359.5247710231
 51
7.5642132291
  0
SPLINE
  5
100
330
1F
100
AcDbEntity
  8
0
  6
Continuous
 62
     7
370
    25
100
AcDbSpline
210
0.0
220
0.0
230
1.0
 70
    24
 71
     3
 72
    11
 73
     7
 74
     0
 42
0.00000001
 43
0.00000001
 40
0.0
 40
0.0
 40
0.0
 40
0.0
 40
0.2685623617429086
 40
0.5371309581871079
 40
0.8055187602133432
 40
1.0
 40
1.0
 40
1.0
 40
1.0
 10
101.9292508065252
 20
105.218983740237
 30
0.0
 10
101.9292508065252
 20
105.2021012189571
 30
0.0
 10
101.9292508065252
 20
105.168335784468
 30
0.0
 10
101.9292508065252
 20
105.0532074186574
 30
0.0
 10
101.9292508065252
 20
104.9191533243801
 30
0.0
 10
101.9292508065252
 20
104.8235067730375
 30
0.0
 10
101.9292508065252
 20
104.7833194668968
 30
0.0
  0
SPLINE
  5
101
330
1F
100
AcDbEntity
  8
0
  6
Continuous
 62
     7
370
    25
100
AcDbSpline
210
0.0
220
0.0
230
1.0
 70
     8
 71
     3
 72
    10
 73
     6
 74
     0
 42
0.00000001
 43
0.00000001
 40
0.0
 40
0.0
 40
0.0
 40
0.0
 40
0.3886742854966003
 40
0.7913457497910599
 40
1.0
 40
1.0
 40
1.0
 40
1.0
 10
74.65335639845037
 20
104.4966008177654
 30
0.0
 10
74.59956710006405
 20
104.4921542429981
 30
0.0
 10
74.4900514098046
 20
104.4831009606623
 30
0.0
 10
74.37478522468166
 20
104.4436053126167
 30
0.0
 10
74.32225550118078
 20
104.4129979856549
 30
0.0
 10
74.30432635177529
 20
104.4025512651806
 30
0.0
  0
LINE
  5
102
330
1F
100
AcDbEntity
  8
0
  6
Continuous
 62
     7
370
    25
100
AcDbLine
 10
71.0592508065
 20
108.589778993
 30
0.0
 11
71.0592508065
 21
117.5125672281
 31
0.0
  0
LINE
  5
103
330
1F
100
AcDbEntity
  8
0
  6
Continuous
 62
     7
370
    25
100
AcDbLine
 10
71.0592508065
 20
95.1125672281
 30
0.0
 11
71.0592508065
 21
108.589778993
 31
0.0
  0
SPLINE
  5
104
330
1F
100
AcDbEntity
  8
0
  6
Continuous
 62
     7
370
    25
100
AcDbSpline
210
0.0
220
0.0
230
1.0
 70
     8
 71
     3
 72
     9
 73
     5
 74
     0
 42
0.00000001
 43
0.00000001
 40
0.0
 40
0.0
 40
0.0
 40
0.0
 40
0.1857380603239487
 40
1.0
 40
1.0
 40
1.0
 40
1.0
 10
74.17941471626602
 20
104.7970094057609
 30
0.0
 10
74.17896546695219
 20
104.8032193741337
 30
0.0
 10
74.17654674182374
 20
104.8366533852459
 30
0.0
 10
74.17842617524082
 20
104.8581030409209
 30
0.0
 10
74.17995652634049
 20
104.8755686791562
 30
0.0
  0
SPLINE
  5
105
330
1F
100
AcDbEntity
  8
0
  6
Continuous
 62
     7
370
    25
100
AcDbSpline
210
0.0
220
0.0
230
1.0
 70
     8
 71
     3
 72
    11
 73
     7
 74
     0
 42
0.00000001
 43
0.00000001
 40
0.0
 40
0.0
 40
0.0
 40
0.0
 40
0.2532502248893154
 40
0.5081816079101434
 40
0.7376638860085344
 40
1.0
 40
1.0
 40
1.0
 40
1.0
 10
74.30432635177529
 20
104.4025512651806
 30
0.0
 10
74.29130088600054
 20
104.4425933771619
 30
0.0
 10
74.26516348713312
 20
104.522943413809
 30
0.0
 10
74.22037785734932
 20
104.6337693120574
 30
0.0
 10
74.18902966032907
 20
104.7281519245329
 30
0.0
 10
74.18275931878634
 20
104.7730570141767
 30
0.0
 10
74.17941471626604
 20
104.7970094057609
 30
0.0
  0
SPLINE
  5
106
330
1F
100
AcDbEntity
  8
0
  6
Continuous
 62
     7
370
    25
100
AcDbSpline
210
0.0
220
0.0
230
1.0
 70
     8
 71
     3
 72
    10
 73
     6
 74
     0
 42
0.00000001
 43
0.00000001
 40
0.0
 40
0.0
 40
0.0
 40
0.0
 40
0.6754403570339808
 40
0.9255657459022107
 40
1.0
 40
1.0
 40
1.0
 40
1.0
 10
212.9236820709887
 20
118.8121408614307
 30
0.0
 10
213.0227541857834
 20
118.5742976715671
 30
0.0
 10
213.158514145746
 20
118.2483776889345
 30
0.0
 10
213.2504537688348
 20
117.9534970544477
 30
0.0
 10
213.2707634955415
 20
117.8787175274492
 30
0.0
 10
213.2754213123438
 20
117.8615676493465
 30
0.0
  0
LINE
  5
107
330
1F
100
AcDbEntity
  8
0
  6
Continuous
 62
     7
370
    25
100
AcDbLine
 10
213.2754213123
 20
117.8615676493
 30
0.0
 11
213.2754213123
 21
111.5809646396
 31
0.0
  0
SPLINE
  5
108
330
1F
100
AcDbEntity
  8
0
  6
Continuous
 62
     7
370
    25
100
AcDbSpline
210
0.0
220
0.0
230
1.0
 70
     8
 71
     3
 72
     9
 73
     5
 74
     0
 42
0.00000001
 43
0.00000001
 40
0.0
 40
0.0
 40
0.0
 40
0.0
 40
0.3946348614555767
 40
0.9999999999999999
 40
0.9999999999999999
 40
0.9999999999999999
 40
0.9999999999999999
 10
213.2754213123438
 20
111.5809646395777
 30
0.0
 10
213.2442473237252
 20
111.5264123737545
 30
0.0
 10
213.165252810915
 20
111.3881775872433
 30
0.0
 10
213.0147756801201
 20
111.1138631322634
 30
0.0
 10
212.9236820709887
 20
110.9478027242199
 30
0.0
  0
ARC
  5
109
330
1F
100
AcDbEntity
  8
0
  6
Continuous
 62
     7
370
    25
100
AcDbCircle
 10
211.366129522
 20
103.3195937833
 30
0.0
 40
7.785598345010029
100
AcDbArc
 50
78.4597896074
 51
92.5936216069
  0
LINE
  5
10A
330
1F
100
AcDbEntity
  8
0
  6
Continuous
 62
     7
370
    25
100
AcDbLine
 10
211.0138173503
 20
111.0972166671
 30
0.0
 11
211.0138173503
 21
118.9615548043
 31
0.0
  0
ARC
  5
10B
330
1F
100
AcDbEntity
  8
0
  6
Continuous
 62
     7
370
    25
100
AcDbCircle
 10
211.366129522
 20
111.1839319205
 30
0.0
 40
7.785598345009395
100
AcDbArc
 50
78.4597896074
 51
92.5936216069
  0
LINE
  5
10C
330
1F
100
AcDbEntity
  8
0
  6
Continuous
 62
     7
370
    25
100
AcDbLine
 10
185.173682071
 20
104.9263747803
 30
0.0
 11
185.173682071
 21
106.137051437
 31
0.0
  0
ARC
  5
10D
330
1F
100
AcDbEntity
  8
0
  6
Continuous
 62
     7
370
    25
100
AcDbCircle
 10
185.7173430583
 20
105.4021532065
 30
0.0
 40
0.9141349343739122
100
AcDbArc
 50
82.9013016817
 51
126.4931932787
  0
LWPOLYLINE
  5
10E
330
1F
100
AcDbEntity
  8
0
  6
Continuous
 62
     7
370
    25
100
AcDbPolyline
 90
        9
 70
   128
 43
0.0
 10
198.4955026778
 20
108.965622248
 10
197.8041082428
 20
108.5236145189
 10
196.816538759
 20
108.1009458783
 10
195.5483183497
 20
107.7042604766
 10
194.0193828374
 20
107.3397940197
 10
192.2537663621
 20
107.0132757473
 10
190.2792235762
 20
106.7298383716
 10
188.1267933544
 20
106.4939373934
 10
185.8303108774
 20
106.3092810641
  0
LWPOLYLINE
  5
10F
330
1F
100
AcDbEntity
  8
0
  6
Continuous
 62
     7
370
    25
100
AcDbPolyline
 90
        9
 70
   128
 43
0.0
 10
211.0138173503
 20
111.0972166671
 10
208.7980516325
 20
111.0070857463
 10
206.6818049171
 20
110.8566824173
 10
204.7135269366
 20
110.6494500409
 10
202.9382798008
 20
110.3901330324
 10
201.3967063363
 20
110.0846682419
 10
200.1240996031
 20
109.7400490353
 10
199.1495948883
 20
109.3641651865
 10
198.4955026778
 20
108.965622248
  0
LINE
  5
110
330
1F
100
AcDbEntity
  8
0
  6
Continuous
 62
     7
370
    25
100
AcDbLine
 10
212.923682071
 20
104.6259912836
 30
0.0
 11
212.923682071
 21
110.9478027242
 31
0.0
  0
SPLINE
  5
111
330
1F
100
AcDbEntity
  8
0
  6
Continuous
 62
     7
370
    25
100
AcDbSpline
210
0.0
220
0.0
230
1.0
 70
     8
 71
     3
 72
     9
 73
     5
 74
     0
 42
0.00000001
 43
0.00000001
 40
0.0
 40
0.0
 40
0.0
 40
0.0
 40
0.6809093914537298
 40
1.0
 40
1.0
 40
1.0
 40
1.0
 10
212.4754708871383
 20
104.6518859980422
 30
0.0
 10
212.583205975284
 20
104.6490231252372
 30
0.0
 10
212.7414283312947
 20
104.6448186409974
 30
0.0
 10
212.8795945334594
 20
104.6305456582994
 30
0.0
 10
212.9236820709887
 20
104.6259912835645
 30
0.0
  0
LINE
  5
112
330
1F
100
AcDbEntity
  8
0
  6
Continuous
 62
     7
370
    25
100
AcDbLine
 10
185.173682071
 20
104.9263747803
 30
0.0
 11
212.4754708871
 21
104.651885998
 31
0.0
  0
LINE
  5
113
330
1F
100
AcDbEntity
  8
0
  6
Continuous
 62
     7
370
    25
100
AcDbLine
 10
198.4955026778
 20
108.965622248
 30
0.0
 11
198.4955026778
 21
116.8299603852
 31
0.0
  0
LWPOLYLINE
  5
114
330
1F
100
AcDbEntity
  8
0
  6
Continuous
 62
     7
370
    25
100
AcDbPolyline
 90
        9
 70
   128
 43
0.0
 10
198.4955026778
 20
116.8299603852
 10
199.1495948883
 20
117.2285033237
 10
200.1240996031
 20
117.6043871725
 10
201.3967063363
 20
117.9490063791
 10
202.9382798008
 20
118.2544711696
 10
204.7135269366
 20
118.5137881781
 10
206.6818049171
 20
118.7210205545
 10
208.7980516325
 20
118.8714238835
 10
211.0138173503
 20
118.9615548043
  0
SPLINE
  5
115
330
1F
100
AcDbEntity
  8
0
  6
Continuous
 62
     7
370
    25
100
AcDbSpline
210
0.0
220
0.0
230
1.0
 70
     8
 71
     3
 72
    25
 73
    21
 74
     0
 42
0.00000001
 43
0.00000001
 40
0.0
 40
0.0
 40
0.0
 40
0.0
 40
0.4148573598990561
 40
0.4496769257725273
 40
0.4678155697173949
 40
0.4791961299301031
 40
0.4864992489565667
 40
0.4912224174974589
 40
0.4943031976304201
 40
0.4963408991486039
 40
0.4983987690570057
 40
0.4991520515016151
 40
0.4999138975343519
 40
0.5005698425296736
 40
0.5014559077305885
 40
0.5038278152241055
 40
0.5143812730596807
 40
0.5562638582030333
 40
0.7237604427820116
 40
1.0
 40
1.0
 40
1.0
 40
1.0
 10
213.2754213123438
 20
117.8615676493465
 30
0.0
 10
213.5279406416753
 20
116.6300962365452
 30
0.0
 10
213.8016542760182
 20
115.2952656836535
 30
0.0
 10
213.8527626506943
 20
113.8740365733295
 30
0.0
 10
213.8576514484752
 20
113.6771172922808
 30
0.0
 10
213.8595865372531
 20
113.5629144415182
 30
0.0
 10
213.8604926102844
 20
113.4885806326133
 30
0.0
 10
213.860938517626
 20
113.4386816286587
 30
0.0
 10
213.861169729053
 20
113.4041527779057
 30
0.0
 10
213.8613072246775
 20
113.3767965311155
 30
0.0
 10
213.8613820399634
 20
113.3557563017262
 30
0.0
 10
213.861417577874
 20
113.3372683125607
 30
0.0
 10
213.8614269970265
 20
113.3249207823277
 30
0.0
 10
213.8614193206348
 20
113.3127564718168
 30
0.0
 10
213.8613815573383
 20
113.2963965299532
 30
0.0
 10
213.8611614409199
 20
113.2605120334135
 30
0.0
 10
213.8597018820884
 20
113.186386178754
 30
0.0
 10
213.8446626849517
 20
112.9238329249519
 30
0.0
 10
213.7458941179533
 20
112.3676866618789
 30
0.0
 10
213.4559318485778
 20
111.8828133594601
 30
0.0
 10
213.2754213123438
 20
111.5809646395777
 30
0.0
  0
SPLINE
  5
116
330
1F
100
AcDbEntity
  8
0
  6
Continuous
 62
     7
370
    25
100
AcDbSpline
210
0.0
220
0.0
230
1.0
 70
     8
 71
     3
 72
    14
 73
    10
 74
     0
 42
0.00000001
 43
0.00000001
 40
0.0
 40
0.0
 40
0.0
 40
0.0
 40
0.0000175135370874
 40
0.0069938626184594
 40
0.0168446849316858
 40
0.0428841124694374
 40
0.1584568887180178
 40
0.6173384070249814
 40
0.9999999999999999
 40
0.9999999999999999
 40
0.9999999999999999
 40
0.9999999999999999
 10
213.8614236957347
 20
110.1219137137863
 30
0.0
 10
213.8614239046763
 20
110.1218602272812
 30
0.0
 10
213.8615073434822
 20
110.1005009058035
 30
0.0
 10
213.86115130231
 20
110.042644139987
 30
0.0
 10
213.8596571617018
 20
109.9109100701123
 30
0.0
 10
213.8502365426312
 20
109.5312019776096
 30
0.0
 10
213.7874178002819
 20
108.4007501544426
 30
0.0
 10
213.5590982408742
 20
106.6785348840882
 30
0.0
 10
213.1223002946607
 20
105.2352397557923
 30
0.0
 10
212.9236820709887
 20
104.5789529826936
 30
0.0
  0
LINE
  5
117
330
1F
100
AcDbEntity
  8
0
  6
Continuous
 62
     7
370
    25
100
AcDbLine
 10
212.9231620358
 20
104.5889696763
 30
0.0
 11
212.9229785361
 21
104.6165190271
 31
0.0
  0
LINE
  5
118
330
1F
100
AcDbEntity
  8
0
  6
Continuous
 62
     7
370
    25
100
AcDbLine
 10
212.923682071
 20
104.6259912836
 30
0.0
 11
212.9229785361
 21
104.6165190271
 31
0.0
  0
LINE
  5
119
330
1F
100
AcDbEntity
  8
0
  6
Continuous
 62
     7
370
    25
100
AcDbLine
 10
185.8303108774
 20
114.1736192013
 30
0.0
 11
185.8303108774
 21
106.3092810641
 31
0.0
  0
LWPOLYLINE
  5
11A
330
1F
100
AcDbEntity
  8
0
  6
Continuous
 62
     7
370
    25
100
AcDbPolyline
 90
        9
 70
   128
 43
0.0
 10
185.8303108774
 20
114.1736192013
 10
188.1267933544
 20
114.3582755306
 10
190.2792235762
 20
114.5941765088
 10
192.2537663621
 20
114.8776138845
 10
194.0193828374
 20
115.2041321569
 10
195.5483183497
 20
115.5685986138
 10
196.816538759
 20
115.9652840155
 10
197.8041082428
 20
116.3879526561
 10
198.4955026778
 20
116.8299603852
  0
LINE
  5
11B
330
1F
100
AcDbEntity
  8
0
  6
Continuous
 62
     7
370
    25
100
AcDbLine
 10
185.173682071
 20
106.137051437
 30
0.0
 11
185.173682071
 21
114.0013895742
 31
0.0
  0
ARC
  5
11C
330
1F
100
AcDbEntity
  8
0
  6
Continuous
 62
     7
370
    25
100
AcDbCircle
 10
185.7173430583
 20
113.2664913437
 30
0.0
 40
0.9141349343737778
100
AcDbArc
 50
82.9013016817
 51
126.4931932787
  0
SPLINE
  5
11D
330
1F
100
AcDbEntity
  8
0
  6
Continuous
 62
     7
370
    25
100
AcDbSpline
210
0.0
220
0.0
230
1.0
 70
     8
 71
     3
 72
    11
 73
     7
 74
     0
 42
0.00000001
 43
0.00000001
 40
0.0
 40
0.0
 40
0.0
 40
0.0
 40
0.0366078403521587
 40
0.1830392019359819
 40
0.9173822561535676
 40
1.0
 40
1.0
 40
1.0
 40
1.0
 10
212.4495764790635
 20
104.2419085336938
 30
0.0
 10
212.1167448359935
 20
104.2450417380029
 30
0.0
 10
210.4525866190509
 20
104.2607077595633
 30
0.0
 10
202.1118863334991
 20
104.3392365610037
 30
0.0
 10
193.3527373898951
 20
104.4217544374995
 30
0.0
 10
185.9248506079884
 20
104.4917710049607
 30
0.0
 10
185.1736820709887
 20
104.4988516517301
 30
0.0
  0
LINE
  5
11E
330
1F
100
AcDbEntity
  8
0
  6
Continuous
 62
     7
370
    25
100
AcDbLine
 10
185.173682071
 20
104.4988516517
 30
0.0
 11
185.173682071
 21
92.2184964316
 31
0.0
  0
LINE
  5
11F
330
1F
100
AcDbEntity
  8
0
  6
Continuous
 62
     7
370
    25
100
AcDbLine
 10
185.173682071
 20
120.4066380245
 30
0.0
 11
185.173682071
 21
114.0013895742
 31
0.0
  0
LINE
  5
120
330
1F
100
AcDbEntity
  8
0
  6
Continuous
 62
     7
370
    25
100
AcDbLine
 10
213.8892074464
 20
104.6261889602
 30
0.0
 11
213.8892074464
 21
94.8125672281
 31
0.0
  0
LINE
  5
121
330
1F
100
AcDbEntity
  8
0
  6
Continuous
 62
     7
370
    25
100
AcDbLine
 10
213.8892074464
 20
117.8125672281
 30
0.0
 11
213.8892074464
 21
104.6261889602
 31
0.0
  0
LINE
  5
122
330
1F
100
AcDbEntity
  8
0
  6
Continuous
 62
     7
370
    25
100
AcDbLine
 10
212.9121905294
 20
94.0257290072
 30
0.0
 11
212.9121905294
 21
104.5108057536
 31
0.0
  0
SPLINE
  5
123
330
1F
100
AcDbEntity
  8
0
  6
Continuous
 62
     7
370
    25
100
AcDbSpline
210
0.0
220
0.0
230
1.0
 70
     8
 71
     3
 72
    10
 73
     6
 74
     0
 42
0.00000001
 43
0.00000001
 40
0.0
 40
0.0
 40
0.0
 40
0.0
 40
0.440974757979776
 40
0.889704898265692
 40
0.9999999999999999
 40
0.9999999999999999
 40
0.9999999999999999
 40
0.9999999999999999
 10
212.9236820709887
 20
104.5090107791617
 30
0.0
 10
213.1847904331282
 20
105.1240185933739
 30
0.0
 10
213.7115992460359
 20
106.3648503073772
 30
0.0
 10
213.9395400636352
 20
107.9173746372617
 30
0.0
 10
213.8260015302205
 20
108.7637587215082
 30
0.0
 10
213.803600495075
 20
108.9307494254359
 30
0.0
  0
ARC
  5
124
330
1F
100
AcDbEntity
  8
0
  6
Continuous
 62
     7
370
    25
100
AcDbCircle
 10
215.2383906819
 20
104.2715719393
 30
0.0
 40
2.788971956710869
100
AcDbArc
 50
172.162526437
 51
180.6094073438
  0
SPLINE
  5
125
330
1F
100
AcDbEntity
  8
0
  6
Continuous
 62
     7
370
    25
100
AcDbSpline
210
0.0
220
0.0
230
1.0
 70
    24
 71
     3
 72
    11
 73
     7
 74
     0
 42
0.00000001
 43
0.00000001
 40
0.0
 40
0.0
 40
0.0
 40
0.0
 40
0.2678294908269614
 40
0.5356481876059335
 40
0.8037407732521104
 40
1.0
 40
1.0
 40
1.0
 40
1.0
 10
185.1736820709887
 20
104.4988516517301
 30
0.0
 10
185.1736820709887
 20
104.5539361804167
 30
0.0
 10
185.1736820709887
 20
104.6641030177767
 30
0.0
 10
185.1736820709887
 20
104.8007180387221
 30
0.0
 10
185.1736820709887
 20
104.891149651177
 30
0.0
 10
185.1736820709887
 20
104.915909837734
 30
0.0
 10
185.1736820709887
 20
104.9263747803445
 30
0.0
  0
SPLINE
  5
126
330
1F
100
AcDbEntity
  8
0
  6
Continuous
 62
     7
370
    25
100
AcDbSpline
210
0.0
220
0.0
230
1.0
 70
     8
 71
     3
 72
    10
 73
     6
 74
     0
 42
0.00000001
 43
0.00000001
 40
0.0
 40
0.0
 40
0.0
 40
0.0
 40
0.2086586666312808
 40
0.6113278836561498
 40
0.9999999999999999
 40
0.9999999999999999
 40
0.9999999999999999
 40
0.9999999999999999
 10
212.7986078829994
 20
104.1516270272102
 30
0.0
 10
212.7806783200157
 20
104.1616595832766
 30
0.0
 10
212.7281483102603
 20
104.191052952681
 30
0.0
 10
212.612881463463
 20
104.228956712617
 30
0.0
 10
212.5033657760512
 20
104.2376424707013
 30
0.0
 10
212.4495764790635
 20
104.2419085336938
 30
0.0
  0
LINE
  5
127
330
1F
100
AcDbEntity
  8
0
  6
Continuous
 62
     7
370
    25
100
AcDbLine
 10
216.043682071
 20
108.366413352
 30
0.0
 11
216.043682071
 21
95.1125672281
 31
0.0
  0
LINE
  5
128
330
1F
100
AcDbEntity
  8
0
  6
Continuous
 62
     7
370
    25
100
AcDbLine
 10
216.043682071
 20
117.5125672281
 30
0.0
 11
216.043682071
 21
108.366413352
 31
0.0
  0
LINE
  5
129
330
1F
100
AcDbEntity
  8
0
  6
Continuous
 62
     7
370
    25
100
AcDbLine
 10
212.9229785361
 20
104.6165190271
 30
0.0
 11
212.9235185036
 21
104.5417555857
 31
0.0
  0
SPLINE
  5
12A
330
1F
100
AcDbEntity
  8
0
  6
Continuous
 62
     7
370
    25
100
AcDbSpline
210
0.0
220
0.0
230
1.0
 70
     8
 71
     3
 72
    12
 73
     8
 74
     0
 42
0.00000001
 43
0.00000001
 40
0.0
 40
0.0
 40
0.0
 40
0.0
 40
0.1037874894511063
 40
0.3668584250859569
 40
0.6320463796789662
 40
0.8639469897218278
 40
1.0
 40
1.0
 40
1.0
 40
1.0
 10
212.9235185035949
 20
104.5417555857127
 30
0.0
 10
212.9225294101756
 20
104.5330413401371
 30
0.0
 10
212.9190332541747
 20
104.5022390302964
 30
0.0
 10
212.9017813477102
 20
104.4347716823317
 30
0.0
 10
212.8616166232313
 20
104.3298896907191
 30
0.0
 10
212.8230403564863
 20
104.2310228347805
 30
0.0
 10
212.8052032556876
 20
104.1730593615639
 30
0.0
 10
212.7986078829986
 20
104.1516270272104
 30
0.0
  0
LINE
  5
12B
330
1F
100
AcDbEntity
  8
0
  6
Continuous
 62
     7
370
    25
100
AcDbLine
 10
184.3204486086
 20
94.1125672281
 30
0.0
 11
184.3204486086
 21
118.5125672281
 31
0.0
  0
LINE
  5
12C
330
1F
100
AcDbEntity
  8
0
  6
Continuous
 62
     7
370
    25
100
AcDbLine
 10
181.7004486086
 20
94.1125672281
 30
0.0
 11
181.7004486086
 21
118.5125672281
 31
0.0
  0
SPLINE
  5
12D
330
1F
100
AcDbEntity
  8
0
  6
Continuous
 62
     7
370
    25
100
AcDbSpline
210
0.0
220
0.0
230
1.0
 70
     8
 71
     3
 72
    13
 73
     9
 74
     0
 42
0.00000001
 43
0.00000001
 40
0.0
 40
0.0
 40
0.0
 40
0.0
 40
0.037280784434869
 40
0.2424227879052309
 40
0.444088731503139
 40
0.645695557277212
 40
0.8508375566224993
 40
1.0
 40
1.0
 40
1.0
 40
1.0
 10
181.391484709258
 20
114.7991137781671
 30
0.0
 10
181.3952533401998
 20
114.8068340739069
 30
0.0
 10
181.4197593164916
 20
114.8570362261704
 30
0.0
 10
181.4680340820839
 20
114.3785672534116
 30
0.0
 10
181.5289250976038
 20
113.3665931078637
 30
0.0
 10
181.5899313101784
 20
111.820548207592
 30
0.0
 10
181.649838761016
 20
110.0928628862787
 30
0.0
 10
181.6854543979602
 20
108.8297565893091
 30
0.0
 10
181.7004486085555
 20
108.2979878650628
 30
0.0
  0
SPLINE
  5
12E
330
1F
100
AcDbEntity
  8
0
  6
Continuous
 62
     7
370
    25
100
AcDbSpline
210
0.0
220
0.0
230
1.0
 70
     8
 71
     3
 72
     9
 73
     5
 74
     0
 42
0.00000001
 43
0.00000001
 40
0.0
 40
0.0
 40
0.0
 40
0.0
 40
0.1739687524191254
 40
1.0
 40
1.0
 40
1.0
 40
1.0
 10
181.6145867523705
 20
97.19048135823651
 30
0.0
 10
181.6173662788895
 20
97.15579938194915
 30
0.0
 10
181.6333434384675
 20
96.95644187777053
 30
0.0
 10
181.6493192489564
 20
96.9994474216813
 30
0.0
 10
181.6625157676256
 20
97.0349713447708
 30
0.0
  0
LINE
  5
12F
330
1F
100
AcDbEntity
  8
0
  6
Continuous
 62
     7
370
    25
100
AcDbLine
 10
102.6680797169
 20
118.5125672281
 30
0.0
 11
102.6680797169
 21
94.1125672281
 31
0.0
  0
LINE
  5
130
330
1F
100
AcDbEntity
  8
0
  6
Continuous
 62
     7
370
    25
100
AcDbLine
 10
105.2880797169
 20
118.5125672281
 30
0.0
 11
105.2880797169
 21
94.1125672281
 31
0.0
  0
SPLINE
  5
131
330
1F
100
AcDbEntity
  8
0
  6
Continuous
 62
     7
370
    25
100
AcDbSpline
210
0.0
220
0.0
230
1.0
 70
     8
 71
     3
 72
     9
 73
     5
 74
     0
 42
0.00000001
 43
0.00000001
 40
0.0
 40
0.0
 40
0.0
 40
0.0
 40
0.5372025156710041
 40
0.9999999999999999
 40
0.9999999999999999
 40
0.9999999999999999
 40
0.9999999999999999
 10
105.3880765398983
 20
97.81380403638421
 30
0.0
 10
105.369718438662
 20
97.8276825050171
 30
0.0
 10
105.3355449180607
 20
97.85351721023166
 30
0.0
 10
105.3030966799205
 20
98.33150800465326
 30
0.0
 10
105.2880797169384
 20
98.55272094184402
 30
0.0
  0
SPLINE
  5
132
330
1F
100
AcDbEntity
  8
0
  6
Continuous
 62
     7
370
    25
100
AcDbSpline
210
0.0
220
0.0
230
1.0
 70
     8
 71
     3
 72
    15
 73
    11
 74
     0
 42
0.00000001
 43
0.00000001
 40
0.0
 40
0.0
 40
0.0
 40
0.0
 40
0.089247588249881
 40
0.223704383381523
 40
0.3581229907000363
 40
0.4948980062398092
 40
0.6293554167302546
 40
0.7637734113958715
 40
0.9005484241853196
 40
1.0
 40
1.0
 40
1.0
 40
1.0
 10
105.7507080910803
 20
97.85281094349524
 30
0.0
 10
105.7365447770645
 20
97.87535230462852
 30
0.0
 10
105.7010435888456
 20
97.93185356580301
 30
0.0
 10
105.6470441036373
 20
98.68103313435033
 30
0.0
 10
105.5860718874978
 20
99.9603182323042
 30
0.0
 10
105.5206426334415
 20
101.6971557667494
 30
0.0
 10
105.4595637737442
 20
103.7442035355659
 30
0.0
 10
105.398607854078
 20
105.9593770764719
 30
0.0
 10
105.3386876840505
 20
108.0319161907626
 30
0.0
 10
105.3030733704183
 20
109.2329387242249
 30
0.0
 10
105.2880797169384
 20
109.7385701361991
 30
0.0
  0
SPLINE
  5
133
330
1F
100
AcDbEntity
  8
0
  6
Continuous
 62
     7
370
    25
100
AcDbSpline
210
0.0
220
0.0
230
1.0
 70
     8
 71
     3
 72
    16
 73
    12
 74
     0
 42
0.00000001
 43
0.00000001
 40
0.0
 40
0.0
 40
0.0
 40
0.0
 40
0.0867201763665541
 40
0.2028660779702728
 40
0.3190119795636565
 40
0.433503495792059
 40
0.5495784611378689
 40
0.6656716867025787
 40
0.7840188502207842
 40
0.9023660138065861
 40
0.9999999999999999
 40
0.9999999999999999
 40
0.9999999999999999
 40
0.9999999999999999
 10
144.2729296297403
 20
119.5548692850429
 30
0.0
 10
144.8356690213709
 20
119.5225741320302
 30
0.0
 10
146.1520954642431
 20
119.4470254961344
 30
0.0
 10
148.1769698634467
 20
118.9514016159905
 30
0.0
 10
150.2614563446799
 20
118.0791391001964
 30
0.0
 10
152.1688873844355
 20
116.8628958851479
 30
0.0
 10
153.8444140351424
 20
115.3458264736302
 30
0.0
 10
155.2697144948298
 20
113.5578903063288
 30
0.0
 10
156.3764716493949
 20
111.5431352118219
 30
0.0
 10
157.121970390173
 20
109.489439079706
 30
0.0
 10
157.3417052383558
 20
108.1024141600578
 30
0.0
 10
157.4410360788279
 20
107.4754114239705
 30
0.0
  0
SPLINE
  5
134
330
1F
100
AcDbEntity
  8
0
  6
Continuous
 62
     7
370
    25
100
AcDbSpline
210
0.0
220
0.0
230
1.0
 70
     8
 71
     3
 72
    17
 73
    13
 74
     0
 42
0.00000001
 43
0.00000001
 40
0.0
 40
0.0
 40
0.0
 40
0.0
 40
0.0305264138928424
 40
0.1531659047023636
 40
0.2605510823154316
 40
0.3679362599284997
 40
0.4753214375415672
 40
0.5827066151546348
 40
0.6900917927677025
 40
0.7974769703807704
 40
0.8987384851903817
 40
1.0
 40
1.0
 40
1.0
 40
1.0
 10
156.7818888093424
 20
105.5792243507017
 30
0.0
 10
156.790412561668
 20
105.7907854526896
 30
0.0
 10
156.8331803836925
 20
106.8522906691085
 30
0.0
 10
156.664115714922
 20
108.6659975848372
 30
0.0
 10
156.0373348160587
 20
110.9304194188872
 30
0.0
 10
155.0871781172285
 20
112.9651183850572
 30
0.0
 10
153.8036157718993
 20
114.8069327719698
 30
0.0
 10
152.2343463229591
 20
116.4121422066919
 30
0.0
 10
150.4134025958704
 20
117.7266679244744
 30
0.0
 10
148.4390415353035
 20
118.6978074402863
 30
0.0
 10
146.3732211614694
 20
119.3395145865877
 30
0.0
 10
144.9730268069833
 20
119.4830843855579
 30
0.0
 10
144.2729296297403
 20
119.5548692850429
 30
0.0
  0
SPLINE
  5
135
330
1F
100
AcDbEntity
  8
0
  6
Continuous
 62
     7
370
    25
100
AcDbSpline
210
0.0
220
0.0
230
1.0
 70
     8
 71
     3
 72
    39
 73
    35
 74
     0
 42
0.00000001
 43
0.00000001
 40
0.0
 40
0.0
 40
0.0
 40
0.0
 40
0.0231991446411367
 40
0.0553768293013755
 40
0.0875545139615473
 40
0.1197338809560759
 40
0.1519119142865488
 40
0.184031997362307
 40
0.2161520804377525
 40
0.2480969694291852
 40
0.2800418584210332
 40
0.3119949856452915
 40
0.3439478556304999
 40
0.3756698027925721
 40
0.4073917499548646
 40
0.4391085607192536
 40
0.470823838277183
 40
0.502391425597597
 40
0.5339590129179697
 40
0.5654402727175323
 40
0.5969200953625414
 40
0.6283325350921339
 40
0.6597449748214198
 40
0.6909914777028577
 40
0.7222379805847581
 40
0.7534932005563182
 40
0.7847484108430846
 40
0.8157624750192625
 40
0.8467765391957064
 40
0.8777953524456844
 40
0.908812713506198
 40
0.9396724130098048
 40
0.9705321125134024
 40
1.0
 40
1.0
 40
1.0
 40
1.0
 10
152.5471406360424
 20
116.9646314896472
 30
0.0
 10
152.1007513964705
 20
117.3091373416909
 30
0.0
 10
151.03521121798
 20
118.131479805478
 30
0.0
 10
149.1353103970245
 20
119.1153616708449
 30
0.0
 10
146.9034557045575
 20
119.8599398029333
 30
0.0
 10
144.5736792856686
 20
120.206357249533
 30
0.0
 10
142.2208507737387
 20
120.1657666960243
 30
0.0
 10
139.9114220497011
 20
119.7200696638181
 30
0.0
 10
137.7128314641196
 20
118.9008132335788
 30
0.0
 10
135.6915696406704
 20
117.7180931980687
 30
0.0
 10
133.8951659374355
 20
116.2219698433626
 30
0.0
 10
132.3825158855088
 20
114.4390407538607
 30
0.0
 10
131.189056150618
 20
112.4346843062287
 30
0.0
 10
130.3603344303301
 20
110.2603398182334
 30
0.0
 10
129.9016658130834
 20
107.9849403789758
 30
0.0
 10
129.8397192498715
 20
105.6647143410692
 30
0.0
 10
130.1615382261389
 20
103.3697398719386
 30
0.0
 10
130.8731251585737
 20
101.16821209217
 30
0.0
 10
131.9353018128347
 20
99.11922601147016
 30
0.0
 10
133.3316755731866
 20
97.28440127531327
 30
0.0
 10
135.0085887703074
 20
95.70718079636848
 30
0.0
 10
136.9309572735331
 20
94.44370633766357
 30
0.0
 10
139.0305012849711
 20
93.51760239450493
 30
0.0
 10
141.2538895585423
 20
92.96712531389495
 30
0.0
 10
143.533729243398
 20
92.78961203359454
 30
0.0
 10
145.810457790452
 20
93.00698533849813
 30
0.0
 10
148.0141806559699
 20
93.59745678912041
 30
0.0
 10
150.0779339231643
 20
94.55559746087972
 30
0.0
 10
151.9514370052731
 20
95.83679257295728
 30
0.0
 10
153.577236250781
 20
97.42023017338889
 30
0.0
 10
154.9185790338105
 20
99.24773519589743
 30
0.0
 10
155.9160164299912
 20
101.2756008012617
 30
0.0
 10
156.5800202833559
 20
103.403784081465
 30
0.0
 10
156.7156422746978
 20
104.8653172249674
 30
0.0
 10
156.7818888093424
 20
105.5792243507017
 30
0.0
  0
ARC
  5
136
330
1F
100
AcDbEntity
  8
0
  6
Continuous
 62
     7
370
    25
100
AcDbCircle
 10
143.5395867524
 20
106.3125672281
 30
0.0
 40
13.95
100
AcDbArc
 50
4.7816104728
 51
49.7816114787
  0
CIRCLE
  5
137
330
1F
100
AcDbEntity
  8
0
  6
Continuous
 62
     7
370
    25
100
AcDbCircle
 10
143.5395867524
 20
106.3125672281
 30
0.0
 40
12.94999999999999
  0
CIRCLE
  5
138
330
1F
100
AcDbEntity
  8
0
  6
Continuous
 62
     7
370
    25
100
AcDbCircle
 10
143.5395867524
 20
106.3125672281
 30
0.0
 40
11.80000000000001
  0
CIRCLE
  5
139
330
1F
100
AcDbEntity
  8
0
  6
Continuous
 62
     7
370
    25
100
AcDbCircle
 10
143.5395867524
 20
106.3125672281
 30
0.0
 40
11.0
  0
SPLINE
  5
13A
330
1F
100
AcDbEntity
  8
0
  6
Continuous
 62
     7
370
    25
100
AcDbSpline
210
0.0
220
0.0
230
1.0
 70
     8
 71
     3
 72
    24
 73
    20
 74
     0
 42
0.00000001
 43
0.00000001
 40
0.0
 40
0.0
 40
0.0
 40
0.0
 40
0.0545013519633004
 40
0.1102669740643705
 40
0.1724190271156926
 40
0.2337613017810607
 40
0.2964346319732948
 40
0.358016283820792
 40
0.4198870625092816
 40
0.4825069250743111
 40
0.5437202794999573
 40
0.6060772741016196
 40
0.6684205793034612
 40
0.7296406645649205
 40
0.792266308366477
 40
0.8541157752681128
 40
0.9157174775406055
 40
0.9783885585797311
 40
1.0
 40
1.0
 40
1.0
 40
1.0
 10
157.4410360788279
 20
107.4754114239705
 30
0.0
 10
157.4523049574415
 20
106.2880360282517
 30
0.0
 10
157.4751041193165
 20
103.8857416401683
 30
0.0
 10
156.2996434331234
 20
100.2735245460632
 30
0.0
 10
154.1659200683644
 20
96.97239990252925
 30
0.0
 10
151.0467294037065
 20
94.32242986486166
 30
0.0
 10
147.3140611238533
 20
92.67761137566775
 30
0.0
 10
143.2562046692793
 20
92.17040316692264
 30
0.0
 10
139.2226822187361
 20
92.83877489752429
 30
0.0
 10
135.5563540764167
 20
94.63415815342535
 30
0.0
 10
132.5498029810234
 20
97.40654300397928
 30
0.0
 10
130.4593297449299
 20
100.9176813987851
 30
0.0
 10
129.4667976082498
 20
104.8813633410369
 30
0.0
 10
129.6445299768135
 20
108.9683562842914
 30
0.0
 10
130.9795609186807
 20
112.8217065704095
 30
0.0
 10
133.3675482493259
 20
116.1558309061649
 30
0.0
 10
136.6086714163609
 20
118.5953431103004
 30
0.0
 10
139.5842705276276
 20
119.9286181833675
 30
0.0
 10
141.4146398476261
 20
120.0112245966445
 30
0.0
 10
141.8839770029736
 20
120.0324062557759
 30
0.0
  0
LINE
  5
13B
330
1F
100
AcDbEntity
  8
0
  6
Continuous
 62
     7
370
    25
100
AcDbLine
 10
133.7366382158
 20
96.3876138282
 30
0.0
 11
133.7366380889
 21
96.3876139535
 31
0.0
  0
LINE
  5
13C
330
1F
100
AcDbEntity
  8
0
  6
Continuous
 62
     7
370
    25
100
AcDbLine
 10
129.2786275721
 20
106.1536282328
 30
0.0
 11
129.2777735804
 21
106.3125669422
 31
0.0
  0
LINE
  5
13D
330
1F
100
AcDbEntity
  8
0
  6
Continuous
 62
     7
370
    25
100
AcDbLine
 10
129.2786275728
 20
106.4715062233
 30
0.0
 11
129.2777735805
 21
106.312566942
 31
0.0
  0
ARC
  5
13E
330
1F
100
AcDbEntity
  8
0
  6
Continuous
 62
     7
370
    25
100
AcDbCircle
 10
143.5395867524
 20
106.3125672281
 30
0.0
 40
14.26193247962749
100
AcDbArc
 50
0.6128120369
 51
179.3614625431
  0
LINE
  5
13F
330
1F
100
AcDbEntity
  8
0
  6
Continuous
 62
     7
370
    25
100
AcDbLine
 10
157.801391466
 20
106.312567241
 30
0.0
 11
157.8005480331
 21
106.4651024072
 31
0.0
  0
LINE
  5
140
330
1F
100
AcDbEntity
  8
0
  6
Continuous
 62
     7
370
    25
100
AcDbLine
 10
157.801391466
 20
106.3125672408
 30
0.0
 11
157.8005480322
 21
106.1600320489
 31
0.0
  0
ARC
  5
141
330
1F
100
AcDbEntity
  8
0
  6
Continuous
 62
     7
370
    25
100
AcDbCircle
 10
143.5395867524
 20
106.3125672281
 30
0.0
 40
14.26193247962749
100
AcDbArc
 50
180.6385374569
 51
359.3871879631
  0
SPLINE
  5
142
330
1F
100
AcDbEntity
  8
0
  6
Continuous
 62
     7
370
    25
100
AcDbSpline
210
0.0
220
0.0
230
1.0
 70
    24
 71
     3
 72
    16
 73
    12
 74
     0
 42
0.00000001
 43
0.00000001
 40
0.0
 40
0.0
 40
0.0
 40
0.0
 40
0.1099879912248382
 40
0.219976032262462
 40
0.330648897152288
 40
0.4413217889206556
 40
0.5520034349993322
 40
0.6626850720501284
 40
0.7733689756605199
 40
0.8840528382275862
 40
1.0
 40
1.0
 40
1.0
 40
1.0
 10
157.8013387296938
 20
106.3125672280709
 30
0.0
 10
157.8760428842065
 20
106.3125672280709
 30
0.0
 10
158.0254512270647
 20
106.312567228071
 30
0.0
 10
158.842066514989
 20
106.3125672280711
 30
0.0
 10
160.0851091838829
 20
106.3125672280711
 30
0.0
 10
161.7491362093347
 20
106.3125672280711
 30
0.0
 10
163.7886310243983
 20
106.3125672280711
 30
0.0
 10
166.13484226131
 20
106.3125672280711
 30
0.0
 10
168.7319864311982
 20
106.3125672280711
 30
0.0
 10
171.5409706118428
 20
106.3125672280711
 30
0.0
 10
173.4967099808088
 20
106.3125672280711
 30
0.0
 10
174.497289798418
 20
106.3125672280711
 30
0.0
  0
SPLINE
  5
143
330
1F
100
AcDbEntity
  8
0
  6
Continuous
 62
     7
370
    25
100
AcDbSpline
210
0.0
220
0.0
230
1.0
 70
     8
 71
     3
 72
    16
 73
    12
 74
     0
 42
0.00000001
 43
0.00000001
 40
0.0
 40
0.0
 40
0.0
 40
0.0
 40
0.1100411413352014
 40
0.2200823309614551
 40
0.3307547907291054
 40
0.4414272768718582
 40
0.5521082724343654
 40
0.6627892599790259
 40
0.7734725549476257
 40
0.8841558108834379
 40
1.0
 40
1.0
 40
1.0
 40
1.0
 10
112.5818653645354
 20
106.3125672331093
 30
0.0
 10
113.531127881265
 20
106.3125672323297
 30
0.0
 10
115.4296533313037
 20
106.3125672307705
 30
0.0
 10
118.1939538149581
 20
106.3125672273431
 30
0.0
 10
120.7939129071205
 20
106.3125672282666
 30
0.0
 10
123.1623036675348
 20
106.3125672280187
 30
0.0
 10
125.2150083168717
 20
106.3125672280851
 30
0.0
 10
126.9106839948679
 20
106.3125672280673
 30
0.0
 10
128.1735137784989
 20
106.3125672280721
 30
0.0
 10
129.0417511166861
 20
106.3125672280708
 30
0.0
 10
129.1979487314029
 20
106.312567228071
 30
0.0
 10
129.2778268495472
 20
106.3125672280711
 30
0.0
  0
CIRCLE
  5
144
330
1F
100
AcDbEntity
  8
0
  6
Continuous
 62
     7
370
    25
100
AcDbCircle
 10
143.5395867524
 20
106.3125672281
 30
0.0
 40
7.550000000000011
  0
SPLINE
  5
145
330
1F
100
AcDbEntity
  8
0
  6
Continuous
 62
     7
370
    25
100
AcDbSpline
210
0.0
220
0.0
230
1.0
 70
     8
 71
     3
 72
    17
 73
    13
 74
     0
 42
0.00000001
 43
0.00000001
 40
0.0
 40
0.0
 40
0.0
 40
0.0
 40
0.0794397444885867
 40
0.2808393915127717
 40
0.364857060043448
 40
0.4497073655440386
 40
0.4998725528298558
 40
0.5584273743492436
 40
0.6320406526876432
 40
0.752805387022529
 40
0.8761125532589924
 40
1.0
 40
1.0
 40
1.0
 40
1.0
 10
150.3202867879498
 20
102.9922348610489
 30
0.0
 10
150.051143246861
 20
103.0871829226248
 30
0.0
 10
149.0996534252916
 20
103.4228480989158
 30
0.0
 10
147.9141584705592
 20
104.0375537289643
 30
0.0
 10
146.9331952658174
 20
104.948701934741
 30
0.0
 10
146.5202784557678
 20
105.6446017430617
 30
0.0
 10
146.4079709300028
 20
106.3427201803832
 30
0.0
 10
146.5323630408924
 20
107.0011355931089
 30
0.0
 10
147.0120316192339
 20
107.7933355510551
 30
0.0
 10
147.8993428902822
 20
108.5396333422536
 30
0.0
 10
149.0638163864573
 20
109.1786521142763
 30
0.0
 10
149.9008083845351
 20
109.4812469912739
 30
0.0
 10
150.3202867879498
 20
109.6328995950932
 30
0.0
  0
SPLINE
  5
146
330
1F
100
AcDbEntity
  8
0
  6
Continuous
 62
     7
370
    25
100
AcDbSpline
210
0.0
220
0.0
230
1.0
 70
     8
 71
     3
 72
    17
 73
    13
 74
     0
 42
0.00000001
 43
0.00000001
 40
0.0
 40
0.0
 40
0.0
 40
0.0
 40
0.0789963632748941
 40
0.2805312709641472
 40
0.3646157793396397
 40
0.44953296733533
 40
0.4998721216603794
 40
0.5584269936612046
 40
0.6320403354632768
 40
0.7528051739121742
 40
0.8761124464545283
 40
1.0
 40
1.0
 40
1.0
 40
1.0
 10
136.758886716808
 20
102.9922348610571
 30
0.0
 10
137.0265375454016
 20
103.0866272046331
 30
0.0
 10
137.9770170865761
 20
103.4218325611192
 30
0.0
 10
139.1620021757563
 20
104.0355364370541
 30
0.0
 10
140.1443054532478
 20
104.9466415730538
 30
0.0
 10
140.5584631588174
 20
105.6430952298283
 30
0.0
 10
140.6713259930685
 20
106.3420949844263
 30
0.0
 10
140.5468087405031
 20
107.0011345613891
 30
0.0
 10
140.067142756479
 20
107.7933360724821
 30
0.0
 10
139.1798303299682
 20
108.5396331719367
 30
0.0
 10
138.0153571904221
 20
109.1786521574577
 30
0.0
 10
137.1783651442989
 20
109.4812470056855
 30
0.0
 10
136.758886716808
 20
109.6328995950851
 30
0.0
  0
LINE
  5
147
330
1F
100
AcDbEntity
  8
0
  6
Continuous
 62
     7
370
    25
100
AcDbLine
 10
181.6145867524
 20
120.6875672281
 30
0.0
 11
181.6145867524
 21
91.9375672281
 31
0.0
  0
LINE
  5
148
330
1F
100
AcDbEntity
  8
0
  6
Continuous
 62
     7
370
    25
100
AcDbLine
 10
105.4645867524
 20
120.6875672281
 30
0.0
 11
105.4645867524
 21
91.9375672281
 31
0.0
  0
ARC
  5
149
330
1F
100
AcDbEntity
  8
0
  6
Continuous
 62
     7
370
    25
100
AcDbCircle
 10
143.5395867524
 20
106.3125672281
 30
0.0
 40
28.54999999999998
100
AcDbArc
 50
210.7828184417
 51
329.2171815583
  0
ARC
  5
14A
330
1F
100
AcDbEntity
  8
0
  6
Continuous
 62
     7
370
    25
100
AcDbCircle
 10
143.5395867524
 20
106.3125672281
 30
0.0
 40
28.54999999999999
100
AcDbArc
 50
30.7828184417
 51
149.2171815583
  0
LINE
  5
14B
330
1F
100
AcDbEntity
  8
0
  6
Continuous
 62
     8
370
    25
100
AcDbLine
 10
74.6533563985
 20
104.4966008178
 30
0.0
 11
74.6533563985
 21
93.6329808673
 31
0.0
  0
LINE
  5
14C
330
1F
100
AcDbEntity
  8
0
  6
Continuous
 62
     8
370
    25
100
AcDbLine
 10
71.3592508065
 20
108.6507757367
 30
0.0
 11
71.3592508065
 21
94.8125672281
 31
0.0
  0
LINE
  5
14D
330
1F
100
AcDbEntity
  8
0
  6
Continuous
 62
     8
370
    25
100
AcDbLine
 10
71.3592508065
 20
117.8125672281
 30
0.0
 11
71.3592508065
 21
108.6507757367
 31
0.0
  0
LINE
  5
14E
330
1F
100
AcDbEntity
  8
0
  6
Continuous
 62
     8
370
    25
100
AcDbLine
 10
212.4495764791
 20
118.8983743605
 30
0.0
 11
212.4495764791
 21
118.9921535889
 31
0.0
  0
LINE
  5
14F
330
1F
100
AcDbEntity
  8
0
  6
Continuous
 62
     8
370
    25
100
AcDbLine
 10
212.4495764791
 20
93.6329808673
 30
0.0
 11
212.4495764791
 21
104.2419085337
 31
0.0
  0
LINE
  5
150
330
1F
100
AcDbEntity
  8
0
  6
Continuous
 62
     8
370
    25
100
AcDbLine
 10
215.743682071
 20
108.4214270874
 30
0.0
 11
215.743682071
 21
117.8125672281
 31
0.0
  0
LINE
  5
151
330
1F
100
AcDbEntity
  8
0
  6
Continuous
 62
     8
370
    25
100
AcDbLine
 10
215.743682071
 20
94.8125672281
 30
0.0
 11
215.743682071
 21
108.4214270874
 31
0.0
  0
SPLINE
  5
152
330
1F
100
AcDbEntity
  8
0
  6
Continuous
 62
     8
370
    25
100
AcDbSpline
210
0.0
220
0.0
230
1.0
 70
     8
 71
     3
 72
    28
 73
    24
 74
     0
 42
0.00000001
 43
0.00000001
 40
0.0
 40
0.0
 40
0.0
 40
0.0
 40
0.0347945738032411
 40
0.0938461676399092
 40
0.1269779831692316
 40
0.1607311557995434
 40
0.2195460440223016
 40
0.287034055220625
 40
0.3738053985703111
 40
0.4549707772239298
 40
0.5234385703762877
 40
0.6017375029583603
 40
0.6737287943147051
 40
0.7439783685275705
 40
0.7827701040909287
 40
0.8144069037446795
 40
0.8467850386882335
 40
0.8740460492977656
 40
0.900605551734292
 40
0.9289418222871413
 40
0.9537064545214136
 40
0.9786344484174
 40
1.0
 40
1.0
 40
1.0
 40
1.0
 10
157.8007038983097
 20
106.1600307389523
 30
0.0
 10
157.7807988850923
 20
105.6615381223533
 30
0.0
 10
157.7271120884715
 20
104.3170290063872
 30
0.0
 10
157.3851452218696
 20
102.6492675651255
 30
0.0
 10
156.939902839384
 20
101.2222861749771
 30
0.0
 10
156.4274125011463
 20
99.93696941916009
 30
0.0
 10
155.6948746504487
 20
98.52127035104216
 30
0.0
 10
154.6293352426667
 20
96.94723543140825
 30
0.0
 10
153.3811375696479
 20
95.53498406031646
 30
0.0
 10
152.0691989611701
 20
94.38329817108063
 30
0.0
 10
150.835750943086
 20
93.50064436145904
 30
0.0
 10
149.6633058575516
 20
92.81179143180873
 30
0.0
 10
148.4677574309621
 20
92.24571308991007
 30
0.0
 10
147.4669346593827
 20
91.87049935522246
 30
0.0
 10
146.6825790405078
 20
91.63142371131522
 30
0.0
 10
146.1189872542125
 20
91.48304521179386
 30
0.0
 10
145.6547540287828
 20
91.37502385785284
 30
0.0
 10
145.3076469348427
 20
91.29661130139539
 30
0.0
 10
145.1742090514456
 20
91.24774177334399
 30
0.0
 10
145.3547768654342
 20
91.23378089479658
 30
0.0
 10
145.7273383042798
 20
91.25186608275007
 30
0.0
 10
146.1424849610154
 20
91.28863509360019
 30
0.0
 10
146.4501428002542
 20
91.33272723152334
 30
0.0
 10
146.5921340728191
 20
91.35307678214524
 30
0.0
  0
SPLINE
  5
153
330
1F
100
AcDbEntity
  8
0
  6
Continuous
 62
     8
370
    25
100
AcDbSpline
210
0.0
220
0.0
230
1.0
 70
     8
 71
     3
 72
    28
 73
    24
 74
     0
 42
0.00000001
 43
0.00000001
 40
0.0
 40
0.0
 40
0.0
 40
0.0
 40
0.034794573476138
 40
0.0938461673328182
 40
0.1269779828733686
 40
0.1607311555151192
 40
0.2195460437578093
 40
0.2870340549790042
 40
0.3738053983580962
 40
0.4549707770392213
 40
0.5234385702147824
 40
0.6017375028233899
 40
0.6737287942041321
 40
0.7439783684408049
 40
0.7827701040173094
 40
0.8144069036817819
 40
0.8467850386363086
 40
0.8740460492550792
 40
0.9006055517006064
 40
0.9289418222630585
 40
0.9537064545057232
 40
0.9786344484101577
 40
1.0
 40
1.0
 40
1.0
 40
1.0
 10
157.8007038981628
 20
106.4651037318639
 30
0.0
 10
157.780798884805
 20
106.9635963434746
 30
0.0
 10
157.7271120874767
 20
108.3081054542264
 30
0.0
 10
157.3851452218838
 20
109.9758668910132
 30
0.0
 10
156.9399028393811
 20
111.4028482811657
 30
0.0
 10
156.4274125011477
 20
112.6881650369817
 30
0.0
 10
155.6948746504482
 20
114.1038641051001
 30
0.0
 10
154.6293352426669
 20
115.6778990247339
 30
0.0
 10
153.3811375696478
 20
117.0901503958257
 30
0.0
 10
152.0691989611701
 20
118.2418362850615
 30
0.0
 10
150.835750943086
 20
119.1244900946831
 30
0.0
 10
149.6633058575516
 20
119.8133430243334
 30
0.0
 10
148.4677574309622
 20
120.3794213662321
 30
0.0
 10
147.4669346593827
 20
120.7546351009197
 30
0.0
 10
146.6825790405079
 20
120.9937107448269
 30
0.0
 10
146.1189872542125
 20
121.1420892443483
 30
0.0
 10
145.6547540287827
 20
121.2501105982893
 30
0.0
 10
145.3076469348427
 20
121.3285231547467
 30
0.0
 10
145.1742090514456
 20
121.3773926827981
 30
0.0
 10
145.3547768654342
 20
121.3913535613456
 30
0.0
 10
145.7273383042797
 20
121.3732683733921
 30
0.0
 10
146.1424849610154
 20
121.3364993625419
 30
0.0
 10
146.4501428002542
 20
121.2924072246188
 30
0.0
 10
146.5921340728191
 20
121.2720576739969
 30
0.0
  0
SPLINE
  5
154
330
1F
100
AcDbEntity
  8
0
  6
Continuous
 62
     8
370
    25
100
AcDbSpline
210
0.0
220
0.0
230
1.0
 70
     8
 71
     3
 72
    35
 73
    31
 74
     0
 42
0.00000001
 43
0.00000001
 40
0.0
 40
0.0
 40
0.0
 40
0.0
 40
0.0289607284869532
 40
0.0478435174093329
 40
0.0647841800203809
 40
0.0798319134378463
 40
0.1094243371541713
 40
0.1246871441464587
 40
0.1407098185847326
 40
0.1829159725889032
 40
0.228317851758434
 40
0.2706718412753272
 40
0.3114718315041351
 40
0.3559022403106583
 40
0.4020679395900552
 40
0.4499751808765819
 40
0.4865830984254009
 40
0.5217641581279221
 40
0.5555265733878845
 40
0.5878795217821035
 40
0.6188333166166731
 40
0.6483996155132294
 40
0.676591675380187
 40
0.7537507554251893
 40
0.8208320732435829
 40
0.8603751801440942
 40
0.8961586063440226
 40
0.9286568739839824
 40
0.9871144719251554
 40
1.0
 40
1.0
 40
1.0
 40
1.0
 10
140.3847817652196
 20
121.2739178965245
 30
0.0
 10
140.5702100486964
 20
121.3000789267741
 30
0.0
 10
140.8765400953561
 20
121.3432973046116
 30
0.0
 10
141.2464540324879
 20
121.3764390281072
 30
0.0
 10
141.5067877152164
 20
121.3931561973996
 30
0.0
 10
141.7728252390736
 20
121.4016134688218
 30
0.0
 10
141.9342401962171
 20
121.3934888034635
 30
0.0
 10
141.9320437243321
 20
121.3671788212381
 30
0.0
 10
141.8014776125961
 20
121.3219266782896
 30
0.0
 10
141.3635617520827
 20
121.2261890893429
 30
0.0
 10
140.6946724493679
 20
121.0619909765399
 30
0.0
 10
139.9883166972103
 20
120.8562640197549
 30
0.0
 10
139.2675662919632
 20
120.6102887183446
 30
0.0
 10
138.5086955499111
 20
120.3091360762999
 30
0.0
 10
137.6997881430352
 20
119.9352843588569
 30
0.0
 10
136.9362155416698
 20
119.5252087162624
 30
0.0
 10
136.242192710871
 20
119.1007489795772
 30
0.0
 10
135.6340652640372
 20
118.6870405802498
 30
0.0
 10
135.055371786382
 20
118.251432449096
 30
0.0
 10
134.5062866266336
 20
117.796018670417
 30
0.0
 10
133.9869807208085
 20
117.3228873119599
 30
0.0
 10
133.497397744628
 20
116.8340202095399
 30
0.0
 10
132.7641267967921
 20
116.0324267714749
 30
0.0
 10
131.8546016085159
 20
114.8589297105336
 30
0.0
 10
130.9564357523517
 20
113.3258158226035
 30
0.0
 10
130.3331598447267
 20
111.9278892751706
 30
0.0
 10
129.9167763530413
 20
110.7345235174449
 30
0.0
 10
129.5136836880066
 20
109.1773303321423
 30
0.0
 10
129.3055451039478
 20
107.7004827396305
 30
0.0
 10
129.2826556164184
 20
106.6595064018927
 30
0.0
 10
129.2785214671225
 20
106.471492074876
 30
0.0
  0
SPLINE
  5
155
330
1F
100
AcDbEntity
  8
0
  6
Continuous
 62
     8
370
    25
100
AcDbSpline
210
0.0
220
0.0
230
1.0
 70
     8
 71
     3
 72
    35
 73
    31
 74
     0
 42
0.00000001
 43
0.00000001
 40
0.0
 40
0.0
 40
0.0
 40
0.0
 40
0.0289607283347455
 40
0.0478435171578837
 40
0.0647841796798973
 40
0.0798319130182769
 40
0.1094243365790741
 40
0.1246871434911454
 40
0.1407098178452096
 40
0.1829159716275589
 40
0.228317850558473
 40
0.2706718398527679
 40
0.3114718298671449
 40
0.3559022384401569
 40
0.4020679374769226
 40
0.449975178511665
 40
0.4865830958680852
 40
0.5217641553857069
 40
0.5555265704682254
 40
0.5878795186924082
 40
0.6188333133642951
 40
0.6483996121054613
 40
0.676591671824251
 40
0.7537507514637312
 40
0.8208320689295683
 40
0.8603751756222543
 40
0.8961586016341172
 40
0.9286568691032769
 40
0.9871144667372166
 40
0.9999999999999999
 40
0.9999999999999999
 40
0.9999999999999999
 40
0.9999999999999999
 10
140.3847817652196
 20
91.3512165596177
 30
0.0
 10
140.5702100486964
 20
91.32505552936802
 30
0.0
 10
140.8765400953561
 20
91.28183715153057
 30
0.0
 10
141.2464540324879
 20
91.24869542803494
 30
0.0
 10
141.5067877152164
 20
91.23197825874253
 30
0.0
 10
141.7728252390736
 20
91.22352098732031
 30
0.0
 10
141.9342401962171
 20
91.23164565267858
 30
0.0
 10
141.9320437243321
 20
91.25795563490401
 30
0.0
 10
141.8014776125961
 20
91.3032077778525
 30
0.0
 10
141.3635617520827
 20
91.39894536679927
 30
0.0
 10
140.6946724493679
 20
91.5631434796022
 30
0.0
 10
139.9883166972103
 20
91.76887043638718
 30
0.0
 10
139.2675662919632
 20
92.01484573779754
 30
0.0
 10
138.5086955499111
 20
92.31599837984226
 30
0.0
 10
137.6997881430352
 20
92.68985009728527
 30
0.0
 10
136.9362155416698
 20
93.0999257398797
 30
0.0
 10
136.242192710871
 20
93.52438547656497
 30
0.0
 10
135.6340652640372
 20
93.93809387589232
 30
0.0
 10
135.055371786382
 20
94.37370200704612
 30
0.0
 10
134.5062866266337
 20
94.82911578572511
 30
0.0
 10
133.9869807208085
 20
95.30224714418225
 30
0.0
 10
133.4973977446281
 20
95.79111424660229
 30
0.0
 10
132.7641267967917
 20
96.59270768466718
 30
0.0
 10
131.85460160852
 20
97.76620474560879
 30
0.0
 10
130.956435752341
 20
99.29931863353801
 30
0.0
 10
130.3331598447482
 20
100.6972451809728
 30
0.0
 10
129.9167763529711
 20
101.8906109386931
 30
0.0
 10
129.5136836883221
 20
103.4478041240182
 30
0.0
 10
129.3055450919303
 20
104.924651791172
 30
0.0
 10
129.2826556137118
 20
105.9656282076602
 30
0.0
 10
129.278521464716
 20
106.1536426117357
 30
0.0
  0
ARC
  5
156
330
1F
100
AcDbEntity
  8
0
  6
Continuous
 62
     8
370
    25
100
AcDbCircle
 10
143.5395867524
 20
106.3125672281
 30
0.0
 40
16.45768770359366
100
AcDbArc
 50
65.0211087859
 51
114.9788912141
  0
ARC
  5
157
330
1F
100
AcDbEntity
  8
0
  6
Continuous
 62
     8
370
    25
100
AcDbCircle
 10
143.5395867524
 20
106.3125672281
 30
0.0
 40
16.45768770359365
100
AcDbArc
 50
245.0211087859
 51
294.9788912141
  0
SPLINE
  5
158
330
1F
100
AcDbEntity
  8
0
  6
Continuous
 62
     8
370
    25
100
AcDbSpline
210
0.0
220
0.0
230
1.0
 70
     8
 71
     3
 72
    31
 73
    27
 74
     0
 42
0.00000001
 43
0.00000001
 40
0.0
 40
0.0
 40
0.0
 40
0.0
 40
0.0093780573742728
 40
0.0137859714649346
 40
0.0182864453372965
 40
0.0285629212064513
 40
0.0490744883052087
 40
0.0739414118425486
 40
0.0962185551863544
 40
0.1232026547681901
 40
0.1549157041176877
 40
0.2099057427933673
 40
0.2920039963741058
 40
0.3662020156727046
 40
0.4345121162908084
 40
0.5143298936944204
 40
0.5903459223286702
 40
0.6627300808744045
 40
0.7036443194366498
 40
0.7418933714794117
 40
0.7775607456989012
 40
0.8107492142336679
 40
0.8872798247680714
 40
0.9212504277633767
 40
0.9530432196074744
 40
1.0
 40
1.0
 40
1.0
 40
1.0
 10
146.4429509943326
 20
121.3013683385987
 30
0.0
 10
146.4048147014909
 20
121.3008825332129
 30
0.0
 10
146.3487534274005
 20
121.3001683875303
 30
0.0
 10
146.3724267279903
 20
121.291983237931
 30
0.0
 10
146.4441650715015
 20
121.2805692876993
 30
0.0
 10
146.6860423082346
 20
121.2525899587264
 30
0.0
 10
147.2151966063871
 20
121.1993029151035
 30
0.0
 10
147.912991250695
 20
121.1245638575098
 30
0.0
 10
148.7109649912261
 20
121.0329215420854
 30
0.0
 10
149.599555548693
 20
120.9217648253301
 30
0.0
 10
150.8642692890629
 20
120.747669360216
 30
0.0
 10
152.7666116511548
 20
120.4524911348943
 30
0.0
 10
155.1614443894445
 20
120.0057062181
 30
0.0
 10
157.7043138878438
 20
119.4303071709818
 30
0.0
 10
160.1979632894952
 20
118.7504491436582
 30
0.0
 10
162.6597061039771
 20
117.9135906158093
 30
0.0
 10
165.1011251968561
 20
116.8784671257735
 30
0.0
 10
167.0626475130738
 20
115.8553647588317
 30
0.0
 10
168.580538772582
 20
114.9213271457525
 30
0.0
 10
169.691467411321
 20
114.1411810788142
 30
0.0
 10
170.6846932676932
 20
113.3424513602195
 30
0.0
 10
171.9585030658328
 20
112.1576525666971
 30
0.0
 10
173.0802083981429
 20
110.7967683416605
 30
0.0
 10
173.893905427978
 20
109.236085672992
 30
0.0
 10
174.3778213908023
 20
107.9035081693868
 30
0.0
 10
174.4523138897089
 20
106.906852900697
 30
0.0
 10
174.4967322632023
 20
106.3125674811102
 30
0.0
  0
SPLINE
  5
159
330
1F
100
AcDbEntity
  8
0
  6
Continuous
 62
     8
370
    25
100
AcDbSpline
210
0.0
220
0.0
230
1.0
 70
     8
 71
     3
 72
    31
 73
    27
 74
     0
 42
0.00000001
 43
0.00000001
 40
0.0
 40
0.0
 40
0.0
 40
0.0
 40
0.0093780573742728
 40
0.0137859714649344
 40
0.0182864453372965
 40
0.0285629212064514
 40
0.049074488305209
 40
0.0739414118425489
 40
0.0962185551863544
 40
0.1232026547681903
 40
0.1549157041176879
 40
0.2099057427933674
 40
0.2920039963741058
 40
0.3662020156727047
 40
0.4345121162908084
 40
0.5143298936944204
 40
0.5903459223286702
 40
0.6627300808744043
 40
0.7036443194366498
 40
0.7418933714794116
 40
0.7775607456989013
 40
0.810749214233668
 40
0.8872798247680713
 40
0.921250427763377
 40
0.9530432196074743
 40
1.0
 40
1.0
 40
1.0
 40
1.0
 10
146.4429509943326
 20
91.32376611754341
 30
0.0
 10
146.4048147014909
 20
91.3242519229292
 30
0.0
 10
146.3487534274005
 20
91.32496606861186
 30
0.0
 10
146.3724267279903
 20
91.33315121821111
 30
0.0
 10
146.4441650715015
 20
91.34456516844283
 30
0.0
 10
146.6860423082346
 20
91.37254449741577
 30
0.0
 10
147.2151966063871
 20
91.42583154103865
 30
0.0
 10
147.912991250695
 20
91.50057059863236
 30
0.0
 10
148.7109649912261
 20
91.59221291405672
 30
0.0
 10
149.599555548693
 20
91.703369630812
 30
0.0
 10
150.8642692890629
 20
91.87746509592617
 30
0.0
 10
152.7666116511548
 20
92.17264332124778
 30
0.0
 10
155.1614443894445
 20
92.61942823804216
 30
0.0
 10
157.7043138878438
 20
93.19482728516029
 30
0.0
 10
160.1979632894952
 20
93.87468531248389
 30
0.0
 10
162.6597061039771
 20
94.71154384033278
 30
0.0
 10
165.1011251968561
 20
95.74666733036862
 30
0.0
 10
167.0626475130738
 20
96.76976969731038
 30
0.0
 10
168.580538772582
 20
97.70380731038962
 30
0.0
 10
169.691467411321
 20
98.4839533773279
 30
0.0
 10
170.6846932676932
 20
99.28268309592264
 30
0.0
 10
171.9585030658328
 20
100.467481889445
 30
0.0
 10
173.0802083981429
 20
101.8283661144817
 30
0.0
 10
173.893905427978
 20
103.3890487831501
 30
0.0
 10
174.3778213908023
 20
104.7216262867553
 30
0.0
 10
174.4523138897089
 20
105.7182815554451
 30
0.0
 10
174.4967322632023
 20
106.3125669750319
 30
0.0
  0
SPLINE
  5
15A
330
1F
100
AcDbEntity
  8
0
  6
Continuous
 62
     8
370
    25
100
AcDbSpline
210
0.0
220
0.0
230
1.0
 70
     8
 71
     3
 72
    36
 73
    32
 74
     0
 42
0.00000001
 43
0.00000001
 40
0.0
 40
0.0
 40
0.0
 40
0.0
 40
0.019304236986067
 40
0.0527738600062431
 40
0.0879360639283848
 40
0.155012544659436
 40
0.1799107783029438
 40
0.2062108877681781
 40
0.2339866970559513
 40
0.2671944928483352
 40
0.3026775217115553
 40
0.340497333742899
 40
0.3807049114054395
 40
0.4252239584431985
 40
0.4735627096448148
 40
0.5257554605293813
 40
0.5818301275333392
 40
0.6418098924116201
 40
0.6980545039775411
 40
0.7585478137058939
 40
0.8153631122986164
 40
0.8711361331012972
 40
0.8917490834860938
 40
0.9095794728437155
 40
0.924633208649653
 40
0.9528846214577043
 40
0.9720922708715054
 40
0.9821358345343324
 40
0.9866416402658272
 40
0.9910924997180072
 40
1.0
 40
1.0
 40
1.0
 40
1.0
 10
112.5824337483947
 20
106.3125669672622
 30
0.0
 10
112.5903390051336
 20
106.5557523932157
 30
0.0
 10
112.6119503701802
 20
107.2205719162091
 30
0.0
 10
112.839295063085
 20
108.3092432764979
 30
0.0
 10
113.4497740758184
 20
109.8884508666052
 30
0.0
 10
114.3261767953178
 20
111.1949142563758
 30
0.0
 10
115.2700763568557
 20
112.2636707464315
 30
0.0
 10
115.9426764723935
 20
112.9305926339467
 30
0.0
 10
116.7248512966133
 20
113.6164649195207
 30
0.0
 10
117.6288228211941
 20
114.3168140316065
 30
0.0
 10
118.6647108452096
 20
115.0264918863007
 30
0.0
 10
119.8024090198526
 20
115.7186560777401
 30
0.0
 10
121.0610655718254
 20
116.4004103509255
 30
0.0
 10
122.4571879921204
 20
117.0705970452075
 30
0.0
 10
124.0056646116364
 20
117.7275470042053
 30
0.0
 10
125.7007786708589
 20
118.3606877987348
 30
0.0
 10
127.5425623172177
 20
118.9612207041859
 30
0.0
 10
129.4467511456044
 20
119.4956078933098
 30
0.0
 10
131.4131761984308
 20
119.9678474379317
 30
0.0
 10
133.3516344442618
 20
120.3625659657874
 30
0.0
 10
135.2965451160606
 20
120.6856616755829
 30
0.0
 10
136.792096205021
 20
120.8889861420164
 30
0.0
 10
137.8394745293292
 20
121.0128930083735
 30
0.0
 10
138.4285963876803
 20
121.0776652770642
 30
0.0
 10
139.093922645787
 20
121.1461794303589
 30
0.0
 10
139.7510455937918
 20
121.2093991721451
 30
0.0
 10
140.3098194579334
 20
121.2595131100367
 30
0.0
 10
140.5308009492398
 20
121.2842134009124
 30
0.0
 10
140.5724372200437
 20
121.293583284658
 30
0.0
 10
140.5600192482937
 20
121.2991961269345
 30
0.0
 10
140.4801260425924
 20
121.2982813328515
 30
0.0
 10
140.4268523797719
 20
121.2976713381579
 30
0.0
  0
SPLINE
  5
15B
330
1F
100
AcDbEntity
  8
0
  6
Continuous
 62
     8
370
    25
100
AcDbSpline
210
0.0
220
0.0
230
1.0
 70
     8
 71
     3
 72
    36
 73
    32
 74
     0
 42
0.00000001
 43
0.00000001
 40
0.0
 40
0.0
 40
0.0
 40
0.0
 40
0.0193042369860673
 40
0.0527738600062432
 40
0.0879360639283853
 40
0.1550125446594367
 40
0.1799107783029443
 40
0.2062108877681787
 40
0.2339866970559518
 40
0.2671944928483357
 40
0.302677521711556
 40
0.3404973337428998
 40
0.3807049114054405
 40
0.4252239584431998
 40
0.4735627096448158
 40
0.5257554605293825
 40
0.5818301275333402
 40
0.6418098924116215
 40
0.6980545039775429
 40
0.7585478137058955
 40
0.8153631122986184
 40
0.8711361331012994
 40
0.891749083486096
 40
0.9095794728437177
 40
0.9246332086496549
 40
0.9528846214577065
 40
0.9720922708715075
 40
0.9821358345343342
 40
0.9866416402658291
 40
0.9910924997180094
 40
1.0
 40
1.0
 40
1.0
 40
1.0
 10
112.5824337483947
 20
106.3125674888799
 30
0.0
 10
112.5903390051336
 20
106.0693820629264
 30
0.0
 10
112.6119503701802
 20
105.4045625399331
 30
0.0
 10
112.839295063085
 20
104.3158911796442
 30
0.0
 10
113.4497740758184
 20
102.7366835895369
 30
0.0
 10
114.3261767953178
 20
101.4302201997663
 30
0.0
 10
115.2700763568557
 20
100.3614637097106
 30
0.0
 10
115.9426764723935
 20
99.69454182219542
 30
0.0
 10
116.7248512966133
 20
99.00866953662147
 30
0.0
 10
117.6288228211941
 20
98.30832042453562
 30
0.0
 10
118.6647108452096
 20
97.59864256984139
 30
0.0
 10
119.8024090198526
 20
96.90647837840203
 30
0.0
 10
121.0610655718253
 20
96.22472410521668
 30
0.0
 10
122.4571879921204
 20
95.55453741093459
 30
0.0
 10
124.0056646116364
 20
94.89758745193683
 30
0.0
 10
125.7007786708589
 20
94.26444665740726
 30
0.0
 10
127.5425623172177
 20
93.66391375195624
 30
0.0
 10
129.4467511456044
 20
93.12952656283235
 30
0.0
 10
131.4131761984307
 20
92.65728701821044
 30
0.0
 10
133.3516344442618
 20
92.26256849035475
 30
0.0
 10
135.2965451160606
 20
91.93947278055923
 30
0.0
 10
136.792096205021
 20
91.73614831412574
 30
0.0
 10
137.8394745293292
 20
91.61224144776867
 30
0.0
 10
138.4285963876803
 20
91.54746917907791
 30
0.0
 10
139.093922645787
 20
91.47895502578322
 30
0.0
 10
139.7510455937918
 20
91.415735283997
 30
0.0
 10
140.3098194579333
 20
91.36562134610543
 30
0.0
 10
140.5308009492398
 20
91.3409210552297
 30
0.0
 10
140.5724372200437
 20
91.3315511714841
 30
0.0
 10
140.5600192482937
 20
91.32593832920763
 30
0.0
 10
140.4801260425924
 20
91.32685312329066
 30
0.0
 10
140.4268523797719
 20
91.32746311798424
 30
0.0
  0
ARC
  5
15C
330
1F
100
AcDbEntity
  8
0
  6
Continuous
 62
     8
370
    25
100
AcDbCircle
 10
143.5395867524
 20
106.3125672281
 30
0.0
 40
17.66762997024709
100
AcDbArc
 50
237.3339298439
 51
302.6660701561
  0
ARC
  5
15D
330
1F
100
AcDbEntity
  8
0
  6
Continuous
 62
     8
370
    25
100
AcDbCircle
 10
143.5395867524
 20
106.3125672281
 30
0.0
 40
17.6676299702471
100
AcDbArc
 50
57.3339298439
 51
122.6660701561
  0
ARC
  5
15E
330
1F
100
AcDbEntity
  8
0
  6
Continuous
 62
     8
370
    25
100
AcDbCircle
 10
143.5395867524
 20
106.3125672281
 30
0.0
 40
27.74252533988579
100
AcDbArc
 50
211.8220106369
 51
328.1779893631
  0
ARC
  5
15F
330
1F
100
AcDbEntity
  8
0
  6
Continuous
 62
     8
370
    25
100
AcDbCircle
 10
143.5395867524
 20
106.3125672281
 30
0.0
 40
27.74252533988578
100
AcDbArc
 50
31.8220106369
 51
148.1779893631
  0
ENDSEC
  0
SECTION
  2
OBJECTS
  0
DICTIONARY
  5
C
330
0
100
AcDbDictionary
281
     1
  3
ACAD_GROUP
350
D
  3
ACAD_LAYOUT
350
1A
  3
ACAD_MLINESTYLE
350
17
  3
ACAD_PLOTSETTINGS
350
19
  3
ACAD_PLOTSTYLENAME
350
E
  3
ACAD_SCALELIST
350
47
  3
DWGPROPS
350
160
  0
DICTIONARY
  5
D
102
{ACAD_REACTORS
330
C
102
}
330
C
100
AcDbDictionary
281
     1
  0
DICTIONARY
  5
1A
102
{ACAD_REACTORS
330
C
102
}
330
C
100
AcDbDictionary
281
     1
  3
Layout1
350
1E
  3
Layout2
350
26
  3
Model
350
22
  0
DICTIONARY
  5
17
102
{ACAD_REACTORS
330
C
102
}
330
C
100
AcDbDictionary
281
     1
  3
Standard
350
18
  0
DICTIONARY
  5
19
102
{ACAD_REACTORS
330
C
102
}
330
C
100
AcDbDictionary
281
     1
  0
ACDBDICTIONARYWDFLT
  5
E
102
{ACAD_REACTORS
330
C
102
}
330
C
100
AcDbDictionary
281
     1
  3
Normal
350
F
100
AcDbDictionaryWithDefault
340
F
  0
DICTIONARY
  5
47
102
{ACAD_REACTORS
330
C
102
}
330
C
100
AcDbDictionary
281
     1
  3
A0
350
48
  3
A1
350
49
  3
A2
350
4A
  3
A3
350
4B
  3
A4
350
4C
  3
A5
350
4D
  3
A6
350
4E
  3
A7
350
4F
  3
A8
350
50
  3
A9
350
51
  3
B0
350
52
  3
B1
350
53
  3
B2
350
54
  3
B3
350
55
  3
B4
350
56
  3
B5
350
57
  3
B6
350
58
  3
B7
350
59
  3
B8
350
5A
  3
B9
350
5B
  3
C0
350
5C
  3
C1
350
5D
  3
C2
350
5E
  3
C3
350
5F
  3
C4
350
60
  3
C5
350
61
  3
C6
350
62
  3
C7
350
63
  3
C8
350
64
  3
C9
350
65
  3
D0
350
66
  3
D1
350
67
  3
D2
350
68
  0
XRECORD
  5
160
102
{ACAD_REACTORS
330
C
102
}
330
C
100
AcDbXrecord
280
     1
  1
DWGPROPS COOKIE
  2

  3

  4

  6

  7

  8
DS-1
  9

300
=
301
=
302
=
303
=
304
=
305
=
306
=
307
=
308
=
309
=
 40
0.0
 41
2460383.488855116
 42
2460383.488855683
  1

 90
        0
  0
LAYOUT
  5
1E
102
{ACAD_REACTORS
330
1A
102
}
330
1A
100
AcDbPlotSettings
  1

  2
none_device
  4

  6

 40
0.0
 41
0.0
 42
0.0
 43
0.0
 44
0.0
 45
0.0
 46
0.0
 47
0.0
 48
0.0
 49
0.0
140
0.0
141
0.0
142
1.0
143
1.0
 70
   688
 72
     1
 73
     0
 74
     5
  7

 75
    16
147
1.0
148
0.0
149
0.0
100
AcDbLayout
  1
Layout1
 70
     1
 71
     1
 10
0.0
 20
0.0
 11
420.0
 21
297.0
 12
0.0
 22
0.0
 32
0.0
 14
1.0000000000E+20
 24
1.0000000000E+20
 34
1.0000000000E+20
 15
-1.0000000000E+20
 25
-1.0000000000E+20
 35
-1.0000000000E+20
146
0.0
 13
0.0
 23
0.0
 33
0.0
 16
1.0
 26
0.0
 36
0.0
 17
0.0
 27
1.0
 37
0.0
 76
     0
330
1B
  0
LAYOUT
  5
26
102
{ACAD_REACTORS
330
1A
102
}
330
1A
100
AcDbPlotSettings
  1

  2
none_device
  4

  6

 40
0.0
 41
0.0
 42
0.0
 43
0.0
 44
0.0
 45
0.0
 46
0.0
 47
0.0
 48
0.0
 49
0.0
140
0.0
141
0.0
142
1.0
143
1.0
 70
   688
 72
     1
 73
     0
 74
     5
  7

 75
    16
147
1.0
148
0.0
149
0.0
100
AcDbLayout
  1
Layout2
 70
     1
 71
     2
 10
0.0
 20
0.0
 11
0.0
 21
0.0
 12
0.0
 22
0.0
 32
0.0
 14
0.0
 24
0.0
 34
0.0
 15
0.0
 25
0.0
 35
0.0
146
0.0
 13
0.0
 23
0.0
 33
0.0
 16
1.0
 26
0.0
 36
0.0
 17
0.0
 27
1.0
 37
0.0
 76
     0
330
23
  0
LAYOUT
  5
22
102
{ACAD_REACTORS
330
1A
102
}
330
1A
100
AcDbPlotSettings
  1

  2
none_device
  4
Letter_(8.50_x_11.00_Inches)
  6

 40
6.35
 41
6.35
 42
6.35000508
 43
6.35000508
 44
215.9
 45
279.4
 46
0.0
 47
0.0
 48
0.0
 49
0.0
140
0.0
141
0.0
142
1.0
143
1.0
 70
  1712
 72
     1
 73
     0
 74
     0
  7

 75
     0
147
1.0
148
0.0
149
0.0
100
AcDbLayout
  1
Model
 70
     1
 71
     0
 10
0.0
 20
0.0
 11
279.4
 21
215.9
 12
0.0
 22
0.0
 32
0.0
 14
0.0
 24
0.0
 34
0.0
 15
279.4
 25
215.9
 35
0.0
146
0.0
 13
0.0
 23
0.0
 33
0.0
 16
1.0
 26
0.0
 36
0.0
 17
0.0
 27
1.0
 37
0.0
 76
     0
330
1F
331
29
  0
MLINESTYLE
  5
18
102
{ACAD_REACTORS
330
17
102
}
330
17
100
AcDbMlineStyle
  2
Standard
 70
     0
  3

 62
   256
 51
90.0
 52
90.0
 71
     2
 49
0.5
 62
   256
  6
BYLAYER
 49
-0.5
 62
   256
  6
BYLAYER
  0
ACDBPLACEHOLDER
  5
F
102
{ACAD_REACTORS
330
E
102
}
330
E
  0
SCALE
  5
48
102
{ACAD_REACTORS
330
47
102
}
330
47
100
AcDbScale
 70
     0
300
1:1
140
1.0
141
1.0
290
     1
  0
SCALE
  5
49
102
{ACAD_REACTORS
330
47
102
}
330
47
100
AcDbScale
 70
     0
300
1:2
140
1.0
141
2.0
290
     0
  0
SCALE
  5
4A
102
{ACAD_REACTORS
330
47
102
}
330
47
100
AcDbScale
 70
     0
300
1:4
140
1.0
141
4.0
290
     0
  0
SCALE
  5
4B
102
{ACAD_REACTORS
330
47
102
}
330
47
100
AcDbScale
 70
     0
300
1:5
140
1.0
141
5.0
290
     0
  0
SCALE
  5
4C
102
{ACAD_REACTORS
330
47
102
}
330
47
100
AcDbScale
 70
     0
300
1:8
140
1.0
141
8.0
290
     0
  0
SCALE
  5
4D
102
{ACAD_REACTORS
330
47
102
}
330
47
100
AcDbScale
 70
     0
300
1:10
140
1.0
141
10.0
290
     0
  0
SCALE
  5
4E
102
{ACAD_REACTORS
330
47
102
}
330
47
100
AcDbScale
 70
     0
300
1:16
140
1.0
141
16.0
290
     0
  0
SCALE
  5
4F
102
{ACAD_REACTORS
330
47
102
}
330
47
100
AcDbScale
 70
     0
300
1:20
140
1.0
141
20.0
290
     0
  0
SCALE
  5
50
102
{ACAD_REACTORS
330
47
102
}
330
47
100
AcDbScale
 70
     0
300
1:30
140
1.0
141
30.0
290
     0
  0
SCALE
  5
51
102
{ACAD_REACTORS
330
47
102
}
330
47
100
AcDbScale
 70
     0
300
1:40
140
1.0
141
40.0
290
     0
  0
SCALE
  5
52
102
{ACAD_REACTORS
330
47
102
}
330
47
100
AcDbScale
 70
     0
300
1:50
140
1.0
141
50.0
290
     0
  0
SCALE
  5
53
102
{ACAD_REACTORS
330
47
102
}
330
47
100
AcDbScale
 70
     0
300
1:100
140
1.0
141
100.0
290
     0
  0
SCALE
  5
54
102
{ACAD_REACTORS
330
47
102
}
330
47
100
AcDbScale
 70
     0
300
2:1
140
2.0
141
1.0
290
     0
  0
SCALE
  5
55
102
{ACAD_REACTORS
330
47
102
}
330
47
100
AcDbScale
 70
     0
300
4:1
140
4.0
141
1.0
290
     0
  0
SCALE
  5
56
102
{ACAD_REACTORS
330
47
102
}
330
47
100
AcDbScale
 70
     0
300
8:1
140
8.0
141
1.0
290
     0
  0
SCALE
  5
57
102
{ACAD_REACTORS
330
47
102
}
330
47
100
AcDbScale
 70
     0
300
10:1
140
10.0
141
1.0
290
     0
  0
SCALE
  5
58
102
{ACAD_REACTORS
330
47
102
}
330
47
100
AcDbScale
 70
     0
300
100:1
140
100.0
141
1.0
290
     0
  0
SCALE
  5
59
102
{ACAD_REACTORS
330
47
102
}
330
47
100
AcDbScale
 70
     0
300
1/128" = 1'-0"
140
0.0078125
141
12.0
290
     0
  0
SCALE
  5
5A
102
{ACAD_REACTORS
330
47
102
}
330
47
100
AcDbScale
 70
     0
300
1/64" = 1'-0"
140
0.015625
141
12.0
290
     0
  0
SCALE
  5
5B
102
{ACAD_REACTORS
330
47
102
}
330
47
100
AcDbScale
 70
     0
300
1/32" = 1'-0"
140
0.03125
141
12.0
290
     0
  0
SCALE
  5
5C
102
{ACAD_REACTORS
330
47
102
}
330
47
100
AcDbScale
 70
     0
300
1/16" = 1'-0"
140
0.0625
141
12.0
290
     0
  0
SCALE
  5
5D
102
{ACAD_REACTORS
330
47
102
}
330
47
100
AcDbScale
 70
     0
300
3/32" = 1'-0"
140
0.09375
141
12.0
290
     0
  0
SCALE
  5
5E
102
{ACAD_REACTORS
330
47
102
}
330
47
100
AcDbScale
 70
     0
300
1/8" = 1'-0"
140
0.125
141
12.0
290
     0
  0
SCALE
  5
5F
102
{ACAD_REACTORS
330
47
102
}
330
47
100
AcDbScale
 70
     0
300
3/16" = 1'-0"
140
0.1875
141
12.0
290
     0
  0
SCALE
  5
60
102
{ACAD_REACTORS
330
47
102
}
330
47
100
AcDbScale
 70
     0
300
1/4" = 1'-0"
140
0.25
141
12.0
290
     0
  0
SCALE
  5
61
102
{ACAD_REACTORS
330
47
102
}
330
47
100
AcDbScale
 70
     0
300
3/8" = 1'-0"
140
0.375
141
12.0
290
     0
  0
SCALE
  5
62
102
{ACAD_REACTORS
330
47
102
}
330
47
100
AcDbScale
 70
     0
300
1/2" = 1'-0"
140
0.5
141
12.0
290
     0
  0
SCALE
  5
63
102
{ACAD_REACTORS
330
47
102
}
330
47
100
AcDbScale
 70
     0
300
3/4" = 1'-0"
140
0.75
141
12.0
290
     0
  0
SCALE
  5
64
102
{ACAD_REACTORS
330
47
102
}
330
47
100
AcDbScale
 70
     0
300
1" = 1'-0"
140
1.0
141
12.0
290
     0
  0
SCALE
  5
65
102
{ACAD_REACTORS
330
47
102
}
330
47
100
AcDbScale
 70
     0
300
1-1/2" = 1'-0"
140
1.5
141
12.0
290
     0
  0
SCALE
  5
66
102
{ACAD_REACTORS
330
47
102
}
330
47
100
AcDbScale
 70
     0
300
3" = 1'-0"
140
3.0
141
12.0
290
     0
  0
SCALE
  5
67
102
{ACAD_REACTORS
330
47
102
}
330
47
100
AcDbScale
 70
     0
300
6" = 1'-0"
140
6.0
141
12.0
290
     0
  0
SCALE
  5
68
102
{ACAD_REACTORS
330
47
102
}
330
47
100
AcDbScale
 70
     0
300
1'-0" = 1'-0"
140
12.0
141
12.0
290
     0
  0
ENDSEC
  0
EOF
