  0
SECTION
  2
HEADER
  9
$ACADVER
  1
AC1015
  9
$ACADMAINTVER
 70
     6
  9
$DWGCODEPAGE
  3
ANSI_1252
  9
$INSBASE
 10
0.0
 20
0.0
 30
0.0
  9
$EXTMIN
 10
0.0
 20
0.0
 30
0.0
  9
$EXTMAX
 10
1189.0
 20
841.0
 30
0.0
  9
$LIMMIN
 10
0.0
 20
0.0
  9
$LIMMAX
 10
1189.0
 20
841.0
  9
$ORTHOMODE
 70
     0
  9
$REGENMODE
 70
     1
  9
$FILLMODE
 70
     1
  9
$QTEXTMODE
 70
     0
  9
$MIRRTEXT
 70
     1
  9
$LTSCALE
 40
1.0
  9
$ATTMODE
 70
     1
  9
$TEXTSIZE
 40
3.5
  9
$TRACEWID
 40
1.0
  9
$TEXTSTYLE
  7
Standard
  9
$CLAYER
  8
0
  9
$CELTYPE
  6
ByLayer
  9
$CECOLOR
 62
   256
  9
$CELTSCALE
 40
1.0
  9
$DISPSILH
 70
     0
  9
$DIMSCALE
 40
1.0
  9
$DIMASZ
 40
3.302
  9
$DIMEXO
 40
1.0
  9
$DIMDLI
 40
3.75
  9
$DIMRND
 40
0.0
  9
$DIMDLE
 40
0.0
  9
$DIMEXE
 40
1.0
  9
$DIMTP
 40
0.0
  9
$DIMTM
 40
0.0
  9
$DIMTXT
 40
3.5
  9
$DIMCEN
 40
2.5
  9
$DIMTSZ
 40
0.0
  9
$DIMTOL
 70
     0
  9
$DIMLIM
 70
     0
  9
$DIMTIH
 70
     1
  9
$DIMTOH
 70
     1
  9
$DIMSE1
 70
     0
  9
$DIMSE2
 70
     0
  9
$DIMTAD
 70
     1
  9
$DIMZIN
 70
     1
  9
$DIMBLK
  1

  9
$DIMASO
 70
     1
  9
$DIMSHO
 70
     1
  9
$DIMPOST
  1

  9
$DIMAPOST
  1

  9
$DIMALT
 70
     0
  9
$DIMALTD
 70
     3
  9
$DIMALTF
 40
0.0393700787
  9
$DIMLFAC
 40
1.0
  9
$DIMTOFL
 70
     1
  9
$DIMTVP
 40
0.0
  9
$DIMTIX
 70
     0
  9
$DIMSOXD
 70
     0
  9
$DIMSAH
 70
     0
  9
$DIMBLK1
  1

  9
$DIMBLK2
  1

  9
$DIMSTYLE
  2
ISO-25
  9
$DIMCLRD
 70
     0
  9
$DIMCLRE
 70
     0
  9
$DIMCLRT
 70
     0
  9
$DIMTFAC
 40
1.0
  9
$DIMGAP
 40
1.524
  9
$DIMJUST
 70
     0
  9
$DIMSD1
 70
     0
  9
$DIMSD2
 70
     0
  9
$DIMTOLJ
 70
     0
  9
$DIMTZIN
 70
     1
  9
$DIMALTZ
 70
     0
  9
$DIMALTTZ
 70
     0
  9
$DIMUPT
 70
     0
  9
$DIMDEC
 70
     2
  9
$DIMTDEC
 70
     2
  9
$DIMALTU
 70
     2
  9
$DIMALTTD
 70
     3
  9
$DIMTXSTY
  7
Standard
  9
$DIMAUNIT
 70
     0
  9
$DIMADEC
 70
     2
  9
$DIMALTRND
 40
0.0
  9
$DIMAZIN
 70
     0
  9
$DIMDSEP
 70
    44
  9
$DIMATFIT
 70
     3
  9
$DIMFRAC
 70
     0
  9
$DIMLDRBLK
  1

  9
$DIMLUNIT
 70
     2
  9
$DIMLWD
 70
    -2
  9
$DIMLWE
 70
    -2
  9
$DIMTMOVE
 70
     0
  9
$LUNITS
 70
     2
  9
$LUPREC
 70
     2
  9
$SKETCHINC
 40
1.0
  9
$FILLETRAD
 40
10.0
  9
$AUNITS
 70
     0
  9
$AUPREC
 70
     2
  9
$MENU
  1
.
  9
$ELEVATION
 40
0.0
  9
$PELEVATION
 40
0.0
  9
$THICKNESS
 40
0.0
  9
$LIMCHECK
 70
     0
  9
$CHAMFERA
 40
0.0
  9
$CHAMFERB
 40
0.0
  9
$CHAMFERC
 40
0.0
  9
$CHAMFERD
 40
0.0
  9
$SKPOLY
 70
     0
  9
$TDCREATE
 40
2460383.409888125
  9
$TDUCREATE
 40
2460383.180721459
  9
$TDUPDATE
 40
2460383.409888669
  9
$TDUUPDATE
 40
2460383.180722002
  9
$TDINDWG
 40
0.0000000116
  9
$TDUSRTIMER
 40
0.0000000116
  9
$USRTIMER
 70
     1
  9
$ANGBASE
 50
0.0
  9
$ANGDIR
 70
     0
  9
$PDMODE
 70
     0
  9
$PDSIZE
 40
-1.0
  9
$PLINEWID
 40
0.0
  9
$SPLFRAME
 70
     0
  9
$SPLINETYPE
 70
     6
  9
$SPLINESEGS
 70
     8
  9
$HANDSEED
  5
2F4
  9
$SURFTAB1
 70
     6
  9
$SURFTAB2
 70
     6
  9
$SURFTYPE
 70
     6
  9
$SURFU
 70
     6
  9
$SURFV
 70
     6
  9
$UCSBASE
  2

  9
$UCSNAME
  2

  9
$UCSORG
 10
0.0
 20
0.0
 30
0.0
  9
$UCSXDIR
 10
1.0
 20
0.0
 30
0.0
  9
$UCSYDIR
 10
0.0
 20
1.0
 30
0.0
  9
$UCSORTHOREF
  2

  9
$UCSORTHOVIEW
 70
     0
  9
$UCSORGTOP
 10
0.0
 20
0.0
 30
0.0
  9
$UCSORGBOTTOM
 10
0.0
 20
0.0
 30
0.0
  9
$UCSORGLEFT
 10
0.0
 20
0.0
 30
0.0
  9
$UCSORGRIGHT
 10
0.0
 20
0.0
 30
0.0
  9
$UCSORGFRONT
 10
0.0
 20
0.0
 30
0.0
  9
$UCSORGBACK
 10
0.0
 20
0.0
 30
0.0
  9
$PUCSBASE
  2

  9
$PUCSNAME
  2

  9
$PUCSORG
 10
0.0
 20
0.0
 30
0.0
  9
$PUCSXDIR
 10
1.0
 20
0.0
 30
0.0
  9
$PUCSYDIR
 10
0.0
 20
1.0
 30
0.0
  9
$PUCSORTHOREF
  2

  9
$PUCSORTHOVIEW
 70
     0
  9
$PUCSORGTOP
 10
0.0
 20
0.0
 30
0.0
  9
$PUCSORGBOTTOM
 10
0.0
 20
0.0
 30
0.0
  9
$PUCSORGLEFT
 10
0.0
 20
0.0
 30
0.0
  9
$PUCSORGRIGHT
 10
0.0
 20
0.0
 30
0.0
  9
$PUCSORGFRONT
 10
0.0
 20
0.0
 30
0.0
  9
$PUCSORGBACK
 10
0.0
 20
0.0
 30
0.0
  9
$USERI1
 70
     0
  9
$USERI2
 70
     0
  9
$USERI3
 70
     0
  9
$USERI4
 70
     0
  9
$USERI5
 70
     0
  9
$USERR1
 40
0.0
  9
$USERR2
 40
0.0
  9
$USERR3
 40
0.0
  9
$USERR4
 40
0.0
  9
$USERR5
 40
0.0
  9
$WORLDVIEW
 70
     1
  9
$SHADEDGE
 70
     3
  9
$SHADEDIF
 70
    70
  9
$TILEMODE
 70
     1
  9
$MAXACTVP
 70
    64
  9
$PINSBASE
 10
0.0
 20
0.0
 30
0.0
  9
$PLIMCHECK
 70
     0
  9
$PEXTMIN
 10
1.0000000000E+20
 20
1.0000000000E+20
 30
1.0000000000E+20
  9
$PEXTMAX
 10
-1.0000000000E+20
 20
-1.0000000000E+20
 30
-1.0000000000E+20
  9
$PLIMMIN
 10
0.0
 20
0.0
  9
$PLIMMAX
 10
420.0
 20
297.0
  9
$UNITMODE
 70
     0
  9
$VISRETAIN
 70
     1
  9
$PLINEGEN
 70
     0
  9
$PSLTSCALE
 70
     1
  9
$TREEDEPTH
 70
  3020
  9
$CMLSTYLE
  2
Standard
  9
$CMLJUST
 70
     0
  9
$CMLSCALE
 40
20.0
  9
$PROXYGRAPHICS
 70
     1
  9
$MEASUREMENT
 70
     1
  9
$CELWEIGHT
370
    -1
  9
$ENDCAPS
280
     0
  9
$JOINSTYLE
280
     0
  9
$LWDISPLAY
290
     1
  9
$INSUNITS
 70
     4
  9
$HYPERLINKBASE
  1

  9
$STYLESHEET
  1

  9
$XEDIT
290
     1
  9
$CEPSNTYPE
380
     0
  9
$PSTYLEMODE
290
     1
  9
$FINGERPRINTGUID
  2
{390dbbdd-0532-4ff5-865b-8e86d2725c00}
  9
$VERSIONGUID
  2
{FAEB1C32-E019-11D5-929B-00C0DF256EC4}
  9
$EXTNAMES
290
     1
  9
$PSVPSCALE
 40
0.0
  9
$OLESTARTUP
290
     0
  0
ENDSEC
  0
SECTION
  2
CLASSES
  0
CLASS
  1
ACDBDICTIONARYWDFLT
  2
AcDbDictionaryWithDefault
  3
ObjectDBX Classes
 90
        0
280
     0
281
     0
  0
CLASS
  1
VISUALSTYLE
  2
AcDbVisualStyle
  3
ObjectDBX Classes
 90
     4095
280
     0
281
     0
  0
CLASS
  1
MATERIAL
  2
AcDbMaterial
  3
ObjectDBX Classes
 90
     1153
280
     0
281
     0
  0
CLASS
  1
SCALE
  2
AcDbScale
  3
ObjectDBX Classes
 90
     1153
280
     0
281
     0
  0
CLASS
  1
TABLESTYLE
  2
AcDbTableStyle
  3
ObjectDBX Classes
 90
     4095
280
     0
281
     0
  0
CLASS
  1
MLEADERSTYLE
  2
AcDbMLeaderStyle
  3
ACDB_MLEADERSTYLE_CLASS
 90
     4095
280
     0
281
     0
  0
CLASS
  1
SUN
  2
AcDbSun
  3
SCENEOE
 90
     1153
280
     0
281
     0
  0
CLASS
  1
ACDBPLACEHOLDER
  2
AcDbPlaceHolder
  3
ObjectDBX Classes
 90
        0
280
     0
281
     0
  0
CLASS
  1
LAYOUT
  2
AcDbLayout
  3
ObjectDBX Classes
 90
        0
280
     0
281
     0
  0
ENDSEC
  0
SECTION
  2
TABLES
  0
TABLE
  2
VPORT
  5
8
330
0
100
AcDbSymbolTable
 70
     1
  0
VPORT
  5
29
330
8
100
AcDbSymbolTableRecord
100
AcDbViewportTableRecord
  2
*Active
 70
     0
 10
0.0
 20
0.0
 11
1.0
 21
1.0
 12
594.5
 22
420.5
 13
0.0
 23
0.0
 14
10.0
 24
10.0
 15
10.0
 25
10.0
 16
0.0
 26
0.0
 36
1.0
 17
0.0
 27
0.0
 37
0.0
 40
841.0
 41
1.4137931034
 42
50.0
 43
0.0
 44
0.0
 50
0.0
 51
0.0
 71
     0
 72
  2000
 73
     1
 74
     3
 75
     0
 76
     0
 77
     0
 78
     0
281
     0
 65
     1
110
0.0
120
0.0
130
0.0
111
1.0
121
0.0
131
0.0
112
0.0
122
1.0
132
0.0
 79
     0
146
0.0
  0
ENDTAB
  0
TABLE
  2
LTYPE
  5
5
330
0
100
AcDbSymbolTable
 70
     6
  0
LTYPE
  5
14
330
5
100
AcDbSymbolTableRecord
100
AcDbLinetypeTableRecord
  2
ByBlock
 70
     0
  3

 72
    65
 73
     0
 40
0.0
  0
LTYPE
  5
15
330
5
100
AcDbSymbolTableRecord
100
AcDbLinetypeTableRecord
  2
ByLayer
 70
     0
  3

 72
    65
 73
     0
 40
0.0
  0
LTYPE
  5
16
330
5
100
AcDbSymbolTableRecord
100
AcDbLinetypeTableRecord
  2
Continuous
 70
     0
  3
Solid line
 72
    65
 73
     0
 40
0.0
  0
LTYPE
  5
6E
330
5
100
AcDbSymbolTableRecord
100
AcDbLinetypeTableRecord
  2
HIDDEN
 70
     0
  3
Hidden __ __ __ __ __ __ __ __ __ __ __ __ __ __
 72
    65
 73
     2
 40
1.905
 49
1.27
 74
     0
 49
-0.635
 74
     0
  0
LTYPE
  5
6F
330
5
100
AcDbSymbolTableRecord
100
AcDbLinetypeTableRecord
  2
PHANTOM
 70
     0
  3
Phantom ______  __  __  ______  __  __  ______
 72
    65
 73
     6
 40
12.7
 49
6.35
 74
     0
 49
-1.27
 74
     0
 49
1.27
 74
     0
 49
-1.27
 74
     0
 49
1.27
 74
     0
 49
-1.27
 74
     0
  0
LTYPE
  5
70
330
5
100
AcDbSymbolTableRecord
100
AcDbLinetypeTableRecord
  2
CENTER
 70
     0
  3
Center ____ _ ____ _ ____ _ ____ _ ____ _ ____
 72
    65
 73
     4
 40
10.16
 49
6.35
 74
     0
 49
-1.27
 74
     0
 49
1.27
 74
     0
 49
-1.27
 74
     0
  0
LTYPE
  5
71
330
5
100
AcDbSymbolTableRecord
100
AcDbLinetypeTableRecord
  2
CENTERX2
 70
     0
  3
Center (2x) ________  __  ________  __  _____
 72
    65
 73
     4
 40
20.32
 49
12.7
 74
     0
 49
-2.54
 74
     0
 49
2.54
 74
     0
 49
-2.54
 74
     0
  0
LTYPE
  5
72
330
5
100
AcDbSymbolTableRecord
100
AcDbLinetypeTableRecord
  2
DOT2
 70
     0
  3
Dot (.5x) ........................................
 72
    65
 73
     2
 40
0.635
 49
0.0
 74
     0
 49
-0.635
 74
     0
  0
ENDTAB
  0
TABLE
  2
LAYER
  5
2
330
0
100
AcDbSymbolTable
 70
     1
  0
LAYER
  5
10
330
2
100
AcDbSymbolTableRecord
100
AcDbLayerTableRecord
  2
0
 70
     0
 62
     7
  6
Continuous
370
    -3
390
F
  0
ENDTAB
  0
TABLE
  2
STYLE
  5
3
330
0
100
AcDbSymbolTable
 70
     1
  0
STYLE
  5
11
330
3
100
AcDbSymbolTableRecord
100
AcDbTextStyleTableRecord
  2
Standard
 70
     0
 40
0.0
 41
1.0
 50
0.0
 71
     0
 42
3.5
  3
txt
  4

  0
ENDTAB
  0
TABLE
  2
VIEW
  5
6
330
0
100
AcDbSymbolTable
 70
     0
  0
ENDTAB
  0
TABLE
  2
UCS
  5
7
330
0
100
AcDbSymbolTable
 70
     0
  0
ENDTAB
  0
TABLE
  2
APPID
  5
9
330
0
100
AcDbSymbolTable
 70
     1
  0
APPID
  5
12
330
9
100
AcDbSymbolTableRecord
100
AcDbRegAppTableRecord
  2
ACAD
 70
     0
  0
ENDTAB
  0
TABLE
  2
DIMSTYLE
  5
A
330
0
100
AcDbSymbolTable
 70
     1
100
AcDbDimStyleTable
  0
DIMSTYLE
105
27
330
A
100
AcDbSymbolTableRecord
100
AcDbDimStyleTableRecord
  2
ISO-25
 70
     0
 41
2.5
 42
0.625
 43
3.75
 44
1.25
 73
     0
 74
     0
 77
     1
 78
     8
140
2.5
141
2.5
143
0.0393700787
147
0.625
171
     3
172
     1
178
     0
271
     2
272
     2
274
     3
278
    44
283
     0
284
     8
340
11
  0
ENDTAB
  0
TABLE
  2
BLOCK_RECORD
  5
1
330
0
100
AcDbSymbolTable
 70
     1
  0
BLOCK_RECORD
  5
1F
330
1
100
AcDbSymbolTableRecord
100
AcDbBlockTableRecord
  2
*Model_Space
340
22
  0
BLOCK_RECORD
  5
1B
330
1
100
AcDbSymbolTableRecord
100
AcDbBlockTableRecord
  2
*Paper_Space
340
1E
  0
BLOCK_RECORD
  5
23
330
1
100
AcDbSymbolTableRecord
100
AcDbBlockTableRecord
  2
*Paper_Space0
340
26
  0
ENDTAB
  0
ENDSEC
  0
SECTION
  2
BLOCKS
  0
BLOCK
  5
20
330
1F
100
AcDbEntity
  8
0
100
AcDbBlockBegin
  2
*Model_Space
 70
     0
 10
0.0
 20
0.0
 30
0.0
  3
*Model_Space
  1

  0
ENDBLK
  5
21
330
1F
100
AcDbEntity
  8
0
100
AcDbBlockEnd
  0
BLOCK
  5
1C
330
1B
100
AcDbEntity
 67
     1
  8
0
100
AcDbBlockBegin
  2
*Paper_Space
 70
     0
 10
0.0
 20
0.0
 30
0.0
  3
*Paper_Space
  1

  0
ENDBLK
  5
1D
330
1B
100
AcDbEntity
 67
     1
  8
0
100
AcDbBlockEnd
  0
BLOCK
  5
24
330
23
100
AcDbEntity
  8
0
100
AcDbBlockBegin
  2
*Paper_Space0
 70
     0
 10
0.0
 20
0.0
 30
0.0
  3
*Paper_Space0
  1

  0
ENDBLK
  5
25
330
23
100
AcDbEntity
  8
0
100
AcDbBlockEnd
  0
ENDSEC
  0
SECTION
  2
ENTITIES
  0
LINE
  5
73
330
1F
100
AcDbEntity
  8
0
  6
Continuous
 62
     7
370
    25
100
AcDbLine
 10
610.5802919801
 20
511.6164941963
 30
0.0
 11
610.5802919801
 21
596.8800124196
 31
0.0
  0
LINE
  5
74
330
1F
100
AcDbEntity
  8
0
  6
Continuous
 62
     7
370
    25
100
AcDbLine
 10
594.7802919801
 20
596.8800124196
 30
0.0
 11
594.7802919801
 21
511.6164941963
 31
0.0
  0
LINE
  5
75
330
1F
100
AcDbEntity
  8
0
  6
Continuous
 62
     7
370
    25
100
AcDbLine
 10
594.7802919801
 20
511.6164941963
 30
0.0
 11
594.7802919801
 21
511.4428460186
 31
0.0
  0
LINE
  5
76
330
1F
100
AcDbEntity
  8
0
  6
Continuous
 62
     7
370
    25
100
AcDbLine
 10
610.5802919801
 20
511.4428460186
 30
0.0
 11
610.5802919801
 21
511.6164941963
 31
0.0
  0
LINE
  5
77
330
1F
100
AcDbEntity
  8
0
  6
Continuous
 62
     7
370
    25
100
AcDbLine
 10
614.2302919801
 20
508.6581289163
 30
0.0
 11
614.2302919801
 21
510.9253744492
 31
0.0
  0
LINE
  5
78
330
1F
100
AcDbEntity
  8
0
  6
Continuous
 62
     7
370
    25
100
AcDbLine
 10
591.1302919801
 20
510.9253744492
 30
0.0
 11
591.1302919801
 21
508.6581289163
 31
0.0
  0
LINE
  5
79
330
1F
100
AcDbEntity
  8
0
  6
Continuous
 62
     7
370
    25
100
AcDbLine
 10
595.7050425421
 20
499.5920978954
 30
0.0
 11
596.0371972773
 21
499.3442496162
 31
0.0
  0
LINE
  5
7A
330
1F
100
AcDbEntity
  8
0
  6
Continuous
 62
     7
370
    25
100
AcDbLine
 10
609.323386683
 20
499.3442496162
 30
0.0
 11
609.6555414181
 21
499.5920978954
 31
0.0
  0
SPLINE
  5
7B
330
1F
100
AcDbEntity
  8
0
  6
Continuous
 62
     7
370
    25
100
AcDbSpline
210
0.0
220
0.0
230
1.0
 70
     8
 71
     3
 72
    17
 73
    13
 74
     0
 42
0.00000001
 43
0.00000001
 40
0.0
 40
0.0
 40
0.0
 40
0.0
 40
0.0757010880280769
 40
0.1933575763045034
 40
0.2912618787657215
 40
0.3743305147693017
 40
0.4421494603521344
 40
0.4919060741471211
 40
0.535802449862278
 40
0.5984320954139756
 40
0.7442127975943877
 40
0.9999999999999999
 40
0.9999999999999999
 40
0.9999999999999999
 40
0.9999999999999999
 10
494.4586569606477
 20
594.072879097186
 30
0.0
 10
494.4600345639419
 20
594.0405555588839
 30
0.0
 10
494.4635532720744
 20
593.957993984321
 30
0.0
 10
494.5243367862045
 20
593.8458043131558
 30
0.0
 10
494.6066936308416
 20
593.7497431118272
 30
0.0
 10
494.6922913925256
 20
593.6885449656553
 30
0.0
 10
494.7667592188719
 20
593.6540572744556
 30
0.0
 10
494.820030534662
 20
593.6375233228118
 30
0.0
 10
494.8572786563909
 20
593.6289125163689
 30
0.0
 10
494.8992753863801
 20
593.6215477095193
 30
0.0
 10
494.9537746200178
 20
593.6141749596902
 30
0.0
 10
495.0443013301237
 20
593.606573594549
 30
0.0
 10
495.1019642400738
 20
593.6017317436396
 30
0.0
  0
SPLINE
  5
7C
330
1F
100
AcDbEntity
  8
0
  6
Continuous
 62
     7
370
    25
100
AcDbSpline
210
0.0
220
0.0
230
1.0
 70
     8
 71
     3
 72
    17
 73
    13
 74
     0
 42
0.00000001
 43
0.00000001
 40
0.0
 40
0.0
 40
0.0
 40
0.0
 40
0.1556019134851706
 40
0.4529769665498686
 40
0.5811074565362371
 40
0.6278508074499529
 40
0.6629928816495309
 40
0.7134835999925893
 40
0.7791140379025461
 40
0.862827420641186
 40
0.953380216900935
 40
1.0
 40
1.0
 40
1.0
 40
1.0
 10
495.4627502614622
 20
600.1867494699864
 30
0.0
 10
495.3879981949824
 20
600.1814280318664
 30
0.0
 10
495.1703854191564
 20
600.1659366484812
 30
0.0
 10
494.9856300350687
 20
600.1491934730224
 30
0.0
 10
494.899239882598
 20
600.1389030446297
 30
0.0
 10
494.8398380015816
 20
600.1277124406408
 30
0.0
 10
494.777291527527
 20
600.1101718326797
 30
0.0
 10
494.6904125130536
 20
600.0717987374636
 30
0.0
 10
494.5862262022527
 20
599.9943171145369
 30
0.0
 10
494.4939747934596
 20
599.8678547379114
 30
0.0
 10
494.4426382328174
 20
599.7278957264709
 30
0.0
 10
494.4525136574186
 20
599.6389627969168
 30
0.0
 10
494.4558699415614
 20
599.6087378503162
 30
0.0
  0
LINE
  5
7D
330
1F
100
AcDbEntity
  8
0
  6
Continuous
 62
     7
370
    25
100
AcDbLine
 10
495.4627502615
 20
593.5732753693
 30
0.0
 11
498.9460709523
 21
593.3311078409
 31
0.0
  0
LINE
  5
7E
330
1F
100
AcDbEntity
  8
0
  6
Continuous
 62
     7
370
    25
100
AcDbLine
 10
498.9460709523
 20
600.4289169984
 30
0.0
 11
495.4627502615
 21
600.18674947
 31
0.0
  0
ARC
  5
7F
330
1F
100
AcDbEntity
  8
0
  6
Continuous
 62
     7
370
    25
100
AcDbCircle
 10
543.7712767749
 20
599.8519068954
 30
0.0
 40
8.999995138923055
100
AcDbArc
 50
77.1419190681
 51
90.0
  0
ARC
  5
80
330
1F
100
AcDbEntity
  8
0
  6
Continuous
 62
     7
370
    25
100
AcDbCircle
 10
543.7712767749
 20
599.8519068954
 30
0.0
 40
8.999995138923055
100
AcDbArc
 50
90.0
 51
125.1719294169
  0
SPLINE
  5
81
330
1F
100
AcDbEntity
  8
0
  6
Continuous
 62
     7
370
    25
100
AcDbSpline
210
0.0
220
0.0
230
1.0
 70
     8
 71
     3
 72
    17
 73
    13
 74
     0
 42
0.00000001
 43
0.00000001
 40
0.0
 40
0.0
 40
0.0
 40
0.0
 40
0.1556019134851701
 40
0.4529769665498671
 40
0.5811074565362351
 40
0.6278508074499541
 40
0.662992881649527
 40
0.7134835999925911
 40
0.779114037902542
 40
0.8628274206411821
 40
0.9533802169009354
 40
1.0
 40
1.0
 40
1.0
 40
1.0
 10
709.8978336988085
 20
593.8186966581234
 30
0.0
 10
709.9725857652883
 20
593.8240180962433
 30
0.0
 10
710.1901985411143
 20
593.8395094796286
 30
0.0
 10
710.374953925202
 20
593.8562526550874
 30
0.0
 10
710.4613440776727
 20
593.86654308348
 30
0.0
 10
710.5207459586892
 20
593.877733687469
 30
0.0
 10
710.5832924327437
 20
593.89527429543
 30
0.0
 10
710.6701714472171
 20
593.933647390646
 30
0.0
 10
710.7743577580181
 20
594.0111290135728
 30
0.0
 10
710.8666091668113
 20
594.1375913901982
 30
0.0
 10
710.9179457274533
 20
594.2775504016388
 30
0.0
 10
710.908070302852
 20
594.3664833311929
 30
0.0
 10
710.9047140187093
 20
594.3967082777934
 30
0.0
  0
SPLINE
  5
82
330
1F
100
AcDbEntity
  8
0
  6
Continuous
 62
     7
370
    25
100
AcDbSpline
210
0.0
220
0.0
230
1.0
 70
     8
 71
     3
 72
    17
 73
    13
 74
     0
 42
0.00000001
 43
0.00000001
 40
0.0
 40
0.0
 40
0.0
 40
0.0
 40
0.075701088028076
 40
0.1933575763045
 40
0.2912618787657164
 40
0.3743305147692877
 40
0.4421494603521163
 40
0.4919060741471096
 40
0.5358024498622727
 40
0.5984320954139702
 40
0.7442127975943825
 40
1.0
 40
1.0
 40
1.0
 40
1.0
 10
710.901926999623
 20
599.9325670309237
 30
0.0
 10
710.9005493963289
 20
599.9648905692259
 30
0.0
 10
710.8970306881964
 20
600.0474521437886
 30
0.0
 10
710.8362471740663
 20
600.1596418149538
 30
0.0
 10
710.7538903294293
 20
600.2557030162824
 30
0.0
 10
710.6682925677452
 20
600.3169011624544
 30
0.0
 10
710.5938247413989
 20
600.3513888536542
 30
0.0
 10
710.5405534256089
 20
600.3679228052978
 30
0.0
 10
710.5033053038799
 20
600.3765336117407
 30
0.0
 10
710.4613085738907
 20
600.3838984185904
 30
0.0
 10
710.4068093402531
 20
600.3912711684194
 30
0.0
 10
710.316282630147
 20
600.3988725335607
 30
0.0
 10
710.258619720197
 20
600.40371438447
 30
0.0
  0
LINE
  5
83
330
1F
100
AcDbEntity
  8
0
  6
Continuous
 62
     7
370
    25
100
AcDbLine
 10
706.4145130079
 20
593.5765291297
 30
0.0
 11
709.8978336988
 21
593.8186966581
 31
0.0
  0
LINE
  5
84
330
1F
100
AcDbEntity
  8
0
  6
Continuous
 62
     7
370
    25
100
AcDbLine
 10
709.8978336988
 20
600.4321707588
 30
0.0
 11
706.4145130079
 21
600.6743382872
 31
0.0
  0
ARC
  5
85
330
1F
100
AcDbEntity
  8
0
  6
Continuous
 62
     7
370
    25
100
AcDbCircle
 10
661.5893071854
 20
594.1535392327
 30
0.0
 40
8.999995138923055
100
AcDbArc
 50
257.1419190681
 51
270.0
  0
ARC
  5
86
330
1F
100
AcDbEntity
  8
0
  6
Continuous
 62
     7
370
    25
100
AcDbCircle
 10
661.5893071854
 20
594.1535392327
 30
0.0
 40
8.999995138923124
100
AcDbArc
 50
270.0
 51
305.1719294169
  0
SPLINE
  5
87
330
1F
100
AcDbEntity
  8
0
  6
Continuous
 62
     7
370
    25
100
AcDbSpline
210
0.0
220
0.0
230
1.0
 70
     8
 71
     3
 72
    16
 73
    12
 74
     0
 42
0.00000001
 43
0.00000001
 40
0.0
 40
0.0
 40
0.0
 40
0.0
 40
0.0089384092579324
 40
0.0583915511135205
 40
0.1004506444716821
 40
0.159041753948432
 40
0.2441300697854976
 40
0.4573628102421722
 40
0.6182440189711256
 40
0.8467088488280773
 40
1.0
 40
1.0
 40
1.0
 40
1.0
 10
642.2577236663311
 20
610.4494914810108
 30
0.0
 10
642.2562099974879
 20
610.448343318875
 30
0.0
 10
642.2463217199346
 20
610.440842770835
 30
0.0
 10
642.1859218343511
 20
610.3962414863436
 30
0.0
 10
642.0378526095267
 20
610.2907167087085
 30
0.0
 10
641.7655274232659
 20
610.1084835121301
 30
0.0
 10
641.2158027659569
 20
609.7794907488753
 30
0.0
 10
640.4571034175776
 20
609.4223283349043
 30
0.0
 10
639.415848839357
 20
609.0910662894848
 30
0.0
 10
638.4432339487903
 20
608.9005548334895
 30
0.0
 10
637.7501479150761
 20
608.8960627362541
 30
0.0
 10
637.4718445976457
 20
608.8942589694747
 30
0.0
  0
SPLINE
  5
88
330
1F
100
AcDbEntity
  8
0
  6
Continuous
 62
     7
370
    25
100
AcDbSpline
210
0.0
220
0.0
230
1.0
 70
     8
 71
     3
 72
    15
 73
    11
 74
     0
 42
0.00000001
 43
0.00000001
 40
0.0
 40
0.0
 40
0.0
 40
0.0
 40
0.0470525713545569
 40
0.2514715081136159
 40
0.4412485449675067
 40
0.6142463364359508
 40
0.7674656146299327
 40
0.8963802462581302
 40
0.991734041158303
 40
1.0
 40
1.0
 40
1.0
 40
1.0
 10
567.9111044430898
 20
608.8910379369205
 30
0.0
 10
567.837668727777
 20
608.8871549567641
 30
0.0
 10
567.4451930447807
 20
608.8664024485003
 30
0.0
 10
566.7559520642004
 20
608.9444687464897
 30
0.0
 10
565.885173402633
 20
609.1108019527328
 30
0.0
 10
565.115289658217
 20
609.353181424731
 30
0.0
 10
564.4570523210698
 20
609.629972526856
 30
0.0
 10
563.9412055956512
 20
609.9003615832914
 30
0.0
 10
563.6201549172882
 20
610.0929480101556
 30
0.0
 10
563.4991505793834
 20
610.1741899224364
 30
0.0
 10
563.4894978168485
 20
610.1806707552785
 30
0.0
  0
SPLINE
  5
89
330
1F
100
AcDbEntity
  8
0
  6
Continuous
 62
     7
370
    25
100
AcDbSpline
210
0.0
220
0.0
230
1.0
 70
     8
 71
     3
 72
    16
 73
    12
 74
     0
 42
0.00000001
 43
0.00000001
 40
0.0
 40
0.0
 40
0.0
 40
0.0
 40
0.135946316013033
 40
0.31275882726174
 40
0.4760802359949101
 40
0.623704208393641
 40
0.7521088248178165
 40
0.8539598476359705
 40
0.9223124584768514
 40
0.9713623694180074
 40
1.0
 40
1.0
 40
1.0
 40
1.0
 10
637.4930871652635
 20
584.8712148044714
 30
0.0
 10
637.7335823247214
 20
584.8698932365472
 30
0.0
 10
638.2868667846474
 20
584.8668528302588
 30
0.0
 10
639.1205603625936
 20
584.7305833176692
 30
0.0
 10
639.9545427346214
 20
584.509644065081
 30
0.0
 10
640.6805750946753
 20
584.2313268947023
 30
0.0
 10
641.2791825442989
 20
583.9373711816472
 30
0.0
 10
641.7309218448144
 20
583.6708523956162
 30
0.0
 10
642.0373505755883
 20
583.4660607914369
 30
0.0
 10
642.2037479508565
 20
583.346208129445
 30
0.0
 10
642.2547230703898
 20
583.3079046764929
 30
0.0
 10
642.273513813583
 20
583.2937850362757
 30
0.0
  0
SPLINE
  5
8A
330
1F
100
AcDbEntity
  8
0
  6
Continuous
 62
     7
370
    25
100
AcDbSpline
210
0.0
220
0.0
230
1.0
 70
     8
 71
     3
 72
    15
 73
    11
 74
     0
 42
0.00000001
 43
0.00000001
 40
0.0
 40
0.0
 40
0.0
 40
0.0
 40
0.0284293139696732
 40
0.0805119436142338
 40
0.1643036987916297
 40
0.2777806503195913
 40
0.4938997079449109
 40
0.7064678841656007
 40
0.9261878095277772
 40
0.9999999999999999
 40
0.9999999999999999
 40
0.9999999999999999
 40
0.9999999999999999
 10
563.088095491381
 20
583.2942147170622
 30
0.0
 10
563.1017609959077
 20
583.304669472917
 30
0.0
 10
563.1404617655112
 20
583.334277388
 30
0.0
 10
563.3330523604918
 20
583.4735920622852
 30
0.0
 10
563.6865680954578
 20
583.7079233445528
 30
0.0
 10
564.3216869370416
 20
584.070902071748
 30
0.0
 10
565.2064877985192
 20
584.4572720154306
 30
0.0
 10
566.3198633497273
 20
584.7533470362316
 30
0.0
 10
567.2147180117848
 20
584.8891236987039
 30
0.0
 10
567.7357125398029
 20
584.8708781624454
 30
0.0
 10
567.8667228969755
 20
584.8662901023151
 30
0.0
  0
LINE
  5
8B
330
1F
100
AcDbEntity
  8
0
  6
Continuous
 62
     7
370
    25
100
AcDbLine
 10
594.9013878307
 20
608.8800124196
 30
0.0
 11
567.9118797757
 21
608.8800124196
 31
0.0
  0
LINE
  5
8C
330
1F
100
AcDbEntity
  8
0
  6
Continuous
 62
     7
370
    25
100
AcDbLine
 10
637.4714420302
 20
608.8800124196
 30
0.0
 11
610.5904366415
 21
608.8800124196
 31
0.0
  0
LINE
  5
8D
330
1F
100
AcDbEntity
  8
0
  6
Continuous
 62
     7
370
    25
100
AcDbLine
 10
610.5802919801
 20
584.8800124196
 30
0.0
 11
637.5003044958
 21
584.8800124196
 31
0.0
  0
LINE
  5
8E
330
1F
100
AcDbEntity
  8
0
  6
Continuous
 62
     7
370
    25
100
AcDbLine
 10
567.8602794645
 20
584.8800124196
 30
0.0
 11
594.7701473188
 21
584.8800124196
 31
0.0
  0
ARC
  5
8F
330
1F
100
AcDbEntity
  8
0
  6
Continuous
 62
     7
370
    25
100
AcDbCircle
 10
602.6802919801
 20
596.8800124196
 30
0.0
 40
7.900000000000091
100
AcDbArc
 50
0.0
 51
90.0
  0
ARC
  5
90
330
1F
100
AcDbEntity
  8
0
  6
Continuous
 62
     7
370
    25
100
AcDbCircle
 10
602.6802919801
 20
596.8800124196
 30
0.0
 40
7.900000000000091
100
AcDbArc
 50
90.0
 51
180.0
  0
ARC
  5
91
330
1F
100
AcDbEntity
  8
0
  6
Continuous
 62
     7
370
    25
100
AcDbCircle
 10
602.8662465308
 20
511.4516777406
 30
0.0
 40
7.714050504983854
100
AcDbArc
 50
318.7874251724
 51
359.9344027494
  0
ARC
  5
92
330
1F
100
AcDbEntity
  8
0
  6
Continuous
 62
     7
370
    25
100
AcDbCircle
 10
602.5018762258
 20
511.4540968549
 30
0.0
 40
7.721592442217899
100
AcDbArc
 50
180.083483513
 51
223.034094652
  0
SPLINE
  5
93
330
1F
100
AcDbEntity
  8
0
  6
Continuous
 62
     7
370
    25
100
AcDbSpline
210
0.0
220
0.0
230
1.0
 70
     8
 71
     3
 72
     9
 73
     5
 74
     0
 42
0.00000001
 43
0.00000001
 40
0.0
 40
0.0
 40
0.0
 40
0.0
 40
0.2575627509401768
 40
1.0
 40
1.0
 40
1.0
 40
1.0
 10
613.4051099221463
 20
511.8188340976176
 30
0.0
 10
613.3993117023225
 20
511.7963448079533
 30
0.0
 10
613.3767998297692
 20
511.7090290389526
 30
0.0
 10
613.3493818377419
 20
511.5931492440885
 30
0.0
 10
613.3290256991663
 20
511.5071157679681
 30
0.0
  0
SPLINE
  5
94
330
1F
100
AcDbEntity
  8
0
  6
Continuous
 62
     7
370
    25
100
AcDbSpline
210
0.0
220
0.0
230
1.0
 70
     8
 71
     3
 72
     9
 73
     5
 74
     0
 42
0.00000001
 43
0.00000001
 40
0.0
 40
0.0
 40
0.0
 40
0.0
 40
0.5640571114338261
 40
0.9999999999999999
 40
0.9999999999999999
 40
0.9999999999999999
 40
0.9999999999999999
 10
613.3290256991727
 20
511.5071157679674
 30
0.0
 10
613.3027992540661
 20
511.0105809833554
 30
0.0
 10
613.2563031731288
 20
510.13028929915
 30
0.0
 10
613.081567353846
 20
509.2494281608389
 30
0.0
 10
613.0053925160519
 20
508.8654230117778
 30
0.0
  0
SPLINE
  5
95
330
1F
100
AcDbEntity
  8
0
  6
Continuous
 62
     7
370
    25
100
AcDbSpline
210
0.0
220
0.0
230
1.0
 70
     8
 71
     3
 72
    30
 73
    26
 74
     0
 42
0.00000001
 43
0.00000001
 40
0.0
 40
0.0
 40
0.0
 40
0.0
 40
0.0307682751376102
 40
0.0754826178415692
 40
0.1214936442130545
 40
0.1662092383163521
 40
0.212212606777983
 40
0.2570910486625419
 40
0.3032656253489608
 40
0.3482321038941177
 40
0.3945005034405026
 40
0.4395348202392172
 40
0.4858661227318369
 40
0.5310485696154855
 40
0.5775412208971968
 40
0.6227251794687194
 40
0.669208987708414
 40
0.7145650541085984
 40
0.7612362845483447
 40
0.8065955494861051
 40
0.8532650875879135
 40
0.8987171828617311
 40
0.9454846031418997
 40
0.9909824746202248
 40
1.0
 40
1.0
 40
1.0
 40
1.0
 10
613.0053940843038
 20
508.8654302366352
 30
0.0
 10
612.9111763668283
 20
508.4793076456859
 30
0.0
 10
612.6800356892861
 20
507.532048046561
 30
0.0
 10
612.0468961270255
 20
506.0841901654789
 30
0.0
 10
611.0927518904979
 20
504.6039906025401
 30
0.0
 10
609.8847143890658
 20
503.2924074844566
 30
0.0
 10
608.4840863108536
 20
502.2061049468336
 30
0.0
 10
606.9026240121063
 20
501.3568996589992
 30
0.0
 10
605.2118716525497
 20
500.7847144348243
 30
0.0
 10
603.4307615166091
 20
500.4970729983219
 30
0.0
 10
601.6407542295509
 20
500.5079999253969
 30
0.0
 10
599.8613437356814
 20
500.815955916553
 30
0.0
 10
598.1726688301
 20
501.4082509089248
 30
0.0
 10
596.593099016733
 20
502.279688461283
 30
0.0
 10
595.1963110711981
 20
503.3912181195642
 30
0.0
 10
593.9982466414679
 20
504.7296177219955
 30
0.0
 10
593.052177218195
 20
506.2341499416792
 30
0.0
 10
592.3689679833959
 20
507.8906773417264
 30
0.0
 10
591.9815176228433
 20
509.6229969727758
 30
0.0
 10
591.8944816639801
 20
511.4115413663364
 30
0.0
 10
592.1127902104664
 20
513.1725934521347
 30
0.0
 10
592.6282031184267
 20
514.8945106610381
 30
0.0
 10
593.4426847042635
 20
516.4742868404605
 30
0.0
 10
594.1800844147843
 20
517.5732842050503
 30
0.0
 10
594.6951017077059
 20
518.057612016252
 30
0.0
 10
594.7802919801354
 20
518.1377258663082
 30
0.0
  0
SPLINE
  5
96
330
1F
100
AcDbEntity
  8
0
  6
Continuous
 62
     7
370
    25
100
AcDbSpline
210
0.0
220
0.0
230
1.0
 70
     8
 71
     3
 72
     9
 73
     5
 74
     0
 42
0.00000001
 43
0.00000001
 40
0.0
 40
0.0
 40
0.0
 40
0.0
 40
0.0023395561044564
 40
0.9999999999999999
 40
0.9999999999999999
 40
0.9999999999999999
 40
0.9999999999999999
 10
610.5802919801354
 20
518.1776284237679
 30
0.0
 10
610.5813326181313
 20
518.1766912938423
 30
0.0
 10
611.0261340887782
 20
517.7761324340413
 30
0.0
 10
611.3619683356635
 20
517.2757371274098
 30
0.0
 10
611.6970168794863
 20
516.7765125236725
 30
0.0
  0
ARC
  5
97
330
1F
100
AcDbEntity
  8
0
  6
Continuous
 62
     7
370
    25
100
AcDbCircle
 10
602.9744887268
 20
510.9219343531
 30
0.0
 40
10.50516934327
100
AcDbArc
 50
348.3537095045
 51
33.8695903136
  0
SPLINE
  5
98
330
1F
100
AcDbEntity
  8
0
  6
Continuous
 62
     7
370
    25
100
AcDbSpline
210
0.0
220
0.0
230
1.0
 70
     8
 71
     3
 72
     9
 73
     5
 74
     0
 42
0.00000001
 43
0.00000001
 40
0.0
 40
0.0
 40
0.0
 40
0.0
 40
0.6275170954439173
 40
1.0
 40
1.0
 40
1.0
 40
1.0
 10
613.2633826306824
 20
508.801263429818
 30
0.0
 10
613.3659377364926
 20
509.4277898324218
 30
0.0
 10
613.5293677156197
 20
510.4262110820619
 30
0.0
 10
613.438832676487
 20
511.4408852983557
 30
0.0
 10
613.4051099221467
 20
511.8188340976189
 30
0.0
  0
LINE
  5
99
330
1F
100
AcDbEntity
  8
0
  6
Continuous
 62
     7
370
    25
100
AcDbLine
 10
612.7622369485
 20
508.8522240354
 30
0.0
 11
613.24237035
 21
508.7022454783
 31
0.0
  0
SPLINE
  5
9A
330
1F
100
AcDbEntity
  8
0
  6
Continuous
 62
     7
370
    25
100
AcDbSpline
210
0.0
220
0.0
230
1.0
 70
     8
 71
     3
 72
    25
 73
    21
 74
     0
 42
0.00000001
 43
0.00000001
 40
0.0
 40
0.0
 40
0.0
 40
0.0
 40
0.0245547590814117
 40
0.0983147929454412
 40
0.1933765622846525
 40
0.3238596357731923
 40
0.372490664852613
 40
0.4167419924130379
 40
0.4566131765565825
 40
0.4921038192368705
 40
0.5232135663126357
 40
0.5499421076415465
 40
0.6346487706561235
 40
0.7000341954041952
 40
0.7460856439685649
 40
0.7571388857095318
 40
0.7660422091507599
 40
0.7727955929764954
 40
0.8863977330281384
 40
1.0
 40
1.0
 40
1.0
 40
1.0
 10
601.7831978514516
 20
500.2967277736225
 30
0.0
 10
601.9101044255611
 20
500.2841274094978
 30
0.0
 10
602.4182256217669
 20
500.2336768151403
 30
0.0
 10
603.4260494652851
 20
500.2576994994434
 30
0.0
 10
604.9718452610426
 20
500.448336135501
 30
0.0
 10
606.346046797915
 20
500.8584197411512
 30
0.0
 10
607.4060984260996
 20
501.3266610954917
 30
0.0
 10
608.0160676386091
 20
501.6460818714368
 30
0.0
 10
608.5468864236481
 20
501.9660830378791
 30
0.0
 10
609.0029978921805
 20
502.2757586400606
 30
0.0
 10
609.3891344132037
 20
502.5657826126783
 30
0.0
 10
609.9595726055807
 20
503.0324427454041
 30
0.0
 10
610.6196716989688
 20
503.6671786047638
 30
0.0
 10
611.2695083493377
 20
504.4439807698399
 30
0.0
 10
611.6343851676774
 20
504.9593293185264
 30
0.0
 10
611.819105745804
 20
505.24456661499
 30
0.0
 10
611.8921780009805
 20
505.3610366417459
 30
0.0
 10
612.2390787427621
 20
505.9285951228402
 30
0.0
 10
612.7911612942409
 20
507.0084478848492
 30
0.0
 10
613.0920076824633
 20
508.1375388850993
 30
0.0
 10
613.2424309606035
 20
508.702084700589
 30
0.0
  0
LINE
  5
9B
330
1F
100
AcDbEntity
  8
0
  6
Continuous
 62
     7
370
    25
100
AcDbLine
 10
613.2633826307
 20
508.8012634298
 30
0.0
 11
613.2423941945
 21
508.7020618846
 31
0.0
  0
LWPOLYLINE
  5
9C
330
1F
100
AcDbEntity
  8
0
  6
Continuous
 62
     7
370
    25
100
AcDbPolyline
 90
       97
 70
   128
 43
0.0
 10
612.5400016784
 20
506.6064089114
 10
613.0608344353
 20
507.8076071456
 10
613.4062186328
 20
509.5035937162
 10
613.4702436365
 20
511.209737494
 10
613.4308639499
 20
511.768674521
 10
613.3852829339
 20
512.1608542919
 10
613.2847827484
 20
512.7692247613
 10
613.091366523
 20
513.5851973485
 10
612.7549052868
 20
514.5913601593
 10
611.9952166281
 20
516.1458311573
 10
610.991522861
 20
517.5592453369
 10
610.6071074456
 20
517.9925310241
 10
610.1995756112
 20
518.404743632
 10
609.7701158144
 20
518.794684955
 10
609.3199804589
 20
519.1612217156
 10
608.850482243
 20
519.5032888695
 10
608.3629903317
 20
519.8198927115
 10
608.3156992568
 20
519.8486725902
 10
607.9259206142
 20
520.0736493087
 10
606.7857980739
 20
520.6170415402
 10
605.817033175
 20
520.9594574557
 10
605.0986193699
 20
521.149620778
 10
604.1710488515
 20
521.3200764292
 10
603.3134165955
 20
521.4055609765
 10
602.516960575
 20
521.4244076868
 10
601.6503238652
 20
521.3790980096
 10
600.7998908501
 20
521.2671057767
 10
599.6548374481
 20
521.0064691509
 10
598.2537465465
 20
520.5014623781
 10
597.3081051983
 20
520.0292032025
 10
596.5145238715
 20
519.536933937
 10
595.8621146311
 20
519.0550123412
 10
595.3380503404
 20
518.6081172255
 10
594.8701756277
 20
518.155633941
 10
594.4508860684
 20
517.6988167987
 10
594.0776630481
 20
517.2427034946
 10
593.7477194589
 20
516.7917999321
 10
593.4580806899
 20
516.3500986764
 10
593.2056570842
 20
515.9211040993
 10
592.5673651158
 20
514.5527564691
 10
592.2339445954
 20
513.5218367137
 10
592.0841768786
 20
512.8808217617
 10
592.0521212838
 20
512.7140376854
 10
592.0440653285
 20
512.6696633127
 10
592.0418496119
 20
512.6572636406
 10
592.0411824228
 20
512.6535128523
 10
592.0409360466
 20
512.6521257588
 10
592.0408565041
 20
512.6516776997
 10
592.0408270877
 20
512.6515119685
 10
592.0408152248
 20
512.6514451288
 10
592.0408102142
 20
512.6514168968
 10
592.0408080501
 20
512.6514047027
 10
592.040806367
 20
512.6513952193
 10
591.956857472
 20
512.0900517991
 10
591.9035693134
 20
511.5250821101
 10
591.8810942541
 20
510.9581053184
 10
591.8894965555
 20
510.3907462956
 10
591.9287521935
 20
509.8246309734
 10
591.9987489273
 20
509.2613816942
 10
592.0142007906
 20
509.162894487
 10
592.1896858198
 20
508.3071043241
 10
592.3172106836
 20
507.8412087524
 10
592.4982336491
 20
507.2911339272
 10
592.747335221
 20
506.6634045661
 10
593.0807525857
 20
505.9672661317
 10
593.7112422135
 20
504.918701004
 10
594.4105925229
 20
504.0054621995
 10
595.1509631238
 20
503.2236855795
 10
595.8805814383
 20
502.5877130572
 10
596.8259148341
 20
501.9159421888
 10
598.0118087623
 20
501.2659616114
 10
599.6445848555
 20
500.6538777368
 10
601.356936073
 20
500.3092957879
 10
602.0541465646
 20
500.2486530564
 10
602.7539879996
 20
500.2326160423
 10
603.453519778
 20
500.2612588763
 10
604.1498026012
 20
500.3344679137
 10
604.839910822
 20
500.4519422126
 10
605.0253901
 20
500.4913338255
 10
605.7393864313
 20
500.6748928728
 10
606.8338950441
 20
501.0601241414
 10
607.6472072189
 20
501.4357430541
 10
608.135621171
 20
501.7021504041
 10
609.1881419594
 20
502.3962738403
 10
609.5523968839
 20
502.6804870404
 10
609.947759076
 20
503.0189993601
 10
610.3676684787
 20
503.4173867192
 10
610.8042782202
 20
503.881255072
 10
611.6950088787
 20
505.0354531597
 10
612.6556903922
 20
506.8214898571
 10
612.9186785463
 20
507.5142646248
 10
613.1158274847
 20
508.1612727761
 10
613.2581511305
 20
508.7563871563
 10
613.3560453855
 20
509.2950951258
 10
613.4190908601
 20
509.7742122041
 10
613.4559117055
 20
510.1916105617
 10
613.4631538218
 20
510.9076737683
  0
LINE
  5
9D
330
1F
100
AcDbEntity
  8
0
  6
Continuous
 62
     7
370
    25
100
AcDbLine
 10
613.4051099221
 20
511.8188340976
 30
0.0
 11
613.3240117566
 21
511.4445974385
 31
0.0
  0
SPLINE
  5
9E
330
1F
100
AcDbEntity
  8
0
  6
Continuous
 62
     7
370
    25
100
AcDbSpline
210
0.0
220
0.0
230
1.0
 70
     8
 71
     3
 72
     9
 73
     5
 74
     0
 42
0.00000001
 43
0.00000001
 40
0.0
 40
0.0
 40
0.0
 40
0.0
 40
0.7718470435032283
 40
1.0
 40
1.0
 40
1.0
 40
1.0
 10
610.4967774671927
 20
596.8102849623049
 30
0.0
 10
610.5453655736704
 20
597.0699224140332
 30
0.0
 10
610.6083160078098
 20
597.4063070046246
 30
0.0
 10
610.5145058028791
 20
597.7285233577544
 30
0.0
 10
610.4931027272745
 20
597.8020379713524
 30
0.0
  0
LINE
  5
9F
330
1F
100
AcDbEntity
  8
0
  6
Continuous
 62
     7
370
    25
100
AcDbLine
 10
603.3568188661
 20
604.6579205317
 30
0.0
 11
602.1556312717
 21
604.7240318451
 31
0.0
  0
SPLINE
  5
A0
330
1F
100
AcDbEntity
  8
0
  6
Continuous
 62
     7
370
    25
100
AcDbSpline
210
0.0
220
0.0
230
1.0
 70
     8
 71
     3
 72
     9
 73
     5
 74
     0
 42
0.00000001
 43
0.00000001
 40
0.0
 40
0.0
 40
0.0
 40
0.0
 40
0.144865534408441
 40
1.0
 40
1.0
 40
1.0
 40
1.0
 10
596.2426401223414
 20
601.3841689819817
 30
0.0
 10
596.170828936741
 20
601.3066151264488
 30
0.0
 10
595.6751196854439
 20
600.771264493535
 30
0.0
 10
595.4280242708076
 20
600.0695257588466
 30
0.0
 10
595.2167244654624
 20
599.4694447809738
 30
0.0
  0
LWPOLYLINE
  5
A1
330
1F
100
AcDbEntity
  8
0
  6
Continuous
 62
     7
370
    25
100
AcDbPolyline
 90
       28
 70
   128
 43
0.0
 10
614.2062981635
 20
510.1925812166
 10
613.9666601827
 20
508.509002015
 10
613.4749033864
 20
506.8794005807
 10
612.7420128088
 20
505.3401795169
 10
611.7843600144
 20
503.9257224786
 10
610.6233373842
 20
502.6676260987
 10
609.2848802451
 20
501.5939941715
 10
607.7988875179
 20
500.72880986
 10
606.1985538247
 20
500.0913999521
 10
604.5196279756
 20
499.6960031319
 10
602.7996143997
 20
499.551451911
 10
601.0769353582
 20
499.6609753247
 10
599.3900726541
 20
500.022126801
 10
597.7767080129
 20
500.6268388126
 10
596.2728813346
 20
501.4616030926
 10
594.9121856221
 20
502.5077723863
 10
593.7250165693
 20
503.7419770004
 10
592.737893571
 20
505.1366468433
 10
591.9728673239
 20
506.6606272953
 10
591.4470272501
 20
508.2798751514
 10
591.1721197479
 20
509.9582190904
 10
591.1542857968
 20
511.6581676818
 10
591.3939237776
 20
513.3417468834
 10
591.8856805739
 20
514.9713483176
 10
592.6185711514
 20
516.5105693815
 10
593.5762239458
 20
517.9250264198
 10
594.7372465761
 20
519.1831227997
 10
594.7802919801
 20
519.2230737804
  0
ARC
  5
A2
330
1F
100
AcDbEntity
  8
0
  6
Continuous
 62
     7
370
    25
100
AcDbCircle
 10
602.9405380428
 20
510.9122698149
 30
0.0
 40
11.28872458585792
100
AcDbArc
 50
356.3447506394
 51
47.4090489516
  0
ARC
  5
A3
330
1F
100
AcDbEntity
  8
0
  6
Continuous
 62
     7
370
    25
100
AcDbCircle
 10
602.6813336209
 20
511.2327063547
 30
0.0
 40
10.64781111372048
100
AcDbArc
 50
270.1199901204
 51
287.0292582819
  0
LINE
  5
A4
330
1F
100
AcDbEntity
  8
0
  6
Continuous
 62
     7
370
    25
100
AcDbLine
 10
614.2062981635
 20
507.9253356837
 30
0.0
 11
614.2302919801
 21
508.6581289163
 31
0.0
  0
ARC
  5
A5
330
1F
100
AcDbEntity
  8
0
  6
Continuous
 62
     7
370
    25
100
AcDbCircle
 10
602.6845143734
 20
508.8024857925
 30
0.0
 40
11.55512414559315
100
AcDbArc
 50
180.7158083983
 51
355.6464863143
  0
ARC
  5
A6
330
1F
100
AcDbEntity
  8
0
  6
Continuous
 62
     7
370
    25
100
AcDbCircle
 10
602.6802919801
 20
508.2694832052
 30
0.0
 40
11.12611800447985
100
AcDbArc
 50
233.3395108086
 51
306.6604891914
  0
ARC
  5
A7
330
1F
100
AcDbEntity
  8
0
  6
Continuous
 62
     7
370
    25
100
AcDbCircle
 10
602.6802919801
 20
596.8800124196
 30
0.0
 40
9.725000000000048
100
AcDbArc
 50
182.3675813795
 51
215.6748758017
  0
ARC
  5
A8
330
1F
100
AcDbEntity
  8
0
  6
Continuous
 62
     7
370
    25
100
AcDbCircle
 10
602.6802919801
 20
596.8800124196
 30
0.0
 40
9.725000000000048
100
AcDbArc
 50
324.3251241983
 51
182.3675813795
  0
ARC
  5
A9
330
1F
100
AcDbEntity
  8
0
  6
Continuous
 62
     7
370
    25
100
AcDbCircle
 10
602.6802919801
 20
596.8800124196
 30
0.0
 40
9.925000000000034
100
AcDbArc
 50
322.7469493593
 51
182.3675813795
  0
ARC
  5
AA
330
1F
100
AcDbEntity
  8
0
  6
Continuous
 62
     7
370
    25
100
AcDbCircle
 10
602.6802919801
 20
596.8800124196
 30
0.0
 40
9.925000000000034
100
AcDbArc
 50
182.3675813795
 51
217.2530506407
  0
ARC
  5
AB
330
1F
100
AcDbEntity
  8
0
  6
Continuous
 62
     7
370
    25
100
AcDbCircle
 10
602.6802919801
 20
596.8800124196
 30
0.0
 40
14.225
100
AcDbArc
 50
304.0742282199
 51
182.3675813795
  0
ARC
  5
AC
330
1F
100
AcDbEntity
  8
0
  6
Continuous
 62
     7
370
    25
100
AcDbCircle
 10
602.6802919801
 20
596.8800124196
 30
0.0
 40
14.225
100
AcDbArc
 50
182.3675813795
 51
236.2644663603
  0
LINE
  5
AD
330
1F
100
AcDbEntity
  8
0
  6
Continuous
 62
     7
370
    25
100
AcDbLine
 10
593.2672397312
 20
586.2148789297
 30
0.0
 11
593.1067249034
 21
586.0330131522
 31
0.0
  0
LINE
  5
AE
330
1F
100
AcDbEntity
  8
0
  6
Continuous
 62
     7
370
    25
100
AcDbLine
 10
606.1394314291
 20
610.9279636565
 30
0.0
 11
606.0814339065
 21
610.6924292464
 31
0.0
  0
SPLINE
  5
AF
330
1F
100
AcDbEntity
  8
0
  6
Continuous
 62
     7
370
    25
100
AcDbSpline
210
0.0
220
0.0
230
1.0
 70
     8
 71
     3
 72
    11
 73
     7
 74
     0
 42
0.00000001
 43
0.00000001
 40
0.0
 40
0.0
 40
0.0
 40
0.0
 40
0.1446702591042558
 40
0.3907520209323659
 40
0.5962314811354595
 40
1.0
 40
1.0
 40
1.0
 40
1.0
 10
612.253859056889
 20
607.7270116871044
 30
0.0
 10
611.9780286034506
 20
607.9144167464555
 30
0.0
 10
611.2330150271765
 20
608.4205947689994
 30
0.0
 10
610.048359612751
 20
609.120600599658
 30
0.0
 10
608.3053945985507
 20
610.04687733192
 30
0.0
 10
607.0027418911094
 20
610.5767799186476
 30
0.0
 10
606.1394314291143
 20
610.9279636565286
 30
0.0
  0
LINE
  5
B0
330
1F
100
AcDbEntity
  8
0
  6
Continuous
 62
     7
370
    25
100
AcDbLine
 10
612.2538590569
 20
607.7270116871
 30
0.0
 11
612.0933442291
 21
607.5451459096
 31
0.0
  0
LINE
  5
B1
330
1F
100
AcDbEntity
  8
0
  6
Continuous
 62
     7
370
    25
100
AcDbLine
 10
616.5757443469
 20
600.9082854
 30
0.0
 11
616.342766803
 21
600.8407455229
 31
0.0
  0
SPLINE
  5
B2
330
1F
100
AcDbEntity
  8
0
  6
Continuous
 62
     7
370
    25
100
AcDbSpline
210
0.0
220
0.0
230
1.0
 70
     8
 71
     3
 72
    11
 73
     7
 74
     0
 42
0.00000001
 43
0.00000001
 40
0.0
 40
0.0
 40
0.0
 40
0.0
 40
0.1446702591042558
 40
0.3907520209323692
 40
0.596231481135486
 40
1.0
 40
1.0
 40
1.0
 40
1.0
 10
616.8608524389671
 20
594.0125597600696
 30
0.0
 10
616.8852347544434
 20
594.3451384695601
 30
0.0
 10
616.951090992667
 20
595.2434281640498
 30
0.0
 10
616.9649861176017
 20
596.6193727630024
 30
0.0
 10
616.8956827915749
 20
598.5919631093384
 30
0.0
 10
616.7032655394914
 20
599.9850447396549
 30
0.0
 10
616.5757443468948
 20
600.908285400036
 30
0.0
  0
LINE
  5
B3
330
1F
100
AcDbEntity
  8
0
  6
Continuous
 62
     7
370
    25
100
AcDbLine
 10
616.6230946417
 20
594.0606367899
 30
0.0
 11
616.860852439
 21
594.0125597601
 31
0.0
  0
LINE
  5
B4
330
1F
100
AcDbEntity
  8
0
  6
Continuous
 62
     7
370
    25
100
AcDbLine
 10
592.2439790624
 20
606.8996906761
 30
0.0
 11
592.4189590837
 21
606.7316961431
 31
0.0
  0
SPLINE
  5
B5
330
1F
100
AcDbEntity
  8
0
  6
Continuous
 62
     7
370
    25
100
AcDbSpline
210
0.0
220
0.0
230
1.0
 70
     8
 71
     3
 72
    11
 73
     7
 74
     0
 42
0.00000001
 43
0.00000001
 40
0.0
 40
0.0
 40
0.0
 40
0.0
 40
0.1446702591042557
 40
0.3907520209323619
 40
0.5962314811354644
 40
1.0
 40
1.0
 40
1.0
 40
1.0
 10
598.0732985980574
 20
610.5944643466755
 30
0.0
 10
597.7730858291426
 20
610.449290696536
 30
0.0
 10
596.962216014645
 20
610.0571790245904
 30
0.0
 10
595.7636654752847
 20
609.3812402562963
 30
0.0
 10
594.0900037871112
 20
608.3349266422223
 30
0.0
 10
592.9797683317533
 20
607.4717475986333
 30
0.0
 10
592.2439790623548
 20
606.8996906761332
 30
0.0
  0
LINE
  5
B6
330
1F
100
AcDbEntity
  8
0
  6
Continuous
 62
     7
370
    25
100
AcDbLine
 10
598.0732985981
 20
610.5944643467
 30
0.0
 11
598.1505415675
 21
610.3645215394
 31
0.0
  0
LINE
  5
B7
330
1F
100
AcDbEntity
  8
0
  6
Continuous
 62
     7
370
    25
100
AcDbLine
 10
589.0178171573
 20
592.9192793164
 30
0.0
 11
588.7848396134
 21
592.8517394392
 31
0.0
  0
SPLINE
  5
B8
330
1F
100
AcDbEntity
  8
0
  6
Continuous
 62
     7
370
    25
100
AcDbSpline
210
0.0
220
0.0
230
1.0
 70
     8
 71
     3
 72
    11
 73
     7
 74
     0
 42
0.00000001
 43
0.00000001
 40
0.0
 40
0.0
 40
0.0
 40
0.0
 40
0.144670259104254
 40
0.3907520209323652
 40
0.5962314811354787
 40
1.0
 40
1.0
 40
1.0
 40
1.0
 10
588.4997315213037
 20
599.7474650792117
 30
0.0
 10
588.4753492058273
 20
599.4148863697212
 30
0.0
 10
588.4094929676038
 20
598.5165966752317
 30
0.0
 10
588.3955978426691
 20
597.140652076279
 30
0.0
 10
588.4649011686959
 20
595.168061729943
 30
0.0
 10
588.6573184207793
 20
593.7749800996264
 30
0.0
 10
588.784839613376
 20
592.8517394392452
 30
0.0
  0
LINE
  5
B9
330
1F
100
AcDbEntity
  8
0
  6
Continuous
 62
     7
370
    25
100
AcDbLine
 10
588.4997315213
 20
599.7474650792
 30
0.0
 11
588.7374893186
 21
599.6993880494
 31
0.0
  0
LINE
  5
BA
330
1F
100
AcDbEntity
  8
0
  6
Continuous
 62
     7
370
    25
100
AcDbLine
 10
612.9416248766
 20
587.0283286961
 30
0.0
 11
613.1166048979
 21
586.8603341631
 31
0.0
  0
SPLINE
  5
BB
330
1F
100
AcDbEntity
  8
0
  6
Continuous
 62
     7
370
    25
100
AcDbSpline
210
0.0
220
0.0
230
1.0
 70
     8
 71
     3
 72
     9
 73
     5
 74
     0
 42
0.00000001
 43
0.00000001
 40
0.0
 40
0.0
 40
0.0
 40
0.0
 40
0.5862283062032697
 40
1.0
 40
1.0
 40
1.0
 40
1.0
 10
606.1394314291143
 20
610.9279636565286
 30
0.0
 10
605.827199366106
 20
611.0430825279211
 30
0.0
 10
605.2945876520275
 20
611.2394546071511
 30
0.0
 10
604.7536933247883
 20
611.4155318166349
 30
0.0
 10
604.5298865628414
 20
611.4883875818421
 30
0.0
  0
SPLINE
  5
BC
330
1F
100
AcDbEntity
  8
0
  6
Continuous
 62
     7
370
    25
100
AcDbSpline
210
0.0
220
0.0
230
1.0
 70
     8
 71
     3
 72
     9
 73
     5
 74
     0
 42
0.00000001
 43
0.00000001
 40
0.0
 40
0.0
 40
0.0
 40
0.0
 40
0.5863847898283648
 40
0.9999999999999999
 40
0.9999999999999999
 40
0.9999999999999999
 40
0.9999999999999999
 10
599.6310868767252
 20
611.2858436430494
 30
0.0
 10
599.3237823373775
 20
611.1561273174057
 30
0.0
 10
598.7997159825225
 20
610.9349136572055
 30
0.0
 10
598.2858439052852
 20
610.6940777436696
 30
0.0
 10
598.0732985980574
 20
610.5944643466755
 30
0.0
  0
ARC
  5
BD
330
1F
100
AcDbEntity
  8
0
  6
Continuous
 62
     7
370
    25
100
AcDbCircle
 10
602.6802919801
 20
596.8800124196
 30
0.0
 40
14.72500000000005
100
AcDbArc
 50
82.7840658168
 51
101.9510969422
  0
SPLINE
  5
BE
330
1F
100
AcDbEntity
  8
0
  6
Continuous
 62
     7
370
    25
100
AcDbSpline
210
0.0
220
0.0
230
1.0
 70
     8
 71
     3
 72
     9
 73
     5
 74
     0
 42
0.00000001
 43
0.00000001
 40
0.0
 40
0.0
 40
0.0
 40
0.0
 40
0.586228306203272
 40
1.0
 40
1.0
 40
1.0
 40
1.0
 10
616.5757443468948
 20
600.908285400036
 30
0.0
 10
616.5193241824716
 20
601.2362457341734
 30
0.0
 10
616.4230815346394
 20
601.7956870485336
 30
0.0
 10
616.3051217074603
 20
602.3521538814277
 30
0.0
 10
616.2563132699685
 20
602.582404105416
 30
0.0
  0
SPLINE
  5
BF
330
1F
100
AcDbEntity
  8
0
  6
Continuous
 62
     7
370
    25
100
AcDbSpline
210
0.0
220
0.0
230
1.0
 70
     8
 71
     3
 72
     9
 73
     5
 74
     0
 42
0.00000001
 43
0.00000001
 40
0.0
 40
0.0
 40
0.0
 40
0.0
 40
0.5863847898283632
 40
1.0
 40
1.0
 40
1.0
 40
1.0
 10
613.6315052305333
 20
606.7236171122474
 30
0.0
 10
613.3655153275664
 20
606.9248924871989
 30
0.0
 10
612.9119055007413
 20
607.268140433672
 30
0.0
 10
612.4463994428571
 20
607.5927487500869
 30
0.0
 10
612.253859056889
 20
607.7270116871044
 30
0.0
  0
ARC
  5
C0
330
1F
100
AcDbEntity
  8
0
  6
Continuous
 62
     7
370
    25
100
AcDbCircle
 10
602.6802919801
 20
596.8800124196
 30
0.0
 40
14.72500000000009
100
AcDbArc
 50
22.7840658168
 51
41.9510969422
  0
SPLINE
  5
C1
330
1F
100
AcDbEntity
  8
0
  6
Continuous
 62
     7
370
    25
100
AcDbSpline
210
0.0
220
0.0
230
1.0
 70
     8
 71
     3
 72
     9
 73
     5
 74
     0
 42
0.00000001
 43
0.00000001
 40
0.0
 40
0.0
 40
0.0
 40
0.0
 40
0.5862283062032672
 40
1.0
 40
1.0
 40
1.0
 40
1.0
 10
592.2439790623548
 20
606.8996906761332
 30
0.0
 10
591.9881671637697
 20
606.6868492133883
 30
0.0
 10
591.5517980975235
 20
606.3237799782581
 30
0.0
 10
591.1288635974634
 20
605.9433903548479
 30
0.0
 10
590.9538652730083
 20
605.7859958960669
 30
0.0
  0
SPLINE
  5
C2
330
1F
100
AcDbEntity
  8
0
  6
Continuous
 62
     7
370
    25
100
AcDbSpline
210
0.0
220
0.0
230
1.0
 70
     8
 71
     3
 72
     9
 73
     5
 74
     0
 42
0.00000001
 43
0.00000001
 40
0.0
 40
0.0
 40
0.0
 40
0.0
 40
0.5863847898283641
 40
1.0
 40
1.0
 40
1.0
 40
1.0
 10
588.6798736263273
 20
601.4422389504427
 30
0.0
 10
588.6385589899464
 20
601.1112472498475
 30
0.0
 10
588.5681024619165
 20
600.5467856431741
 30
0.0
 10
588.5197364425636
 20
599.9813414132233
 30
0.0
 10
588.4997315213037
 20
599.7474650792117
 30
0.0
  0
ARC
  5
C3
330
1F
100
AcDbEntity
  8
0
  6
Continuous
 62
     7
370
    25
100
AcDbCircle
 10
602.6802919801
 20
596.8800124196
 30
0.0
 40
14.72500000000004
100
AcDbArc
 50
142.7840658168
 51
161.9510969422
  0
SPLINE
  5
C4
330
1F
100
AcDbEntity
  8
0
  6
Continuous
 62
     7
370
    25
100
AcDbSpline
210
0.0
220
0.0
230
1.0
 70
     8
 71
     3
 72
     9
 73
     5
 74
     0
 42
0.00000001
 43
0.00000001
 40
0.0
 40
0.0
 40
0.0
 40
0.0
 40
0.5862283062032879
 40
1.0
 40
1.0
 40
1.0
 40
1.0
 10
613.116604897916
 20
586.8603341631481
 30
0.0
 10
613.3724167965012
 20
587.073175625893
 30
0.0
 10
613.8087858627473
 20
587.4362448610232
 30
0.0
 10
614.2317203628076
 20
587.8166344844333
 30
0.0
 10
614.4067186872625
 20
587.9740289432145
 30
0.0
  0
SPLINE
  5
C5
330
1F
100
AcDbEntity
  8
0
  6
Continuous
 62
     7
370
    25
100
AcDbSpline
210
0.0
220
0.0
230
1.0
 70
     8
 71
     3
 72
     9
 73
     5
 74
     0
 42
0.00000001
 43
0.00000001
 40
0.0
 40
0.0
 40
0.0
 40
0.0
 40
0.5863847898283618
 40
0.9999999999999999
 40
0.9999999999999999
 40
0.9999999999999999
 40
0.9999999999999999
 10
616.6807103339435
 20
592.3177858888387
 30
0.0
 10
616.7220249703244
 20
592.648777589434
 30
0.0
 10
616.7924814983543
 20
593.2132391961071
 30
0.0
 10
616.8408475177072
 20
593.7786834260581
 30
0.0
 10
616.8608524389671
 20
594.0125597600696
 30
0.0
  0
ARC
  5
C6
330
1F
100
AcDbEntity
  8
0
  6
Continuous
 62
     7
370
    25
100
AcDbCircle
 10
602.6802919801
 20
596.8800124196
 30
0.0
 40
14.72499999999996
100
AcDbArc
 50
322.7840658168
 51
341.9510969422
  0
SPLINE
  5
C7
330
1F
100
AcDbEntity
  8
0
  6
Continuous
 62
     7
370
    25
100
AcDbSpline
210
0.0
220
0.0
230
1.0
 70
     8
 71
     3
 72
     9
 73
     5
 74
     0
 42
0.00000001
 43
0.00000001
 40
0.0
 40
0.0
 40
0.0
 40
0.0
 40
0.5863847898283627
 40
0.9999999999999999
 40
0.9999999999999999
 40
0.9999999999999999
 40
0.9999999999999999
 10
591.7290787297375
 20
587.0364077270339
 30
0.0
 10
591.9950686327044
 20
586.8351323520824
 30
0.0
 10
592.4486784595294
 20
586.4918844056094
 30
0.0
 10
592.9141845174138
 20
586.1672760891944
 30
0.0
 10
593.1067249033817
 20
586.033013152177
 30
0.0
  0
ARC
  5
C8
330
1F
100
AcDbEntity
  8
0
  6
Continuous
 62
     7
370
    25
100
AcDbCircle
 10
602.6802919801
 20
596.8800124196
 30
0.0
 40
14.72500000000001
100
AcDbArc
 50
202.7840658168
 51
221.9510969422
  0
SPLINE
  5
C9
330
1F
100
AcDbEntity
  8
0
  6
Continuous
 62
     7
370
    25
100
AcDbSpline
210
0.0
220
0.0
230
1.0
 70
     8
 71
     3
 72
     9
 73
     5
 74
     0
 42
0.00000001
 43
0.00000001
 40
0.0
 40
0.0
 40
0.0
 40
0.0
 40
0.5862283062032903
 40
0.9999999999999999
 40
0.9999999999999999
 40
0.9999999999999999
 40
0.9999999999999999
 10
588.784839613376
 20
592.8517394392452
 30
0.0
 10
588.8412597777992
 20
592.5237791051078
 30
0.0
 10
588.9375024256314
 20
591.9643377907477
 30
0.0
 10
589.0554622528105
 20
591.4078709578537
 30
0.0
 10
589.1042706903023
 20
591.1776207338654
 30
0.0
  0
LINE
  5
CA
330
1F
100
AcDbEntity
  8
0
  6
Continuous
 62
     7
370
    25
100
AcDbLine
 10
594.7701473188
 20
584.8800124196
 30
0.0
 11
593.0451743794
 21
585.783049607
 31
0.0
  0
ARC
  5
CB
330
1F
100
AcDbEntity
  8
0
  6
Continuous
 62
     7
370
    25
100
AcDbCircle
 10
593.4325759527
 20
585.8202164291
 30
0.0
 40
0.3891803587971927
100
AcDbArc
 50
146.8534925694
 51
185.4801130186
  0
SPLINE
  5
CC
330
1F
100
AcDbEntity
  8
0
  6
Continuous
 62
     7
370
    25
100
AcDbSpline
210
0.0
220
0.0
230
1.0
 70
    24
 71
     3
 72
    10
 73
     6
 74
     0
 42
0.00000001
 43
0.00000001
 40
0.0
 40
0.0
 40
0.0
 40
0.0
 40
0.6588579034621731
 40
0.8981530991963136
 40
1.0
 40
1.0
 40
1.0
 40
1.0
 10
613.1985798691275
 20
586.6163047694286
 30
0.0
 10
612.6249538844446
 20
586.252725766431
 30
0.0
 10
611.8429886788742
 20
585.7570959703414
 30
0.0
 10
610.9682159119465
 20
585.2026423386342
 30
0.0
 10
610.6694789586826
 20
585.0132951219347
 30
0.0
 10
610.5802919801354
 20
584.9567661054564
 30
0.0
  0
ARC
  5
CD
330
1F
100
AcDbEntity
  8
0
  6
Continuous
 62
     7
370
    25
100
AcDbCircle
 10
612.8094324049
 20
586.6213646856
 30
0.0
 40
0.3891803587985584
100
AcDbArc
 50
359.2550497404
 51
37.8816701894
  0
ARC
  5
CE
330
1F
100
AcDbEntity
  8
0
  6
Continuous
 62
     7
370
    25
100
AcDbCircle
 10
588.7314722216
 20
593.2372433604
 30
0.0
 40
0.3891803588383456
100
AcDbArc
 50
239.2550497425
 51
277.8816701874
  0
SPLINE
  5
CF
330
1F
100
AcDbEntity
  8
0
  6
Continuous
 62
     7
370
    25
100
AcDbSpline
210
0.0
220
0.0
230
1.0
 70
    24
 71
     3
 72
    12
 73
     8
 74
     0
 42
0.00000001
 43
0.00000001
 40
0.0
 40
0.0
 40
0.0
 40
0.0
 40
0.3013828945620948
 40
0.4108442493795588
 40
0.6247185195336508
 40
0.6986171054378638
 40
1.0
 40
1.0
 40
1.0
 40
1.0
 10
588.5325164735391
 20
592.9027617285614
 30
0.0
 10
588.5044611761679
 20
593.5813171214071
 30
0.0
 10
588.4662162797337
 20
594.5063217784935
 30
0.0
 10
588.407782798114
 20
595.9196147317311
 30
0.0
 10
588.3705574886706
 20
596.8199592955029
 30
0.0
 10
588.3154697300698
 20
598.1523314027621
 30
0.0
 10
588.2805361279559
 20
598.9972479186116
 30
0.0
 10
588.2524814791905
 20
599.6757876240446
 30
0.0
  0
ARC
  5
D0
330
1F
100
AcDbEntity
  8
0
  6
Continuous
 62
     7
370
    25
100
AcDbCircle
 10
588.478369678
 20
599.3588714311
 30
0.0
 40
0.3891803587956202
100
AcDbArc
 50
86.8534925694
 51
125.4801130186
  0
ARC
  5
D1
330
1F
100
AcDbEntity
  8
0
  6
Continuous
 62
     7
370
    25
100
AcDbCircle
 10
592.5511515554
 20
607.1386601537
 30
0.0
 40
0.3891803588394185
100
AcDbArc
 50
179.2550497425
 51
217.8816701873
  0
SPLINE
  5
D2
330
1F
100
AcDbEntity
  8
0
  6
Continuous
 62
     7
370
    25
100
AcDbSpline
210
0.0
220
0.0
230
1.0
 70
    24
 71
     3
 72
    12
 73
     8
 74
     0
 42
0.00000001
 43
0.00000001
 40
0.0
 40
0.0
 40
0.0
 40
0.0
 40
0.3013828945621506
 40
0.4108442493795785
 40
0.6247185195336594
 40
0.6986171054378614
 40
1.0
 40
1.0
 40
1.0
 40
1.0
 10
592.1620040911434
 20
607.1437200698527
 30
0.0
 10
592.7356226505373
 20
607.5072943665099
 30
0.0
 10
593.5175777339759
 20
608.0029177469303
 30
0.0
 10
594.7123085936594
 20
608.7601691030633
 30
0.0
 10
595.4734172033232
 20
609.2425794485908
 30
0.0
 10
596.599741416203
 20
609.9564729006061
 30
0.0
 10
597.3139937819487
 20
610.4091845454072
 30
0.0
 10
597.8875990799473
 20
610.7727504366488
 30
0.0
  0
ARC
  5
D3
330
1F
100
AcDbEntity
  8
0
  6
Continuous
 62
     7
370
    25
100
AcDbCircle
 10
597.7260857054
 20
610.4186674216
 30
0.0
 40
0.3891803587954958
100
AcDbArc
 50
26.8534925694
 51
65.4801130187
  0
ARC
  5
D4
330
1F
100
AcDbEntity
  8
0
  6
Continuous
 62
     7
370
    25
100
AcDbCircle
 10
606.4999713139
 20
610.781429213
 30
0.0
 40
0.3891803588354867
100
AcDbArc
 50
119.2550497424
 51
157.8816701875
  0
SPLINE
  5
D5
330
1F
100
AcDbEntity
  8
0
  6
Continuous
 62
     7
370
    25
100
AcDbSpline
210
0.0
220
0.0
230
1.0
 70
    24
 71
     3
 72
    12
 73
     8
 74
     0
 42
0.00000001
 43
0.00000001
 40
0.0
 40
0.0
 40
0.0
 40
0.0
 40
0.3013828945621497
 40
0.4108442493795585
 40
0.6247185195336376
 40
0.6986171054378633
 40
0.9999999999999999
 40
0.9999999999999999
 40
0.9999999999999999
 40
0.9999999999999999
 10
606.3097795977397
 20
611.1209707609319
 30
0.0
 10
606.9114534545048
 20
610.8059896647432
 30
0.0
 10
607.7316534343778
 20
610.3766083880772
 30
0.0
 10
608.9848177756808
 20
609.7205667909725
 30
0.0
 10
609.7831516947879
 20
609.3026325727284
 30
0.0
 10
610.9645636662685
 20
608.6841539174847
 30
0.0
 10
611.7137496341282
 20
608.2919490464363
 30
0.0
 10
612.3154095808923
 20
607.9769752322449
 30
0.0
  0
ARC
  5
D6
330
1F
100
AcDbEntity
  8
0
  6
Continuous
 62
     7
370
    25
100
AcDbCircle
 10
611.9280080076
 20
607.9398084101
 30
0.0
 40
0.389180358797147
100
AcDbArc
 50
326.8534925694
 51
5.4801130186
  0
SPLINE
  5
D7
330
1F
100
AcDbEntity
  8
0
  6
Continuous
 62
     7
370
    25
100
AcDbSpline
210
0.0
220
0.0
230
1.0
 70
    24
 71
     3
 72
    12
 73
     8
 74
     0
 42
0.00000001
 43
0.00000001
 40
0.0
 40
0.0
 40
0.0
 40
0.0
 40
0.3013828945621527
 40
0.4108442493795542
 40
0.624718519533646
 40
0.6986171054378584
 40
1.0
 40
1.0
 40
1.0
 40
1.0
 10
616.8280674867317
 20
600.8572631107198
 30
0.0
 10
616.8561227841029
 20
600.1787077178741
 30
0.0
 10
616.8943676805371
 20
599.2537030607876
 30
0.0
 10
616.9528011621569
 20
597.84041010755
 30
0.0
 10
616.9900264716002
 20
596.9400655437785
 30
0.0
 10
617.045114230201
 20
595.6076934365192
 30
0.0
 10
617.0800478323149
 20
594.7627769206697
 30
0.0
 10
617.1081024810803
 20
594.0842372152367
 30
0.0
  0
ARC
  5
D8
330
1F
100
AcDbEntity
  8
0
  6
Continuous
 62
     7
370
    25
100
AcDbCircle
 10
616.8822142823
 20
594.4011534081
 30
0.0
 40
0.3891803587969951
100
AcDbArc
 50
266.8534925694
 51
305.4801130186
  0
ARC
  5
D9
330
1F
100
AcDbEntity
  8
0
  6
Continuous
 62
     7
370
    25
100
AcDbCircle
 10
616.6291117387
 20
600.522781479
 30
0.0
 40
0.389180358796747
100
AcDbArc
 50
59.2550497404
 51
97.8816701895
  0
LINE
  5
DA
330
1F
100
AcDbEntity
  8
0
  6
Continuous
 62
     7
370
    25
100
AcDbLine
 10
612.3154095809
 20
607.9769752322
 30
0.0
 11
613.8634039232
 21
607.1665877618
 31
0.0
  0
LINE
  5
DB
330
1F
100
AcDbEntity
  8
0
  6
Continuous
 62
     7
370
    25
100
AcDbLine
 10
613.8634039232
 20
607.1665877618
 30
0.0
 11
613.6315052305
 21
606.7236171122
 31
0.0
  0
LINE
  5
DC
330
1F
100
AcDbEntity
  8
0
  6
Continuous
 62
     7
370
    25
100
AcDbLine
 10
597.8875990799
 20
610.7727504366
 30
0.0
 11
599.3634123874
 21
611.7081591267
 31
0.0
  0
LINE
  5
DD
330
1F
100
AcDbEntity
  8
0
  6
Continuous
 62
     7
370
    25
100
AcDbLine
 10
599.3634123874
 20
611.7081591267
 30
0.0
 11
599.6310868767
 21
611.285843643
 31
0.0
  0
LINE
  5
DE
330
1F
100
AcDbEntity
  8
0
  6
Continuous
 62
     7
370
    25
100
AcDbLine
 10
617.1081024811
 20
594.0842372152
 30
0.0
 11
617.1802835159
 21
592.3384410547
 31
0.0
  0
LINE
  5
DF
330
1F
100
AcDbEntity
  8
0
  6
Continuous
 62
     7
370
    25
100
AcDbLine
 10
617.1802835159
 20
592.3384410547
 30
0.0
 11
616.6807103339
 21
592.3177858888
 31
0.0
  0
LINE
  5
E0
330
1F
100
AcDbEntity
  8
0
  6
Continuous
 62
     7
370
    25
100
AcDbLine
 10
588.2524814792
 20
599.675787624
 30
0.0
 11
588.1803004444
 21
601.4215837846
 31
0.0
  0
LINE
  5
E1
330
1F
100
AcDbEntity
  8
0
  6
Continuous
 62
     7
370
    25
100
AcDbLine
 10
588.6798736263
 20
601.4422389504
 30
0.0
 11
588.1803004444
 21
601.4215837846
 31
0.0
  0
LINE
  5
E2
330
1F
100
AcDbEntity
  8
0
  6
Continuous
 62
     7
370
    25
100
AcDbLine
 10
593.0451743794
 20
585.783049607
 30
0.0
 11
591.4971800371
 21
586.5934370775
 31
0.0
  0
LINE
  5
E3
330
1F
100
AcDbEntity
  8
0
  6
Continuous
 62
     7
370
    25
100
AcDbLine
 10
591.4971800371
 20
586.5934370775
 30
0.0
 11
591.7290787297
 21
587.036407727
 31
0.0
  0
LINE
  5
E4
330
1F
100
AcDbEntity
  8
0
  6
Continuous
 62
     7
370
    25
100
AcDbLine
 10
604.5298865628
 20
611.4883875818
 30
0.0
 11
604.7617852555
 21
611.9313582314
 31
0.0
  0
LINE
  5
E5
330
1F
100
AcDbEntity
  8
0
  6
Continuous
 62
     7
370
    25
100
AcDbLine
 10
604.7617852555
 20
611.9313582314
 30
0.0
 11
606.3097795977
 21
611.1209707609
 31
0.0
  0
LINE
  5
E6
330
1F
100
AcDbEntity
  8
0
  6
Continuous
 62
     7
370
    25
100
AcDbLine
 10
616.7558864519
 20
602.6030592713
 30
0.0
 11
616.8280674867
 21
600.8572631107
 31
0.0
  0
LINE
  5
E7
330
1F
100
AcDbEntity
  8
0
  6
Continuous
 62
     7
370
    25
100
AcDbLine
 10
616.25631327
 20
602.5824041054
 30
0.0
 11
616.7558864519
 21
602.6030592713
 31
0.0
  0
LINE
  5
E8
330
1F
100
AcDbEntity
  8
0
  6
Continuous
 62
     7
370
    25
100
AcDbLine
 10
590.953865273
 20
605.7859958961
 30
0.0
 11
590.6861907837
 21
606.2083113798
 31
0.0
  0
LINE
  5
E9
330
1F
100
AcDbEntity
  8
0
  6
Continuous
 62
     7
370
    25
100
AcDbLine
 10
590.6861907837
 20
606.2083113798
 30
0.0
 11
592.1620040911
 21
607.1437200699
 31
0.0
  0
LINE
  5
EA
330
1F
100
AcDbEntity
  8
0
  6
Continuous
 62
     7
370
    25
100
AcDbLine
 10
614.6743931766
 20
587.5517134595
 30
0.0
 11
613.1985798691
 21
586.6163047694
 31
0.0
  0
LINE
  5
EB
330
1F
100
AcDbEntity
  8
0
  6
Continuous
 62
     7
370
    25
100
AcDbLine
 10
614.4067186873
 20
587.9740289432
 30
0.0
 11
614.6743931766
 21
587.5517134595
 31
0.0
  0
LINE
  5
EC
330
1F
100
AcDbEntity
  8
0
  6
Continuous
 62
     7
370
    25
100
AcDbLine
 10
589.1042706903
 20
591.1776207339
 30
0.0
 11
588.6046975084
 21
591.156965568
 31
0.0
  0
LINE
  5
ED
330
1F
100
AcDbEntity
  8
0
  6
Continuous
 62
     7
370
    25
100
AcDbLine
 10
588.6046975084
 20
591.156965568
 30
0.0
 11
588.5325164735
 21
592.9027617286
 31
0.0
  0
ARC
  5
EE
330
1F
100
AcDbEntity
  8
0
  6
Continuous
 62
     7
370
    25
100
AcDbCircle
 10
602.6802919801
 20
596.8800124196
 30
0.0
 40
15.50000000000017
100
AcDbArc
 50
89.453771138
 51
95.2813916209
  0
LINE
  5
EF
330
1F
100
AcDbEntity
  8
0
  6
Continuous
 62
     7
370
    25
100
AcDbLine
 10
601.2535604791
 20
612.3142094258
 30
0.0
 11
601.2075368822
 21
612.8120867485
 31
0.0
  0
ARC
  5
F0
330
1F
100
AcDbEntity
  8
0
  6
Continuous
 62
     7
370
    25
100
AcDbCircle
 10
602.6802919801
 20
596.8800124196
 30
0.0
 40
16.0000000000001
100
AcDbArc
 50
89.453771138
 51
95.2813916209
  0
LINE
  5
F1
330
1F
100
AcDbEntity
  8
0
  6
Continuous
 62
     7
370
    25
100
AcDbLine
 10
602.8280588695
 20
612.3793080471
 30
0.0
 11
602.8328255433
 21
612.8792853254
 31
0.0
  0
ARC
  5
F2
330
1F
100
AcDbEntity
  8
0
  6
Continuous
 62
     7
370
    25
100
AcDbCircle
 10
615.3333329239
 20
605.832696647
 30
0.0
 40
0.5000000000000672
100
AcDbArc
 50
35.2813916209
 51
62.3675813795
  0
LINE
  5
F3
330
1F
100
AcDbEntity
  8
0
  6
Continuous
 62
     7
370
    25
100
AcDbLine
 10
615.3333329239
 20
605.832696647
 30
0.0
 11
615.741495535
 21
606.1214929124
 31
0.0
  0
LINE
  5
F4
330
1F
100
AcDbEntity
  8
0
  6
Continuous
 62
     7
370
    25
100
AcDbLine
 10
615.5652316165
 20
606.2756672966
 30
0.0
 11
615.3333329239
 21
605.832696647
 31
0.0
  0
LINE
  5
F5
330
1F
100
AcDbEntity
  8
0
  6
Continuous
 62
     7
370
    25
100
AcDbLine
 10
604.5298865628
 20
611.4883875818
 30
0.0
 11
602.8280588695
 21
612.3793080471
 31
0.0
  0
LINE
  5
F6
330
1F
100
AcDbEntity
  8
0
  6
Continuous
 62
     7
370
    25
100
AcDbLine
 10
602.8280588695
 20
612.3793080471
 30
0.0
 11
603.0599575621
 21
612.8222786966
 31
0.0
  0
LINE
  5
F7
330
1F
100
AcDbEntity
  8
0
  6
Continuous
 62
     7
370
    25
100
AcDbLine
 10
603.0599575621
 20
612.8222786966
 30
0.0
 11
604.7617852555
 21
611.9313582314
 31
0.0
  0
ARC
  5
F8
330
1F
100
AcDbEntity
  8
0
  6
Continuous
 62
     7
370
    25
100
AcDbCircle
 10
602.6802919801
 20
596.8800124196
 30
0.0
 40
16.00000000000011
100
AcDbArc
 50
29.453771138
 51
35.2813916209
  0
LINE
  5
F9
330
1F
100
AcDbEntity
  8
0
  6
Continuous
 62
     7
370
    25
100
AcDbLine
 10
616.6123355402
 20
604.7475509319
 30
0.0
 11
616.1769591789
 21
604.5016903534
 31
0.0
  0
ARC
  5
FA
330
1F
100
AcDbEntity
  8
0
  6
Continuous
 62
     7
370
    25
100
AcDbCircle
 10
602.6802919801
 20
596.8800124196
 30
0.0
 40
15.49999999999998
100
AcDbArc
 50
29.453771138
 51
35.2813916209
  0
LINE
  5
FB
330
1F
100
AcDbEntity
  8
0
  6
Continuous
 62
     7
370
    25
100
AcDbLine
 10
601.2535604791
 20
612.3142094258
 30
0.0
 11
599.6310868767
 21
611.285843643
 31
0.0
  0
LINE
  5
FC
330
1F
100
AcDbEntity
  8
0
  6
Continuous
 62
     7
370
    25
100
AcDbLine
 10
613.8634039232
 20
607.1665877618
 30
0.0
 11
615.5652316165
 21
606.2756672966
 31
0.0
  0
LINE
  5
FD
330
1F
100
AcDbEntity
  8
0
  6
Continuous
 62
     7
370
    25
100
AcDbLine
 10
615.3333329239
 20
605.832696647
 30
0.0
 11
613.6315052305
 21
606.7236171122
 31
0.0
  0
ARC
  5
FE
330
1F
100
AcDbEntity
  8
0
  6
Continuous
 62
     7
370
    25
100
AcDbCircle
 10
602.8280588695
 20
612.3793080471
 30
0.0
 40
0.4999999999999337
100
AcDbArc
 50
62.3675813795
 51
89.453771138
  0
LINE
  5
FF
330
1F
100
AcDbEntity
  8
0
  6
Continuous
 62
     7
370
    25
100
AcDbLine
 10
616.25631327
 20
602.5824041054
 30
0.0
 11
616.1769591789
 21
604.5016903534
 31
0.0
  0
ARC
  5
100
330
1F
100
AcDbEntity
  8
0
  6
Continuous
 62
     7
370
    25
100
AcDbCircle
 10
601.2535604791
 20
612.3142094258
 30
0.0
 40
0.4999999999999357
100
AcDbArc
 50
95.2813916209
 51
122.3675813795
  0
LINE
  5
101
330
1F
100
AcDbEntity
  8
0
  6
Continuous
 62
     7
370
    25
100
AcDbLine
 10
600.9858859897
 20
612.7365249095
 30
0.0
 11
601.2535604791
 21
612.3142094258
 31
0.0
  0
ARC
  5
102
330
1F
100
AcDbEntity
  8
0
  6
Continuous
 62
     7
370
    25
100
AcDbCircle
 10
616.1769591789
 20
604.5016903534
 30
0.0
 40
0.5000000000001641
100
AcDbArc
 50
2.3675813795
 51
29.453771138
  0
LINE
  5
103
330
1F
100
AcDbEntity
  8
0
  6
Continuous
 62
     7
370
    25
100
AcDbLine
 10
616.1769591789
 20
604.5016903534
 30
0.0
 11
616.6765323609
 21
604.5223455192
 31
0.0
  0
LINE
  5
104
330
1F
100
AcDbEntity
  8
0
  6
Continuous
 62
     7
370
    25
100
AcDbLine
 10
599.3634123874
 20
611.7081591267
 30
0.0
 11
600.9858859897
 21
612.7365249095
 31
0.0
  0
LINE
  5
105
330
1F
100
AcDbEntity
  8
0
  6
Continuous
 62
     7
370
    25
100
AcDbLine
 10
616.6765323609
 20
604.5223455192
 30
0.0
 11
616.7558864519
 21
602.6030592713
 31
0.0
  0
LINE
  5
106
330
1F
100
AcDbEntity
  8
0
  6
Continuous
 62
     7
370
    25
100
AcDbLine
 10
617.1802835159
 20
592.3384410547
 30
0.0
 11
617.2596376069
 21
590.4191548067
 31
0.0
  0
LINE
  5
107
330
1F
100
AcDbEntity
  8
0
  6
Continuous
 62
     7
370
    25
100
AcDbLine
 10
617.2596376069
 20
590.4191548067
 30
0.0
 11
616.760064425
 21
590.3984996409
 31
0.0
  0
LINE
  5
108
330
1F
100
AcDbEntity
  8
0
  6
Continuous
 62
     7
370
    25
100
AcDbLine
 10
616.760064425
 20
590.3984996409
 30
0.0
 11
616.6807103339
 21
592.3177858888
 31
0.0
  0
LINE
  5
109
330
1F
100
AcDbEntity
  8
0
  6
Continuous
 62
     7
370
    25
100
AcDbLine
 10
614.4067186873
 20
587.9740289432
 30
0.0
 11
616.0291922896
 21
589.0023947259
 31
0.0
  0
ARC
  5
10A
330
1F
100
AcDbEntity
  8
0
  6
Continuous
 62
     7
370
    25
100
AcDbCircle
 10
602.6802919801
 20
596.8800124196
 30
0.0
 40
15.5
100
AcDbArc
 50
329.453771138
 51
335.2813916209
  0
ARC
  5
10B
330
1F
100
AcDbEntity
  8
0
  6
Continuous
 62
     7
370
    25
100
AcDbCircle
 10
589.3313916707
 20
604.7576301134
 30
0.0
 40
0.5000000000000306
100
AcDbArc
 50
122.3675813795
 51
149.453771138
  0
LINE
  5
10C
330
1F
100
AcDbEntity
  8
0
  6
Continuous
 62
     7
370
    25
100
AcDbLine
 10
589.3313916707
 20
604.7576301134
 30
0.0
 11
589.0637171814
 21
605.179945597
 31
0.0
  0
LINE
  5
10D
330
1F
100
AcDbEntity
  8
0
  6
Continuous
 62
     7
370
    25
100
AcDbLine
 10
589.3313916707
 20
604.7576301134
 30
0.0
 11
588.9007819833
 21
605.0117468131
 31
0.0
  0
LINE
  5
10E
330
1F
100
AcDbEntity
  8
0
  6
Continuous
 62
     7
370
    25
100
AcDbLine
 10
617.2142506329
 20
590.1894185835
 30
0.0
 11
616.760064425
 21
590.3984996409
 31
0.0
  0
ARC
  5
10F
330
1F
100
AcDbEntity
  8
0
  6
Continuous
 62
     7
370
    25
100
AcDbCircle
 10
616.760064425
 20
590.3984996409
 30
0.0
 40
0.500000000000074
100
AcDbArc
 50
335.2813916209
 51
2.3675813795
  0
LINE
  5
110
330
1F
100
AcDbEntity
  8
0
  6
Continuous
 62
     7
370
    25
100
AcDbLine
 10
590.953865273
 20
605.7859958961
 30
0.0
 11
589.3313916707
 21
604.7576301134
 31
0.0
  0
LINE
  5
111
330
1F
100
AcDbEntity
  8
0
  6
Continuous
 62
     7
370
    25
100
AcDbLine
 10
588.6005195353
 20
603.3615251984
 30
0.0
 11
588.6798736263
 21
601.4422389504
 31
0.0
  0
ARC
  5
112
330
1F
100
AcDbEntity
  8
0
  6
Continuous
 62
     7
370
    25
100
AcDbCircle
 10
602.6802919801
 20
596.8800124196
 30
0.0
 40
15.50000000000006
100
AcDbArc
 50
149.453771138
 51
155.2813916209
  0
LINE
  5
113
330
1F
100
AcDbEntity
  8
0
  6
Continuous
 62
     7
370
    25
100
AcDbLine
 10
589.0637171814
 20
605.179945597
 30
0.0
 11
590.6861907837
 21
606.2083113798
 31
0.0
  0
ARC
  5
114
330
1F
100
AcDbEntity
  8
0
  6
Continuous
 62
     7
370
    25
100
AcDbCircle
 10
602.6802919801
 20
596.8800124196
 30
0.0
 40
16.0
100
AcDbArc
 50
329.453771138
 51
335.2813916209
  0
LINE
  5
115
330
1F
100
AcDbEntity
  8
0
  6
Continuous
 62
     7
370
    25
100
AcDbLine
 10
616.459801977
 20
588.7482780261
 30
0.0
 11
616.0291922896
 21
589.0023947259
 31
0.0
  0
ARC
  5
116
330
1F
100
AcDbEntity
  8
0
  6
Continuous
 62
     7
370
    25
100
AcDbCircle
 10
588.6005195353
 20
603.3615251984
 30
0.0
 40
0.500000000000074
100
AcDbArc
 50
155.2813916209
 51
182.3675813795
  0
LINE
  5
117
330
1F
100
AcDbEntity
  8
0
  6
Continuous
 62
     7
370
    25
100
AcDbLine
 10
588.6005195353
 20
603.3615251984
 30
0.0
 11
588.1463333274
 21
603.5706062558
 31
0.0
  0
LINE
  5
118
330
1F
100
AcDbEntity
  8
0
  6
Continuous
 62
     7
370
    25
100
AcDbLine
 10
588.6005195353
 20
603.3615251984
 30
0.0
 11
588.1009463533
 21
603.3408700325
 31
0.0
  0
ARC
  5
119
330
1F
100
AcDbEntity
  8
0
  6
Continuous
 62
     7
370
    25
100
AcDbCircle
 10
602.6802919801
 20
596.8800124196
 30
0.0
 40
16.00000000000006
100
AcDbArc
 50
149.453771138
 51
155.2813916209
  0
LINE
  5
11A
330
1F
100
AcDbEntity
  8
0
  6
Continuous
 62
     7
370
    25
100
AcDbLine
 10
616.0291922896
 20
589.0023947259
 30
0.0
 11
616.2968667789
 21
588.5800792422
 31
0.0
  0
LINE
  5
11B
330
1F
100
AcDbEntity
  8
0
  6
Continuous
 62
     7
370
    25
100
AcDbLine
 10
616.2968667789
 20
588.5800792422
 30
0.0
 11
614.6743931766
 21
587.5517134595
 31
0.0
  0
LINE
  5
11C
330
1F
100
AcDbEntity
  8
0
  6
Continuous
 62
     7
370
    25
100
AcDbLine
 10
588.1803004444
 20
601.4215837846
 30
0.0
 11
588.1009463533
 21
603.3408700325
 31
0.0
  0
ARC
  5
11D
330
1F
100
AcDbEntity
  8
0
  6
Continuous
 62
     7
370
    25
100
AcDbCircle
 10
616.0291922896
 20
589.0023947259
 30
0.0
 40
0.5000000000000306
100
AcDbArc
 50
302.3675813795
 51
329.453771138
  0
LINE
  5
11E
330
1F
100
AcDbEntity
  8
0
  6
Continuous
 62
     7
370
    25
100
AcDbLine
 10
590.0272510364
 20
587.9273281923
 30
0.0
 11
591.7290787297
 21
587.036407727
 31
0.0
  0
ARC
  5
11F
330
1F
100
AcDbEntity
  8
0
  6
Continuous
 62
     7
370
    25
100
AcDbCircle
 10
602.6802919801
 20
596.8800124196
 30
0.0
 40
15.49999999999991
100
AcDbArc
 50
209.453771138
 51
215.2813916209
  0
LINE
  5
120
330
1F
100
AcDbEntity
  8
0
  6
Continuous
 62
     7
370
    25
100
AcDbLine
 10
589.1042706903
 20
591.1776207339
 30
0.0
 11
589.1836247814
 21
589.2583344859
 31
0.0
  0
LINE
  5
121
330
1F
100
AcDbEntity
  8
0
  6
Continuous
 62
     7
370
    25
100
AcDbLine
 10
591.4971800371
 20
586.5934370775
 30
0.0
 11
589.7953523437
 21
587.4843575427
 31
0.0
  0
LINE
  5
122
330
1F
100
AcDbEntity
  8
0
  6
Continuous
 62
     7
370
    25
100
AcDbLine
 10
589.7953523437
 20
587.4843575427
 30
0.0
 11
590.0272510364
 21
587.9273281923
 31
0.0
  0
LINE
  5
123
330
1F
100
AcDbEntity
  8
0
  6
Continuous
 62
     7
370
    25
100
AcDbLine
 10
589.1836247814
 20
589.2583344859
 30
0.0
 11
588.7482484201
 21
589.0124739074
 31
0.0
  0
ARC
  5
124
330
1F
100
AcDbEntity
  8
0
  6
Continuous
 62
     7
370
    25
100
AcDbCircle
 10
589.1836247814
 20
589.2583344859
 30
0.0
 40
0.5000000000001641
100
AcDbArc
 50
182.3675813795
 51
209.453771138
  0
LINE
  5
125
330
1F
100
AcDbEntity
  8
0
  6
Continuous
 62
     7
370
    25
100
AcDbLine
 10
589.1836247814
 20
589.2583344859
 30
0.0
 11
588.6840515994
 21
589.2376793201
 31
0.0
  0
LINE
  5
126
330
1F
100
AcDbEntity
  8
0
  6
Continuous
 62
     7
370
    25
100
AcDbLine
 10
588.6840515994
 20
589.2376793201
 30
0.0
 11
588.6046975084
 21
591.156965568
 31
0.0
  0
LINE
  5
127
330
1F
100
AcDbEntity
  8
0
  6
Continuous
 62
     7
370
    25
100
AcDbLine
 10
589.6190884253
 20
587.6385319269
 30
0.0
 11
590.0272510364
 21
587.9273281923
 31
0.0
  0
ARC
  5
128
330
1F
100
AcDbEntity
  8
0
  6
Continuous
 62
     7
370
    25
100
AcDbCircle
 10
602.6802919801
 20
596.8800124196
 30
0.0
 40
16.00000000000005
100
AcDbArc
 50
209.453771138
 51
215.2813916209
  0
ARC
  5
129
330
1F
100
AcDbEntity
  8
0
  6
Continuous
 62
     7
370
    25
100
AcDbCircle
 10
590.0272510364
 20
587.9273281923
 30
0.0
 40
0.5000000000000672
100
AcDbArc
 50
215.2813916209
 51
242.3675813795
  0
ARC
  5
12A
330
1F
100
AcDbEntity
  8
0
  6
Continuous
 62
     7
370
    25
100
AcDbCircle
 10
602.6802919801
 20
596.8800124196
 30
0.0
 40
8.25
100
AcDbArc
 50
343.2508741362
 51
119.4063269879
  0
ARC
  5
12B
330
1F
100
AcDbEntity
  8
0
  6
Continuous
 62
     7
370
    25
100
AcDbCircle
 10
602.6802919801
 20
596.8800124196
 30
0.0
 40
8.25
100
AcDbArc
 50
119.4063269879
 51
196.7491258638
  0
ARC
  5
12C
330
1F
100
AcDbEntity
  8
0
  6
Continuous
 62
     7
370
    25
100
AcDbCircle
 10
602.6802919801
 20
596.8800124196
 30
0.0
 40
9.575000000000044
100
AcDbArc
 50
325.5951096848
 51
119.4063269879
  0
ARC
  5
12D
330
1F
100
AcDbEntity
  8
0
  6
Continuous
 62
     7
370
    25
100
AcDbCircle
 10
602.6802919801
 20
596.8800124196
 30
0.0
 40
9.575000000000044
100
AcDbArc
 50
119.4063269879
 51
214.4048903152
  0
ARC
  5
12E
330
1F
100
AcDbEntity
  8
0
  6
Continuous
 62
     7
370
    25
100
AcDbCircle
 10
602.6802919801
 20
596.8800124196
 30
0.0
 40
8.05
100
AcDbArc
 50
29.4063269879
 51
191.0780164461
  0
ARC
  5
12F
330
1F
100
AcDbEntity
  8
0
  6
Continuous
 62
     7
370
    25
100
AcDbCircle
 10
602.6802919801
 20
596.8800124196
 30
0.0
 40
8.05
100
AcDbArc
 50
348.9219835539
 51
29.4063269879
  0
CIRCLE
  5
130
330
1F
100
AcDbEntity
  8
0
  6
Continuous
 62
     7
370
    25
100
AcDbCircle
 10
653.4802919801
 20
596.8800124196
 30
0.0
 40
5.328914336627577
  0
CIRCLE
  5
131
330
1F
100
AcDbEntity
  8
0
  6
Continuous
 62
     7
370
    25
100
AcDbCircle
 10
653.4802919801
 20
596.8800124196
 30
0.0
 40
5.925127771161442
  0
CIRCLE
  5
132
330
1F
100
AcDbEntity
  8
0
  6
Continuous
 62
     7
370
    25
100
AcDbCircle
 10
653.4802919801
 20
596.8800124196
 30
0.0
 40
5.074569253689219
  0
CIRCLE
  5
133
330
1F
100
AcDbEntity
  8
0
  6
Continuous
 62
     7
370
    25
100
AcDbCircle
 10
653.4802919801
 20
596.8800124196
 30
0.0
 40
7.149999999999977
  0
LINE
  5
134
330
1F
100
AcDbEntity
  8
0
  6
Continuous
 62
     7
370
    25
100
AcDbLine
 10
549.5202542569
 20
595.6349333279
 30
0.0
 11
549.213313301
 21
596.7950140361
 31
0.0
  0
LINE
  5
135
330
1F
100
AcDbEntity
  8
0
  6
Continuous
 62
     7
370
    25
100
AcDbLine
 10
550.7286716613
 20
595.9546634902
 30
0.0
 11
549.5202542569
 21
595.6349333279
 31
0.0
  0
SPLINE
  5
136
330
1F
100
AcDbEntity
  8
0
  6
Continuous
 62
     7
370
    25
100
AcDbSpline
210
0.0
220
0.0
230
1.0
 70
     8
 71
     3
 72
    12
 73
     8
 74
     0
 42
0.00000001
 43
0.00000001
 40
0.0
 40
0.0
 40
0.0
 40
0.0
 40
0.2133534395476129
 40
0.4267919313634445
 40
0.6383539739091494
 40
0.8490950351927571
 40
1.0
 40
1.0
 40
1.0
 40
1.0
 10
551.6455602013224
 20
595.4214511449542
 30
0.0
 10
551.6163717623723
 20
595.5000951718653
 30
0.0
 10
551.557983248649
 20
595.6574145767307
 30
0.0
 10
551.3775663679041
 20
595.8412179815962
 30
0.0
 10
551.1531567716747
 20
595.9567464686546
 30
0.0
 10
550.9254977277731
 20
595.9923612484024
 30
0.0
 10
550.7866210773655
 20
595.9657624422656
 30
0.0
 10
550.728671661278
 20
595.9546634902119
 30
0.0
  0
LINE
  5
137
330
1F
100
AcDbEntity
  8
0
  6
Continuous
 62
     7
370
    25
100
AcDbLine
 10
551.9652903636
 20
594.2130337405
 30
0.0
 11
551.6455602013
 21
595.421451145
 31
0.0
  0
LINE
  5
138
330
1F
100
AcDbEntity
  8
0
  6
Continuous
 62
     7
370
    25
100
AcDbLine
 10
553.1253710719
 20
594.5199746964
 30
0.0
 11
551.9652903636
 21
594.2130337405
 31
0.0
  0
LINE
  5
139
330
1F
100
AcDbEntity
  8
0
  6
Continuous
 62
     7
370
    25
100
AcDbLine
 10
552.8056409096
 20
595.7283921008
 30
0.0
 11
553.1253710719
 21
594.5199746964
 31
0.0
  0
SPLINE
  5
13A
330
1F
100
AcDbEntity
  8
0
  6
Continuous
 62
     7
370
    25
100
AcDbSpline
210
0.0
220
0.0
230
1.0
 70
     8
 71
     3
 72
    12
 73
     8
 74
     0
 42
0.00000001
 43
0.00000001
 40
0.0
 40
0.0
 40
0.0
 40
0.0
 40
0.2133534395476105
 40
0.4267919313634458
 40
0.6383539739091507
 40
0.8490950351927564
 40
1.0
 40
1.0
 40
1.0
 40
1.0
 10
553.3388532548219
 20
596.6452806408277
 30
0.0
 10
553.2602092279108
 20
596.6160922018776
 30
0.0
 10
553.1028898230453
 20
596.5577036881542
 30
0.0
 10
552.9190864181799
 20
596.3772868074094
 30
0.0
 10
552.8035579311215
 20
596.15287721118
 30
0.0
 10
552.7679431513736
 20
595.9252181672786
 30
0.0
 10
552.7945419575104
 20
595.7863415168707
 30
0.0
 10
552.8056409095641
 20
595.7283921007834
 30
0.0
  0
LINE
  5
13B
330
1F
100
AcDbEntity
  8
0
  6
Continuous
 62
     7
370
    25
100
AcDbLine
 10
554.5472706592
 20
596.9650108031
 30
0.0
 11
553.3388532548
 21
596.6452806408
 31
0.0
  0
LINE
  5
13C
330
1F
100
AcDbEntity
  8
0
  6
Continuous
 62
     7
370
    25
100
AcDbLine
 10
554.2403297034
 20
598.1250915114
 30
0.0
 11
554.5472706592
 21
596.9650108031
 31
0.0
  0
LINE
  5
13D
330
1F
100
AcDbEntity
  8
0
  6
Continuous
 62
     7
370
    25
100
AcDbLine
 10
553.031912299
 20
597.8053613491
 30
0.0
 11
554.2403297034
 21
598.1250915114
 31
0.0
  0
SPLINE
  5
13E
330
1F
100
AcDbEntity
  8
0
  6
Continuous
 62
     7
370
    25
100
AcDbSpline
210
0.0
220
0.0
230
1.0
 70
     8
 71
     3
 72
    12
 73
     8
 74
     0
 42
0.00000001
 43
0.00000001
 40
0.0
 40
0.0
 40
0.0
 40
0.0
 40
0.2133534395476133
 40
0.4267919313634492
 40
0.6383539739091546
 40
0.8490950351927566
 40
1.0
 40
1.0
 40
1.0
 40
1.0
 10
552.1150237589484
 20
598.3385736943272
 30
0.0
 10
552.1442121978985
 20
598.259929667416
 30
0.0
 10
552.2026007116217
 20
598.1026102625506
 30
0.0
 10
552.3830175923666
 20
597.9188068576851
 30
0.0
 10
552.607427188596
 20
597.8032783706269
 30
0.0
 10
552.8350862324976
 20
597.767663590879
 30
0.0
 10
552.9739628829052
 20
597.7942623970157
 30
0.0
 10
553.0319122989928
 20
597.8053613490694
 30
0.0
  0
LINE
  5
13F
330
1F
100
AcDbEntity
  8
0
  6
Continuous
 62
     7
370
    25
100
AcDbLine
 10
551.7952935966
 20
599.5469910987
 30
0.0
 11
552.1150237589
 21
598.3385736943
 31
0.0
  0
LINE
  5
140
330
1F
100
AcDbEntity
  8
0
  6
Continuous
 62
     7
370
    25
100
AcDbLine
 10
550.6352128884
 20
599.2400501429
 30
0.0
 11
551.7952935966
 21
599.5469910987
 31
0.0
  0
LINE
  5
141
330
1F
100
AcDbEntity
  8
0
  6
Continuous
 62
     7
370
    25
100
AcDbLine
 10
550.9549430507
 20
598.0316327385
 30
0.0
 11
550.6352128884
 21
599.2400501429
 31
0.0
  0
LINE
  5
142
330
1F
100
AcDbEntity
  8
0
  6
Continuous
 62
     7
370
    25
100
AcDbLine
 10
549.213313301
 20
596.7950140361
 30
0.0
 11
550.4217307054
 21
597.1147441985
 31
0.0
  0
CIRCLE
  5
143
330
1F
100
AcDbEntity
  8
0
  6
Continuous
 62
     7
370
    25
100
AcDbCircle
 10
551.8802919801
 20
596.8800124196
 30
0.0
 40
4.197433366238931
  0
SPLINE
  5
144
330
1F
100
AcDbEntity
  8
0
  6
Continuous
 62
     7
370
    25
100
AcDbSpline
210
0.0
220
0.0
230
1.0
 70
     8
 71
     3
 72
    12
 73
     8
 74
     0
 42
0.00000001
 43
0.00000001
 40
0.0
 40
0.0
 40
0.0
 40
0.0
 40
0.2133534395476105
 40
0.4267919313634458
 40
0.6383539739091508
 40
0.8490950351927568
 40
1.0
 40
1.0
 40
1.0
 40
1.0
 10
550.4217307054489
 20
597.1147441984536
 30
0.0
 10
550.50037473236
 20
597.1439326374037
 30
0.0
 10
550.6576941372255
 20
597.2023211511271
 30
0.0
 10
550.8414975420909
 20
597.3827380318719
 30
0.0
 10
550.9570260291493
 20
597.6071476281013
 30
0.0
 10
550.992640808897
 20
597.8348066720029
 30
0.0
 10
550.9660420027603
 20
597.9736833224105
 30
0.0
 10
550.9549430507067
 20
598.031632738498
 30
0.0
  0
CIRCLE
  5
145
330
1F
100
AcDbEntity
  8
0
  6
Continuous
 62
     7
370
    25
100
AcDbCircle
 10
551.8802919801
 20
596.8800124196
 30
0.0
 40
4.50000000000006
  0
LINE
  5
146
330
1F
100
AcDbEntity
  8
0
  6
Continuous
 62
     7
370
    25
100
AcDbLine
 10
650.813313301
 20
596.9650108031
 30
0.0
 11
651.1202542569
 21
598.1250915114
 31
0.0
  0
LINE
  5
147
330
1F
100
AcDbEntity
  8
0
  6
Continuous
 62
     7
370
    25
100
AcDbLine
 10
652.0217307054
 20
596.6452806408
 30
0.0
 11
650.813313301
 21
596.9650108031
 31
0.0
  0
LINE
  5
148
330
1F
100
AcDbEntity
  8
0
  6
Continuous
 62
     7
370
    25
100
AcDbLine
 10
652.2352128884
 20
594.5199746964
 30
0.0
 11
652.5549430507
 21
595.7283921008
 31
0.0
  0
LINE
  5
149
330
1F
100
AcDbEntity
  8
0
  6
Continuous
 62
     7
370
    25
100
AcDbLine
 10
653.3952935966
 20
594.2130337405
 30
0.0
 11
652.2352128884
 21
594.5199746964
 31
0.0
  0
LINE
  5
14A
330
1F
100
AcDbEntity
  8
0
  6
Continuous
 62
     7
370
    25
100
AcDbLine
 10
653.7150237589
 20
595.421451145
 30
0.0
 11
653.3952935966
 21
594.2130337405
 31
0.0
  0
SPLINE
  5
14B
330
1F
100
AcDbEntity
  8
0
  6
Continuous
 62
     7
370
    25
100
AcDbSpline
210
0.0
220
0.0
230
1.0
 70
     8
 71
     3
 72
    12
 73
     8
 74
     0
 42
0.00000001
 43
0.00000001
 40
0.0
 40
0.0
 40
0.0
 40
0.0
 40
0.2133534395476112
 40
0.4267919313634456
 40
0.6383539739091519
 40
0.8490950351927574
 40
1.0
 40
1.0
 40
1.0
 40
1.0
 10
654.6319122989928
 20
595.9546634902119
 30
0.0
 10
654.5491237710721
 20
595.9681878231665
 30
0.0
 10
654.3835137120033
 20
595.9952418804826
 30
0.0
 10
654.1345359353277
 20
595.9293327823286
 30
0.0
 10
653.9231426176714
 20
595.7914220740711
 30
0.0
 10
653.7795991998237
 20
595.6111657565693
 30
0.0
 10
653.7340360227148
 20
595.4773068106296
 30
0.0
 10
653.7150237589484
 20
595.4214511449542
 30
0.0
  0
LINE
  5
14C
330
1F
100
AcDbEntity
  8
0
  6
Continuous
 62
     7
370
    25
100
AcDbLine
 10
655.8403297034
 20
595.6349333279
 30
0.0
 11
654.631912299
 21
595.9546634902
 31
0.0
  0
LINE
  5
14D
330
1F
100
AcDbEntity
  8
0
  6
Continuous
 62
     7
370
    25
100
AcDbLine
 10
656.1472706592
 20
596.7950140361
 30
0.0
 11
655.8403297034
 21
595.6349333279
 31
0.0
  0
LINE
  5
14E
330
1F
100
AcDbEntity
  8
0
  6
Continuous
 62
     7
370
    25
100
AcDbLine
 10
654.9388532548
 20
597.1147441985
 30
0.0
 11
656.1472706592
 21
596.7950140361
 31
0.0
  0
SPLINE
  5
14F
330
1F
100
AcDbEntity
  8
0
  6
Continuous
 62
     7
370
    25
100
AcDbSpline
210
0.0
220
0.0
230
1.0
 70
     8
 71
     3
 72
    12
 73
     8
 74
     0
 42
0.00000001
 43
0.00000001
 40
0.0
 40
0.0
 40
0.0
 40
0.0
 40
0.2133534395476122
 40
0.4267919313634442
 40
0.6383539739091508
 40
0.8490950351927531
 40
0.9999999999999999
 40
0.9999999999999999
 40
0.9999999999999999
 40
0.9999999999999999
 10
654.4056409095641
 20
598.031632738498
 30
0.0
 10
654.3921165766095
 20
597.9488442105774
 30
0.0
 10
654.3650625192935
 20
597.7832341515086
 30
0.0
 10
654.4309716174474
 20
597.5342563748329
 30
0.0
 10
654.568882325705
 20
597.3228630571766
 30
0.0
 10
654.7491386432067
 20
597.1793196393289
 30
0.0
 10
654.8829975891465
 20
597.1337564622202
 30
0.0
 10
654.9388532548219
 20
597.1147441984536
 30
0.0
  0
LINE
  5
150
330
1F
100
AcDbEntity
  8
0
  6
Continuous
 62
     7
370
    25
100
AcDbLine
 10
654.7253710719
 20
599.2400501429
 30
0.0
 11
654.4056409096
 21
598.0316327385
 31
0.0
  0
LINE
  5
151
330
1F
100
AcDbEntity
  8
0
  6
Continuous
 62
     7
370
    25
100
AcDbLine
 10
653.5652903636
 20
599.5469910987
 30
0.0
 11
654.7253710719
 21
599.2400501429
 31
0.0
  0
LINE
  5
152
330
1F
100
AcDbEntity
  8
0
  6
Continuous
 62
     7
370
    25
100
AcDbLine
 10
653.2455602013
 20
598.3385736943
 30
0.0
 11
653.5652903636
 21
599.5469910987
 31
0.0
  0
LINE
  5
153
330
1F
100
AcDbEntity
  8
0
  6
Continuous
 62
     7
370
    25
100
AcDbLine
 10
651.1202542569
 20
598.1250915114
 30
0.0
 11
652.3286716613
 21
597.8053613491
 31
0.0
  0
CIRCLE
  5
154
330
1F
100
AcDbEntity
  8
0
  6
Continuous
 62
     7
370
    25
100
AcDbCircle
 10
653.4802919801
 20
596.8800124196
 30
0.0
 40
4.197433366238931
  0
SPLINE
  5
155
330
1F
100
AcDbEntity
  8
0
  6
Continuous
 62
     7
370
    25
100
AcDbSpline
210
0.0
220
0.0
230
1.0
 70
     8
 71
     3
 72
    12
 73
     8
 74
     0
 42
0.00000001
 43
0.00000001
 40
0.0
 40
0.0
 40
0.0
 40
0.0
 40
0.2133534395476116
 40
0.4267919313634462
 40
0.6383539739091479
 40
0.8490950351927574
 40
1.0
 40
1.0
 40
1.0
 40
1.0
 10
652.328671661278
 20
597.8053613490694
 30
0.0
 10
652.4114601891987
 20
597.7918370161149
 30
0.0
 10
652.5770702482675
 20
597.7647829587987
 30
0.0
 10
652.8260480249431
 20
597.8306920569527
 30
0.0
 10
653.0374413425994
 20
597.9686027652102
 30
0.0
 10
653.1809847604471
 20
598.148859082712
 30
0.0
 10
653.226547937556
 20
598.2827180286517
 30
0.0
 10
653.2455602013224
 20
598.3385736943272
 30
0.0
  0
SPLINE
  5
156
330
1F
100
AcDbEntity
  8
0
  6
Continuous
 62
     7
370
    25
100
AcDbSpline
210
0.0
220
0.0
230
1.0
 70
     8
 71
     3
 72
    12
 73
     8
 74
     0
 42
0.00000001
 43
0.00000001
 40
0.0
 40
0.0
 40
0.0
 40
0.0
 40
0.2133534395476124
 40
0.4267919313634466
 40
0.6383539739091505
 40
0.8490950351927581
 40
1.0
 40
1.0
 40
1.0
 40
1.0
 10
652.5549430507067
 20
595.7283921007834
 30
0.0
 10
652.5684673836614
 20
595.8111806287039
 30
0.0
 10
652.5955214409773
 20
595.9767906877728
 30
0.0
 10
652.5296123428234
 20
596.2257684644484
 30
0.0
 10
652.3917016345658
 20
596.4371617821047
 30
0.0
 10
652.2114453170641
 20
596.5807051999524
 30
0.0
 10
652.0775863711243
 20
596.6262683770613
 30
0.0
 10
652.0217307054489
 20
596.6452806408277
 30
0.0
  0
CIRCLE
  5
157
330
1F
100
AcDbEntity
  8
0
  6
Continuous
 62
     7
370
    25
100
AcDbCircle
 10
653.4802919801
 20
596.8800124196
 30
0.0
 40
4.50000000000006
  0
CIRCLE
  5
158
330
1F
100
AcDbEntity
  8
0
  6
Continuous
 62
     7
370
    25
100
AcDbCircle
 10
551.8802919801
 20
596.8800124196
 30
0.0
 40
5.328914336627577
  0
CIRCLE
  5
159
330
1F
100
AcDbEntity
  8
0
  6
Continuous
 62
     7
370
    25
100
AcDbCircle
 10
551.8802919801
 20
596.8800124196
 30
0.0
 40
5.074569253689106
  0
CIRCLE
  5
15A
330
1F
100
AcDbEntity
  8
0
  6
Continuous
 62
     7
370
    25
100
AcDbCircle
 10
551.8802919801
 20
596.8800124196
 30
0.0
 40
5.925127771161442
  0
CIRCLE
  5
15B
330
1F
100
AcDbEntity
  8
0
  6
Continuous
 62
     7
370
    25
100
AcDbCircle
 10
551.8802919801
 20
596.8800124196
 30
0.0
 40
7.150000000000091
  0
SPLINE
  5
15C
330
1F
100
AcDbEntity
  8
0
  6
Continuous
 62
     7
370
    25
100
AcDbSpline
210
0.0
220
0.0
230
1.0
 70
     8
 71
     3
 72
    11
 73
     7
 74
     0
 42
0.00000001
 43
0.00000001
 40
0.0
 40
0.0
 40
0.0
 40
0.0
 40
0.2200386424382248
 40
0.6637869905998172
 40
0.8890365590789576
 40
1.0
 40
1.0
 40
1.0
 40
1.0
 10
545.2027018355435
 20
591.1051154015181
 30
0.0
 10
544.9984803725421
 20
591.3701340127768
 30
0.0
 10
544.3824088096585
 20
592.1696113430817
 30
0.0
 10
543.8588594586413
 20
593.4327806136095
 30
0.0
 10
543.6072302588801
 20
594.5993504269336
 30
0.0
 10
543.6279374536025
 20
595.110630225593
 30
0.0
 10
543.6347716376285
 20
595.2793725530653
 30
0.0
  0
SPLINE
  5
15D
330
1F
100
AcDbEntity
  8
0
  6
Continuous
 62
     7
370
    25
100
AcDbSpline
210
0.0
220
0.0
230
1.0
 70
     8
 71
     3
 72
     9
 73
     5
 74
     0
 42
0.00000001
 43
0.00000001
 40
0.0
 40
0.0
 40
0.0
 40
0.0
 40
0.9209630919903058
 40
1.0
 40
1.0
 40
1.0
 40
1.0
 10
543.5626594722962
 20
591.4254386771515
 30
0.0
 10
544.0770810101691
 20
591.368611618233
 30
0.0
 10
544.6356501236837
 20
591.306907670037
 30
0.0
 10
545.1611666353532
 20
591.119896209149
 30
0.0
 10
545.2027018355435
 20
591.1051154015181
 30
0.0
  0
SPLINE
  5
15E
330
1F
100
AcDbEntity
  8
0
  6
Continuous
 62
     7
370
    25
100
AcDbSpline
210
0.0
220
0.0
230
1.0
 70
     8
 71
     3
 72
    10
 73
     6
 74
     0
 42
0.00000001
 43
0.00000001
 40
0.0
 40
0.0
 40
0.0
 40
0.0
 40
0.2596150688488839
 40
0.6297606444810658
 40
1.0
 40
1.0
 40
1.0
 40
1.0
 10
496.3874985183589
 20
594.0169962461407
 30
0.0
 10
500.465318737082
 20
593.7172421090422
 30
0.0
 10
510.3570815704472
 20
592.9901142138782
 30
0.0
 10
526.0866542531205
 20
592.164267343988
 30
0.0
 10
537.7368325143851
 20
591.6717356947223
 30
0.0
 10
543.5626594722962
 20
591.4254386771515
 30
0.0
  0
SPLINE
  5
15F
330
1F
100
AcDbEntity
  8
0
  6
Continuous
 62
     7
370
    25
100
AcDbSpline
210
0.0
220
0.0
230
1.0
 70
     8
 71
     3
 72
    11
 73
     7
 74
     0
 42
0.00000001
 43
0.00000001
 40
0.0
 40
0.0
 40
0.0
 40
0.0
 40
0.0614641195413919
 40
0.4999988937835378
 40
0.9375097801832796
 40
1.0
 40
1.0
 40
1.0
 40
1.0
 10
496.3874985183592
 20
599.7430285931425
 30
0.0
 10
496.3758293221568
 20
599.6265716206906
 30
0.0
 10
496.2809026358875
 20
598.6792163533593
 30
0.0
 10
496.1971998086212
 20
596.881972154911
 30
0.0
 10
496.2807697321415
 20
595.0827741306703
 30
0.0
 10
496.3756414371866
 20
594.1353993062371
 30
0.0
 10
496.3874985183589
 20
594.0169962461407
 30
0.0
  0
SPLINE
  5
160
330
1F
100
AcDbEntity
  8
0
  6
Continuous
 62
     7
370
    25
100
AcDbSpline
210
0.0
220
0.0
230
1.0
 70
     8
 71
     3
 72
    11
 73
     7
 74
     0
 42
0.00000001
 43
0.00000001
 40
0.0
 40
0.0
 40
0.0
 40
0.0
 40
0.2594589277291888
 40
0.6296002946237422
 40
0.8147836738016292
 40
1.0
 40
1.0
 40
1.0
 40
1.0
 10
543.5626594722962
 20
602.3345861621298
 30
0.0
 10
539.4796588229513
 20
602.1690875757089
 30
0.0
 10
529.5718925561467
 20
601.7674904532573
 30
0.0
 10
516.7567555971858
 20
601.0892376372339
 30
0.0
 10
505.1124833309262
 20
600.4118167450217
 30
0.0
 10
499.2959992477935
 20
599.9659711964094
 30
0.0
 10
496.3874985183592
 20
599.7430285931425
 30
0.0
  0
SPLINE
  5
161
330
1F
100
AcDbEntity
  8
0
  6
Continuous
 62
     7
370
    25
100
AcDbSpline
210
0.0
220
0.0
230
1.0
 70
     8
 71
     3
 72
     9
 73
     5
 74
     0
 42
0.00000001
 43
0.00000001
 40
0.0
 40
0.0
 40
0.0
 40
0.0
 40
0.0790369080192175
 40
1.0
 40
1.0
 40
1.0
 40
1.0
 10
545.2027018355427
 20
602.6549094377631
 30
0.0
 10
545.1611666353474
 20
602.6401286301303
 30
0.0
 10
544.6356501236781
 20
602.4531171692424
 30
0.0
 10
544.0770810101635
 20
602.3914132210472
 30
0.0
 10
543.5626594722962
 20
602.3345861621298
 30
0.0
  0
SPLINE
  5
162
330
1F
100
AcDbEntity
  8
0
  6
Continuous
 62
     7
370
    25
100
AcDbSpline
210
0.0
220
0.0
230
1.0
 70
     8
 71
     3
 72
    11
 73
     7
 74
     0
 42
0.00000001
 43
0.00000001
 40
0.0
 40
0.0
 40
0.0
 40
0.0
 40
0.0728838064943292
 40
0.4140719411596028
 40
0.9209668754550557
 40
1.0
 40
1.0
 40
1.0
 40
1.0
 10
543.6347716376323
 20
598.4806522862012
 30
0.0
 10
543.6270564884946
 20
598.5910987204403
 30
0.0
 10
543.5832247111301
 20
599.2185737607713
 30
0.0
 10
543.9277164225681
 20
600.6015657912362
 30
0.0
 10
544.5674057720545
 20
601.8714973090138
 30
0.0
 10
545.1271945214872
 20
602.5617979751868
 30
0.0
 10
545.2027018355427
 20
602.6549094377631
 30
0.0
  0
SPLINE
  5
163
330
1F
100
AcDbEntity
  8
0
  6
Continuous
 62
     7
370
    25
100
AcDbSpline
210
0.0
220
0.0
230
1.0
 70
     8
 71
     3
 72
    10
 73
     6
 74
     0
 42
0.00000001
 43
0.00000001
 40
0.0
 40
0.0
 40
0.0
 40
0.0
 40
0.3880207377811387
 40
0.979063776650686
 40
1.0
 40
1.0
 40
1.0
 40
1.0
 10
543.6347716376285
 20
595.2793725530653
 30
0.0
 10
543.7080861683879
 20
595.690212414921
 30
0.0
 10
543.8930752537112
 20
596.7268539847694
 30
0.0
 10
543.7973683278801
 20
597.8206233063405
 30
0.0
 10
543.6401501766323
 20
598.4588191750601
 30
0.0
 10
543.6347716376323
 20
598.4806522862012
 30
0.0
  0
ARC
  5
164
330
1F
100
AcDbEntity
  8
0
  6
Continuous
 62
     7
370
    25
100
AcDbCircle
 10
551.8802919801
 20
596.8800124196
 30
0.0
 40
8.399443654264582
100
AcDbArc
 50
190.985757993
 51
169.0142420071
  0
SPLINE
  5
165
330
1F
100
AcDbEntity
  8
0
  6
Continuous
 62
     7
370
    25
100
AcDbSpline
210
0.0
220
0.0
230
1.0
 70
     8
 71
     3
 72
     9
 73
     5
 74
     0
 42
0.00000001
 43
0.00000001
 40
0.0
 40
0.0
 40
0.0
 40
0.0
 40
0.6817923421274298
 40
1.0
 40
1.0
 40
1.0
 40
1.0
 10
545.2027018355427
 20
602.6549094377631
 30
0.0
 10
545.3449653961858
 20
602.8448197928683
 30
0.0
 10
545.5536265263462
 20
603.1233655367419
 30
0.0
 10
545.7830523602266
 20
603.3562699096848
 30
0.0
 10
545.8560574174811
 20
603.4303818647072
 30
0.0
  0
ARC
  5
166
330
1F
100
AcDbEntity
  8
0
  6
Continuous
 62
     7
370
    25
100
AcDbCircle
 10
551.8802919801
 20
596.8800124196
 30
0.0
 40
8.899367501836373
100
AcDbArc
 50
227.3959191961
 51
132.6040808039
  0
LINE
  5
167
330
1F
100
AcDbEntity
  8
0
  6
Continuous
 62
     7
370
    25
100
AcDbLine
 10
545.8560574175
 20
590.3296429746
 30
0.0
 11
545.2027018355
 21
591.1051154015
 31
0.0
  0
SPLINE
  5
168
330
1F
100
AcDbEntity
  8
0
  6
Continuous
 62
     7
370
    25
100
AcDbSpline
210
0.0
220
0.0
230
1.0
 70
     8
 71
     3
 72
    10
 73
     6
 74
     0
 42
0.00000001
 43
0.00000001
 40
0.0
 40
0.0
 40
0.0
 40
0.0
 40
0.3702896688583042
 40
0.7405318123903297
 40
0.9999999999999999
 40
0.9999999999999999
 40
0.9999999999999999
 40
0.9999999999999999
 10
496.3759790551807
 20
600.1858881739757
 30
0.0
 10
502.1960429013992
 20
600.5060791885021
 30
0.0
 10
513.8354236099027
 20
601.1464201222077
 30
0.0
 10
529.5542920166776
 20
602.015654454071
 30
0.0
 10
539.4514658326873
 20
602.56439545568
 30
0.0
 10
543.5295341531514
 20
602.7905007395119
 30
0.0
  0
ARC
  5
169
330
1F
100
AcDbEntity
  8
0
  6
Continuous
 62
     7
370
    25
100
AcDbCircle
 10
536.3144449458
 20
602.0371143728
 30
0.0
 40
7.254316183352731
100
AcDbArc
 50
2.3501399448
 51
5.9611177313
  0
ARC
  5
16A
330
1F
100
AcDbEntity
  8
0
  6
Continuous
 62
     7
370
    25
100
AcDbCircle
 10
500.6365015964
 20
600.07513135
 30
0.0
 40
4.26196191892147
100
AcDbArc
 50
178.5108705387
 51
184.4691613064
  0
SPLINE
  5
16B
330
1F
100
AcDbEntity
  8
0
  6
Continuous
 62
     7
370
    25
100
AcDbSpline
210
0.0
220
0.0
230
1.0
 70
     8
 71
     3
 72
    10
 73
     6
 74
     0
 42
0.00000001
 43
0.00000001
 40
0.0
 40
0.0
 40
0.0
 40
0.0
 40
0.3702717503651156
 40
0.7405122151371748
 40
1.0
 40
1.0
 40
1.0
 40
1.0
 10
543.5295341531514
 20
590.9695240997694
 30
0.0
 10
537.7098620914823
 20
591.2920525854374
 30
0.0
 10
526.0710096931855
 20
591.9370823051804
 30
0.0
 10
510.3518701092308
 20
592.8058967926594
 30
0.0
 10
500.4543726855322
 20
593.3499517034262
 30
0.0
 10
496.3759790551841
 20
593.5741366653053
 30
0.0
  0
ARC
  5
16C
330
1F
100
AcDbEntity
  8
0
  6
Continuous
 62
     7
370
    25
100
AcDbCircle
 10
500.6365015994
 20
593.6848934893
 30
0.0
 40
4.261961921878108
100
AcDbArc
 50
175.5308386961
 51
181.4891294598
  0
ARC
  5
16D
330
1F
100
AcDbEntity
  8
0
  6
Continuous
 62
     7
370
    25
100
AcDbCircle
 10
536.3144449457
 20
591.7229104665
 30
0.0
 40
7.254316183430325
100
AcDbArc
 50
354.0388822687
 51
357.6498600551
  0
SPLINE
  5
16E
330
1F
100
AcDbEntity
  8
0
  6
Continuous
 62
     7
370
    25
100
AcDbSpline
210
0.0
220
0.0
230
1.0
 70
     8
 71
     3
 72
    12
 73
     8
 74
     0
 42
0.00000001
 43
0.00000001
 40
0.0
 40
0.0
 40
0.0
 40
0.0
 40
0.1224290494151362
 40
0.3423522449770489
 40
0.5614228816909436
 40
0.7807229538533521
 40
1.0
 40
1.0
 40
1.0
 40
1.0
 10
494.4517710855115
 20
594.1276706157969
 30
0.0
 10
494.4607751613755
 20
594.125311931356
 30
0.0
 10
494.4859535451067
 20
594.1187162670311
 30
0.0
 10
494.7019412287513
 20
594.101708299292
 30
0.0
 10
495.1378393584803
 20
594.0761973251376
 30
0.0
 10
495.7217649719106
 20
594.0466451425782
 30
0.0
 10
496.1655951034787
 20
594.0268788656992
 30
0.0
 10
496.3874985183589
 20
594.0169962461407
 30
0.0
  0
SPLINE
  5
16F
330
1F
100
AcDbEntity
  8
0
  6
Continuous
 62
     7
370
    25
100
AcDbSpline
210
0.0
220
0.0
230
1.0
 70
     8
 71
     3
 72
    11
 73
     7
 74
     0
 42
0.00000001
 43
0.00000001
 40
0.0
 40
0.0
 40
0.0
 40
0.0
 40
0.0800485240044433
 40
0.5000005853538798
 40
0.9209248322279645
 40
1.0
 40
1.0
 40
1.0
 40
1.0
 10
494.4517710855115
 20
594.1276706157969
 30
0.0
 10
494.4520573299257
 20
594.2739150408976
 30
0.0
 10
494.4538452751302
 20
595.1873896997306
 30
0.0
 10
494.4550809719602
 20
596.8817992874892
 30
0.0
 10
494.4538432738654
 20
598.5744261393437
 30
0.0
 10
494.4520540518973
 20
599.4878895149876
 30
0.0
 10
494.4517710855114
 20
599.632354223479
 30
0.0
  0
SPLINE
  5
170
330
1F
100
AcDbEntity
  8
0
  6
Continuous
 62
     7
370
    25
100
AcDbSpline
210
0.0
220
0.0
230
1.0
 70
     8
 71
     3
 72
    12
 73
     8
 74
     0
 42
0.00000001
 43
0.00000001
 40
0.0
 40
0.0
 40
0.0
 40
0.0
 40
0.1130367476169282
 40
0.3328594693547963
 40
0.5544127937944965
 40
0.7774207483513224
 40
1.0
 40
1.0
 40
1.0
 40
1.0
 10
496.3874985183592
 20
599.7430285931425
 30
0.0
 10
496.2734276783722
 20
599.7380133474411
 30
0.0
 10
495.9375231157644
 20
599.7232449463854
 30
0.0
 10
495.4034552593697
 20
599.6976527422761
 30
0.0
 10
494.8869296214825
 20
599.669777479405
 30
0.0
 10
494.530034904328
 20
599.6463356058144
 30
0.0
 10
494.4778422868096
 20
599.6370116940548
 30
0.0
 10
494.4517710855114
 20
599.632354223479
 30
0.0
  0
SPLINE
  5
171
330
1F
100
AcDbEntity
  8
0
  6
Continuous
 62
     7
370
    25
100
AcDbSpline
210
0.0
220
0.0
230
1.0
 70
     8
 71
     3
 72
     9
 73
     5
 74
     0
 42
0.00000001
 43
0.00000001
 40
0.0
 40
0.0
 40
0.0
 40
0.0
 40
0.5000106123815449
 40
1.0
 40
1.0
 40
1.0
 40
1.0
 10
546.3556652663241
 20
589.8978112853279
 30
0.0
 10
545.9259438995032
 20
590.185651823421
 30
0.0
 10
545.0665194069426
 20
590.7613206811725
 30
0.0
 10
544.0418553216643
 20
590.9001239422593
 30
0.0
 10
543.5295341531514
 20
590.9695240997694
 30
0.0
  0
SPLINE
  5
172
330
1F
100
AcDbEntity
  8
0
  6
Continuous
 62
     7
370
    25
100
AcDbSpline
210
0.0
220
0.0
230
1.0
 70
     8
 71
     3
 72
     9
 73
     5
 74
     0
 42
0.00000001
 43
0.00000001
 40
0.0
 40
0.0
 40
0.0
 40
0.0
 40
0.9838702326459322
 40
1.0
 40
1.0
 40
1.0
 40
1.0
 10
545.8560574174811
 20
590.3296429745741
 30
0.0
 10
546.0173982324154
 20
590.1848105615551
 30
0.0
 10
546.1813841012636
 20
590.0376037366982
 30
0.0
 10
546.3528987745461
 20
589.9000303126517
 30
0.0
 10
546.3556652663241
 20
589.8978112853279
 30
0.0
  0
SPLINE
  5
173
330
1F
100
AcDbEntity
  8
0
  6
Continuous
 62
     7
370
    25
100
AcDbSpline
210
0.0
220
0.0
230
1.0
 70
     8
 71
     3
 72
     9
 73
     5
 74
     0
 42
0.00000001
 43
0.00000001
 40
0.0
 40
0.0
 40
0.0
 40
0.0
 40
0.5055561057107315
 40
1.0
 40
1.0
 40
1.0
 40
1.0
 10
543.5295341531514
 20
602.7905007395119
 30
0.0
 10
544.0475936704845
 20
602.8611567737819
 30
0.0
 10
545.0723256665598
 20
603.0009158103593
 30
0.0
 10
545.9310662353214
 20
603.5772490851551
 30
0.0
 10
546.3556652663241
 20
603.8622135539536
 30
0.0
  0
SPLINE
  5
174
330
1F
100
AcDbEntity
  8
0
  6
Continuous
 62
     7
370
    25
100
AcDbSpline
210
0.0
220
0.0
230
1.0
 70
     8
 71
     3
 72
     9
 73
     5
 74
     0
 42
0.00000001
 43
0.00000001
 40
0.0
 40
0.0
 40
0.0
 40
0.0
 40
0.0161297673533178
 40
1.0
 40
1.0
 40
1.0
 40
1.0
 10
546.3556652663241
 20
603.8622135539536
 30
0.0
 10
546.3528987745462
 20
603.8599945266296
 30
0.0
 10
546.1813841012595
 20
603.7224211025801
 30
0.0
 10
546.0173982324135
 20
603.5752142777247
 30
0.0
 10
545.8560574174811
 20
603.4303818647072
 30
0.0
  0
SPLINE
  5
175
330
1F
100
AcDbEntity
  8
0
  6
Continuous
 62
     7
370
    25
100
AcDbSpline
210
0.0
220
0.0
230
1.0
 70
     8
 71
     3
 72
    12
 73
     8
 74
     0
 42
0.00000001
 43
0.00000001
 40
0.0
 40
0.0
 40
0.0
 40
0.0
 40
0.2230315344150378
 40
0.4461337558340359
 40
0.6675099896777023
 40
0.8870667292265011
 40
1.0
 40
1.0
 40
1.0
 40
1.0
 10
494.9241253505959
 20
600.1315172945274
 30
0.0
 10
494.9436591367219
 20
600.1296270472326
 30
0.0
 10
494.9827328999584
 20
600.1258459535533
 30
0.0
 10
495.2503220820145
 20
600.1327887898238
 30
0.0
 10
495.6378511658397
 20
600.1483776123138
 30
0.0
 10
496.0385732783027
 20
600.167714892378
 30
0.0
 10
496.2904327005605
 20
600.1812804935545
 30
0.0
 10
496.3759790551807
 20
600.1858881739757
 30
0.0
  0
ARC
  5
176
330
1F
100
AcDbEntity
  8
0
  6
Continuous
 62
     7
370
    25
100
AcDbCircle
 10
494.9518709731
 20
599.6321876381
 30
0.0
 40
0.5000999153469574
100
AcDbArc
 50
93.1804119247
 51
179.9809145383
  0
SPLINE
  5
177
330
1F
100
AcDbEntity
  8
0
  6
Continuous
 62
     7
370
    25
100
AcDbSpline
210
0.0
220
0.0
230
1.0
 70
     8
 71
     3
 72
    12
 73
     8
 74
     0
 42
0.00000001
 43
0.00000001
 40
0.0
 40
0.0
 40
0.0
 40
0.0
 40
0.2190444340109337
 40
0.4380981679380299
 40
0.6571027493691836
 40
0.8772791087290026
 40
1.0
 40
1.0
 40
1.0
 40
1.0
 10
496.3759790551841
 20
593.5741366653053
 30
0.0
 10
496.2095613144133
 20
593.5829654782551
 30
0.0
 10
495.8767187673142
 20
593.6006234789974
 30
0.0
 10
495.4385603246709
 20
593.6201419684064
 30
0.0
 10
495.1115944979115
 20
593.6314477520388
 30
0.0
 10
494.9497506208972
 20
593.6332716201154
 30
0.0
 10
494.9308792884851
 20
593.6297631907905
 30
0.0
 10
494.924125350596
 20
593.6285075447539
 30
0.0
  0
ARC
  5
178
330
1F
100
AcDbEntity
  8
0
  6
Continuous
 62
     7
370
    25
100
AcDbCircle
 10
494.9518709731
 20
594.1278372012
 30
0.0
 40
0.500099915347071
100
AcDbArc
 50
180.0190854623
 51
266.8195880753
  0
LINE
  5
179
330
1F
100
AcDbEntity
  8
0
  6
Continuous
 62
     7
370
    25
100
AcDbLine
 10
543.5295341532
 20
602.7905007395
 30
0.0
 11
543.5025479715
 21
602.8617910149
 31
0.0
  0
LINE
  5
17A
330
1F
100
AcDbEntity
  8
0
  6
Continuous
 62
     7
370
    25
100
AcDbLine
 10
494.9194349899
 20
600.1359557476
 30
0.0
 11
494.9241253506
 21
600.1315172945
 31
0.0
  0
ELLIPSE
  5
17B
330
1F
100
AcDbEntity
  8
0
  6
Continuous
 62
     7
370
    25
100
AcDbEllipse
 10
496.4192065327
 20
600.2192481976
 30
0.0
 11
1.499999304622804
 21
0.0828726334386829
 31
0.0
210
0.0
220
0.0
230
1.0
 40
0.0174284859
 41
2.255125316696395
 42
3.158083049610984
  0
LINE
  5
17C
330
1F
100
AcDbEntity
  8
0
  6
Continuous
 62
     7
370
    25
100
AcDbLine
 10
498.9348212017
 20
600.4280077856
 30
0.0
 11
495.4698579922
 21
600.1871165066
 31
0.0
  0
LINE
  5
17D
330
1F
100
AcDbEntity
  8
0
  6
Continuous
 62
     7
370
    25
100
AcDbLine
 10
498.9348212017
 20
600.4279093944
 30
0.0
 11
498.9348212017
 21
600.4280077856
 31
0.0
  0
ELLIPSE
  5
17E
330
1F
100
AcDbEntity
  8
0
  6
Continuous
 62
     7
370
    25
100
AcDbEllipse
 10
508.3843076226
 20
600.7575554458
 30
0.0
 11
14.49999327802038
 21
0.801102123240753
 31
0.0
210
0.0
220
0.0
230
1.0
 40
0.0174284859
 41
1.543516838852422
 42
2.279642175407993
  0
ELLIPSE
  5
17F
330
1F
100
AcDbEntity
  8
0
  6
Continuous
 62
     7
370
    25
100
AcDbEllipse
 10
509.7053175382
 20
601.7078389951
 30
0.0
 11
35.70262504606012
 21
1.972514619921867
 31
0.0
210
0.0
220
0.0
230
1.0
 40
0.0174284859
 41
4.685109492442217
 42
5.167309992307909
  0
ELLIPSE
  5
180
330
1F
100
AcDbEntity
  8
0
  6
Continuous
 62
     7
370
    25
100
AcDbEllipse
 10
528.7255450102
 20
602.0802350549
 30
0.0
 11
7.499996523113964
 21
0.4143631671935282
 31
0.0
210
0.0
220
0.0
230
1.0
 40
0.0174284859
 41
1.834826681007682
 42
2.025717338717972
  0
LINE
  5
181
330
1F
100
AcDbEntity
  8
0
  6
Continuous
 62
     7
370
    25
100
AcDbLine
 10
526.7808926092
 20
601.9478906037
 30
0.0
 11
526.7612743518
 21
602.0982811482
 31
0.0
  0
SPLINE
  5
182
330
1F
100
AcDbEntity
  8
0
  6
Continuous
 62
     7
370
    25
100
AcDbSpline
210
0.0
220
0.0
230
1.0
 70
     8
 71
     3
 72
    10
 73
     6
 74
     0
 42
0.00000001
 43
0.00000001
 40
0.0
 40
0.0
 40
0.0
 40
0.0
 40
0.0186368637457406
 40
0.3939469944633167
 40
1.0
 40
1.0
 40
1.0
 40
1.0
 10
526.9646638948817
 20
601.9483769709159
 30
0.0
 10
526.962207687633
 20
601.9482892204365
 30
0.0
 10
526.9102882511559
 20
601.9464343462436
 30
0.0
 10
526.8062894026782
 20
601.9437543648654
 30
0.0
 10
526.7905887453288
 20
601.9463114462629
 30
0.0
 10
526.7808926091852
 20
601.9478906036708
 30
0.0
  0
LINE
  5
183
330
1F
100
AcDbEntity
  8
0
  6
Continuous
 62
     7
370
    25
100
AcDbLine
 10
543.5025479715
 20
602.8617910149
 30
0.0
 11
526.9646638949
 21
601.9483769709
 31
0.0
  0
LINE
  5
184
330
1F
100
AcDbEntity
  8
0
  6
Continuous
 62
     7
370
    25
100
AcDbLine
 10
526.962598163
 20
591.7954442195
 30
0.0
 11
543.4965065864
 21
590.8822497573
 31
0.0
  0
SPLINE
  5
185
330
1F
100
AcDbEntity
  8
0
  6
Continuous
 62
     7
370
    25
100
AcDbSpline
210
0.0
220
0.0
230
1.0
 70
     8
 71
     3
 72
    11
 73
     7
 74
     0
 42
0.00000001
 43
0.00000001
 40
0.0
 40
0.0
 40
0.0
 40
0.0
 40
0.417746929449536
 40
0.8392770662410924
 40
0.9817832068819766
 40
1.0
 40
1.0
 40
1.0
 40
1.0
 10
526.7788927223133
 20
591.796793664824
 30
0.0
 10
526.7835297503452
 20
591.7978768560076
 30
0.0
 10
526.7928458003465
 20
591.8000530479907
 30
0.0
 10
526.8683422660966
 20
591.7988508710993
 30
0.0
 10
526.9386024666688
 20
591.7963803437592
 30
0.0
 10
526.9601553033264
 20
591.7955395208023
 30
0.0
 10
526.9625981629564
 20
591.7954442195439
 30
0.0
  0
LINE
  5
186
330
1F
100
AcDbEntity
  8
0
  6
Continuous
 62
     7
370
    25
100
AcDbLine
 10
526.7612743518
 20
591.661743691
 30
0.0
 11
526.7788927223
 21
591.7967936648
 31
0.0
  0
ELLIPSE
  5
187
330
1F
100
AcDbEntity
  8
0
  6
Continuous
 62
     7
370
    25
100
AcDbEllipse
 10
528.7255450102
 20
591.6797897844
 30
0.0
 11
7.499996523113964
 21
-0.4143631671934145
 31
0.0
210
0.0
220
0.0
230
1.0
 40
0.0174284859
 41
4.257467968461601
 42
4.448358626171673
  0
ELLIPSE
  5
188
330
1F
100
AcDbEntity
  8
0
  6
Continuous
 62
     7
370
    25
100
AcDbEllipse
 10
509.7053175382
 20
592.0521858442
 30
0.0
 11
35.70262504606023
 21
-1.972514619921981
 31
0.0
210
0.0
220
0.0
230
1.0
 40
0.0174284859
 41
1.115875314871791
 42
1.598075814737371
  0
ELLIPSE
  5
189
330
1F
100
AcDbEntity
  8
0
  6
Continuous
 62
     7
370
    25
100
AcDbEllipse
 10
508.3843076226
 20
593.0024693934
 30
0.0
 11
14.49999327802038
 21
-0.8011021232406392
 31
0.0
210
0.0
220
0.0
230
1.0
 40
0.0174284859
 41
4.003543131771966
 42
4.739668468327164
  0
LINE
  5
18A
330
1F
100
AcDbEntity
  8
0
  6
Continuous
 62
     7
370
    25
100
AcDbLine
 10
498.9348212017
 20
593.3320170537
 30
0.0
 11
498.9348212017
 21
593.3321154449
 31
0.0
  0
LINE
  5
18B
330
1F
100
AcDbEntity
  8
0
  6
Continuous
 62
     7
370
    25
100
AcDbLine
 10
495.4698579922
 20
593.5729083327
 30
0.0
 11
498.9348212017
 21
593.3320170537
 31
0.0
  0
ELLIPSE
  5
18C
330
1F
100
AcDbEntity
  8
0
  6
Continuous
 62
     7
370
    25
100
AcDbEllipse
 10
496.4192065327
 20
593.5407766417
 30
0.0
 11
1.499999304622804
 21
-0.0828726334386829
 31
0.0
210
0.0
220
0.0
230
1.0
 40
0.0174284859
 41
3.634177297898267
 42
4.028059990480771
  0
LINE
  5
18D
330
1F
100
AcDbEntity
  8
0
  6
Continuous
 62
     7
370
    25
100
AcDbLine
 10
494.9241253506
 20
593.6285075448
 30
0.0
 11
494.9194349899
 21
593.6240690917
 31
0.0
  0
LINE
  5
18E
330
1F
100
AcDbEntity
  8
0
  6
Continuous
 62
     7
370
    25
100
AcDbLine
 10
543.4965065864
 20
590.8822497573
 30
0.0
 11
543.5295341532
 21
590.9695240998
 31
0.0
  0
SPLINE
  5
18F
330
1F
100
AcDbEntity
  8
0
  6
Continuous
 62
     7
370
    25
100
AcDbSpline
210
0.0
220
0.0
230
1.0
 70
     8
 71
     3
 72
     9
 73
     5
 74
     0
 42
0.00000001
 43
0.00000001
 40
0.0
 40
0.0
 40
0.0
 40
0.0
 40
0.5001021276704715
 40
0.9999999999999999
 40
0.9999999999999999
 40
0.9999999999999999
 40
0.9999999999999999
 10
546.3224464002686
 20
603.9279050009137
 30
0.0
 10
545.8934986245613
 20
603.6413793668252
 30
0.0
 10
545.0357782671107
 20
603.0684451235275
 30
0.0
 10
544.0135551384956
 20
602.9306663370733
 30
0.0
 10
543.5025479714549
 20
602.8617910148727
 30
0.0
  0
LINE
  5
190
330
1F
100
AcDbEntity
  8
0
  6
Continuous
 62
     7
370
    25
100
AcDbLine
 10
546.3224464003
 20
603.9279050009
 30
0.0
 11
546.3556652663
 21
603.862213554
 31
0.0
  0
SPLINE
  5
191
330
1F
100
AcDbEntity
  8
0
  6
Continuous
 62
     7
370
    25
100
AcDbSpline
210
0.0
220
0.0
230
1.0
 70
     8
 71
     3
 72
     9
 73
     5
 74
     0
 42
0.00000001
 43
0.00000001
 40
0.0
 40
0.0
 40
0.0
 40
0.0
 40
0.4007227371565292
 40
1.0
 40
1.0
 40
1.0
 40
1.0
 10
543.4965065864033
 20
590.8822497573293
 30
0.0
 10
543.9051927098125
 20
590.8338424952638
 30
0.0
 10
544.9250652688523
 20
590.7130426065198
 30
0.0
 10
545.7941413126782
 20
590.1529353331662
 30
0.0
 10
546.314958825425
 20
589.8172757794921
 30
0.0
  0
LINE
  5
192
330
1F
100
AcDbEntity
  8
0
  6
Continuous
 62
     7
370
    25
100
AcDbLine
 10
546.3556652663
 20
589.8978112853
 30
0.0
 11
546.3149588254
 21
589.8172757795
 31
0.0
  0
ARC
  5
193
330
1F
100
AcDbEntity
  8
0
  6
Continuous
 62
     7
370
    25
100
AcDbCircle
 10
551.8802919801
 20
596.8800124196
 30
0.0
 40
8.975658044222099
100
AcDbArc
 50
65.1648853947
 51
128.2586979829
  0
LWPOLYLINE
  5
194
330
1F
100
AcDbEntity
  8
0
  6
Continuous
 62
     7
370
    25
100
AcDbPolyline
 90
        3
 70
   128
 43
0.0
 10
555.8156054044
 20
605.1306721429
 10
555.7110238402
 20
605.0644197317
 10
555.6501432975
 20
605.0256037654
  0
ARC
  5
195
330
1F
100
AcDbEntity
  8
0
  6
Continuous
 62
     7
370
    25
100
AcDbCircle
 10
551.8802919801
 20
596.8800124196
 30
0.0
 40
9.14112015109221
100
AcDbArc
 50
295.4997164176
 51
64.5002794289
  0
LWPOLYLINE
  5
196
330
1F
100
AcDbEntity
  8
0
  6
Continuous
 62
     7
370
    25
100
AcDbPolyline
 90
        3
 70
   128
 43
0.0
 10
555.666436208
 20
588.7240150032
 10
555.7110238402
 20
588.6956051076
 10
555.8156054047
 20
588.6293526962
  0
ARC
  5
197
330
1F
100
AcDbEntity
  8
0
  6
Continuous
 62
     7
370
    25
100
AcDbCircle
 10
551.8802919801
 20
596.8800124196
 30
0.0
 40
8.991950954660766
100
AcDbArc
 50
231.762407147
 51
294.9014811666
  0
LINE
  5
198
330
1F
100
AcDbEntity
  8
0
  6
Continuous
 62
     7
370
    25
100
AcDbLine
 10
494.4470807248
 20
594.1232321627
 30
0.0
 11
494.4517710855
 21
594.1276706158
 31
0.0
  0
LINE
  5
199
330
1F
100
AcDbEntity
  8
0
  6
Continuous
 62
     7
370
    25
100
AcDbLine
 10
494.4470807248
 20
599.6367926765
 30
0.0
 11
494.4470807248
 21
594.1232321627
 31
0.0
  0
LINE
  5
19A
330
1F
100
AcDbEntity
  8
0
  6
Continuous
 62
     7
370
    25
100
AcDbLine
 10
494.4517710855
 20
599.6323542235
 30
0.0
 11
494.4470807248
 21
599.6367926765
 31
0.0
  0
ARC
  5
19B
330
1F
100
AcDbEntity
  8
0
  6
Continuous
 62
     7
370
    25
100
AcDbCircle
 10
494.9471806124
 20
594.1233987481
 30
0.0
 40
0.500099915347071
100
AcDbArc
 50
180.0190854617
 51
266.8195880753
  0
ARC
  5
19C
330
1F
100
AcDbEntity
  8
0
  6
Continuous
 62
     7
370
    25
100
AcDbCircle
 10
494.9471806124
 20
599.6366260912
 30
0.0
 40
0.5000999153470272
100
AcDbArc
 50
93.1804119247
 51
179.9809145383
  0
LINE
  5
19D
330
1F
100
AcDbEntity
  8
0
  6
Continuous
 62
     7
370
    25
100
AcDbLine
 10
495.4698579922
 20
593.5729083327
 30
0.0
 11
495.4627502615
 21
593.5732753693
 31
0.0
  0
LINE
  5
19E
330
1F
100
AcDbEntity
  8
0
  6
Continuous
 62
     7
370
    25
100
AcDbLine
 10
495.4698579922
 20
600.1871165066
 30
0.0
 11
495.4627502615
 21
600.18674947
 31
0.0
  0
SPLINE
  5
19F
330
1F
100
AcDbEntity
  8
0
  6
Continuous
 62
     7
370
    25
100
AcDbSpline
210
0.0
220
0.0
230
1.0
 70
     8
 71
     3
 72
    11
 73
     7
 74
     0
 42
0.00000001
 43
0.00000001
 40
0.0
 40
0.0
 40
0.0
 40
0.0
 40
0.1345990676765949
 40
0.4126978815969498
 40
0.6969472592954598
 40
1.0
 40
1.0
 40
1.0
 40
1.0
 10
555.6509219039593
 20
605.026410382461
 30
0.0
 10
555.221615883711
 20
605.2172942676222
 30
0.0
 10
553.9053089569869
 20
605.8025685670419
 30
0.0
 10
551.5294989061036
 20
606.4250364510656
 30
0.0
 10
548.4758095212226
 20
606.8015391335659
 30
0.0
 10
546.2847796128618
 20
606.8286804618988
 30
0.0
 10
545.1541900953239
 20
606.8426856113438
 30
0.0
  0
ARC
  5
1A0
330
1F
100
AcDbEntity
  8
0
  6
Continuous
 62
     7
370
    25
100
AcDbCircle
 10
549.6467210883
 20
606.2228615668
 30
0.0
 40
4.535087272516624
100
AcDbArc
 50
149.0284626407
 51
172.1446266983
  0
SPLINE
  5
1A1
330
1F
100
AcDbEntity
  8
0
  6
Continuous
 62
     7
370
    25
100
AcDbSpline
210
0.0
220
0.0
230
1.0
 70
     8
 71
     3
 72
    12
 73
     8
 74
     0
 42
0.00000001
 43
0.00000001
 40
0.0
 40
0.0
 40
0.0
 40
0.0
 40
0.1662426524176543
 40
0.3368059756191302
 40
0.6054181071254584
 40
0.8801435087136191
 40
1.0
 40
1.0
 40
1.0
 40
1.0
 10
545.7582327328249
 20
608.5566728013116
 30
0.0
 10
546.395914253361
 20
608.4011876258286
 30
0.0
 10
547.6878507301616
 20
608.0861761924734
 30
0.0
 10
549.872037112511
 20
607.4232110874749
 30
0.0
 10
552.2340114560708
 20
606.5710161706694
 30
0.0
 10
554.1995490179634
 20
605.7283874920573
 30
0.0
 10
555.3133240027589
 20
605.1905293993623
 30
0.0
 10
555.6516394809164
 20
605.027151948535
 30
0.0
  0
LINE
  5
1A2
330
1F
100
AcDbEntity
  8
0
  6
Continuous
 62
     7
370
    25
100
AcDbLine
 10
555.6516394809
 20
605.0271519485
 30
0.0
 11
555.650921904
 21
605.0264103825
 31
0.0
  0
LINE
  5
1A3
330
1F
100
AcDbEntity
  8
0
  6
Continuous
 62
     7
370
    25
100
AcDbLine
 10
545.7582327328
 20
608.5566728013
 30
0.0
 11
545.7740908098
 21
608.6261463329
 31
0.0
  0
ARC
  5
1A4
330
1F
100
AcDbEntity
  8
0
  6
Continuous
 62
     7
370
    25
100
AcDbCircle
 10
535.0523125733
 20
561.6545115206
 30
0.0
 40
48.17977797259069
100
AcDbArc
 50
64.4718479123
 51
77.1419190681
  0
LWPOLYLINE
  5
1A5
330
1F
100
AcDbEntity
  8
0
  6
Continuous
 62
     7
370
    25
100
AcDbPolyline
 90
        3
 70
   128
 43
0.0
 10
555.6516394809
 20
605.0271519485
 10
555.7110273313
 20
605.0646756521
 10
555.8156054041
 20
605.130673682
  0
LINE
  5
1A6
330
1F
100
AcDbEntity
  8
0
  6
Continuous
 62
     7
370
    25
100
AcDbLine
 10
546.3224464003
 20
603.9279050009
 30
0.0
 11
544.1245744801
 21
606.7150218753
 31
0.0
  0
ARC
  5
1A7
330
1F
100
AcDbEntity
  8
0
  6
Continuous
 62
     7
370
    25
100
AcDbCircle
 10
551.8802919801
 20
596.8800124196
 30
0.0
 40
12.52511736202725
100
AcDbArc
 50
127.8583068702
 51
128.2586979829
  0
LINE
  5
1A8
330
1F
100
AcDbEntity
  8
0
  6
Continuous
 62
     7
370
    25
100
AcDbLine
 10
545.1541900953
 20
606.8426856113
 30
0.0
 11
544.1934917464
 21
606.7689793576
 31
0.0
  0
LINE
  5
1A9
330
1F
100
AcDbEntity
  8
0
  6
Continuous
 62
     7
370
    25
100
AcDbLine
 10
555.6501432975
 20
605.0256037654
 30
0.0
 11
555.650921904
 21
605.0264103825
 31
0.0
  0
ARC
  5
1AA
330
1F
100
AcDbEntity
  8
0
  6
Continuous
 62
     7
370
    25
100
AcDbCircle
 10
533.9626202664
 20
602.1566118078
 30
0.0
 40
6.834138728227141
100
AcDbArc
 50
31.8771071303
 51
46.9488007428
  0
SPLINE
  5
1AB
330
1F
100
AcDbEntity
  8
0
  6
Continuous
 62
     7
370
    25
100
AcDbSpline
210
0.0
220
0.0
230
1.0
 70
     8
 71
     3
 72
    17
 73
    13
 74
     0
 42
0.00000001
 43
0.00000001
 40
0.0
 40
0.0
 40
0.0
 40
0.0
 40
0.2859834379244693
 40
0.521592264412223
 40
0.7592399016809378
 40
0.8521492405060498
 40
0.926670863383602
 40
0.960505839319536
 40
0.9835417153308589
 40
0.9930790992390832
 40
0.9972256067114875
 40
1.0
 40
1.0
 40
1.0
 40
1.0
 10
539.7660530575758
 20
605.7657141886259
 30
0.0
 10
538.5372748738286
 20
605.2338460646054
 30
0.0
 10
536.2961618919978
 20
604.2637958365578
 30
0.0
 10
532.957213205096
 20
603.2215651657732
 30
0.0
 10
530.4545578383892
 20
602.6037466048465
 30
0.0
 10
528.684251554353
 20
602.2497712956283
 30
0.0
 10
527.8191307190157
 20
602.0950702610155
 30
0.0
 10
527.2935432897402
 20
602.0065702701838
 30
0.0
 10
527.059881176083
 20
601.9674585073612
 30
0.0
 10
526.9822310165936
 20
601.9531387405993
 30
0.0
 10
526.9661493623934
 20
601.9494049882819
 30
0.0
 10
526.9650889744175
 20
601.948671147087
 30
0.0
 10
526.9646638948817
 20
601.9483769709159
 30
0.0
  0
SPLINE
  5
1AC
330
1F
100
AcDbEntity
  8
0
  6
Continuous
 62
     7
370
    25
100
AcDbSpline
210
0.0
220
0.0
230
1.0
 70
     8
 71
     3
 72
    10
 73
     6
 74
     0
 42
0.00000001
 43
0.00000001
 40
0.0
 40
0.0
 40
0.0
 40
0.0
 40
0.5975855365574454
 40
0.9790563563181981
 40
1.0
 40
1.0
 40
1.0
 40
1.0
 10
526.854638575194
 20
601.9575038682552
 30
0.0
 10
526.8521194358407
 20
601.9537645705288
 30
0.0
 10
526.8479921950601
 20
601.9476382790053
 30
0.0
 10
526.9223633216152
 20
601.9472617201487
 30
0.0
 10
526.9625712737198
 20
601.9483217991492
 30
0.0
 10
526.9646638948817
 20
601.9483769709159
 30
0.0
  0
SPLINE
  5
1AD
330
1F
100
AcDbEntity
  8
0
  6
Continuous
 62
     7
370
    25
100
AcDbSpline
210
0.0
220
0.0
230
1.0
 70
     8
 71
     3
 72
    15
 73
    11
 74
     0
 42
0.00000001
 43
0.00000001
 40
0.0
 40
0.0
 40
0.0
 40
0.0
 40
0.0128981401598393
 40
0.0519443541565596
 40
0.131832795201433
 40
0.2279057212361197
 40
0.4677439605522729
 40
0.7076088995729001
 40
0.8538517081976984
 40
1.0
 40
1.0
 40
1.0
 40
1.0
 10
526.854638575194
 20
601.9575038682552
 30
0.0
 10
526.8881071787182
 20
601.9653487655428
 30
0.0
 10
527.0228944405286
 20
601.9969423222864
 30
0.0
 10
527.4621648204953
 20
602.0993330655954
 30
0.0
 10
528.2736204404799
 20
602.301654561084
 30
0.0
 10
529.9268867722689
 20
602.7693034603142
 30
0.0
 10
532.2732459030331
 20
603.6008902383494
 30
0.0
 10
534.8168417448602
 20
604.7944808334244
 30
0.0
 10
536.9356191645015
 20
606.0014028781146
 30
0.0
 10
538.0639654060817
 20
606.7676285446169
 30
0.0
 10
538.6279561552105
 20
607.1506175348111
 30
0.0
  0
LINE
  5
1AE
330
1F
100
AcDbEntity
  8
0
  6
Continuous
 62
     7
370
    25
100
AcDbLine
 10
541.2067214197
 20
606.2898578706
 30
0.0
 11
543.3068039357
 21
606.4058488193
 31
0.0
  0
LINE
  5
1AF
330
1F
100
AcDbEntity
  8
0
  6
Continuous
 62
     7
370
    25
100
AcDbLine
 10
543.5025479715
 20
602.8617910149
 30
0.0
 11
543.3068039357
 21
606.4058488193
 31
0.0
  0
LINE
  5
1B0
330
1F
100
AcDbEntity
  8
0
  6
Continuous
 62
     7
370
    25
100
AcDbLine
 10
541.2067214197
 20
606.2898578706
 30
0.0
 11
539.7660530576
 21
605.7657141886
 31
0.0
  0
LWPOLYLINE
  5
1B1
330
1F
100
AcDbEntity
  8
0
  6
Continuous
 62
     7
370
    25
100
AcDbPolyline
 90
        4
 70
   128
 43
0.0
 10
526.8351117611
 20
602.1085994445
 10
526.8373563968
 20
602.0912412977
 10
526.8463314307
 20
602.0218085515
 10
526.8546385752
 20
601.9575038683
  0
LINE
  5
1B2
330
1F
100
AcDbEntity
  8
0
  6
Continuous
 62
     7
370
    25
100
AcDbLine
 10
528.6232360449
 20
602.5381269478
 30
0.0
 11
526.8351117611
 21
602.1085994445
 31
0.0
  0
ARC
  5
1B3
330
1F
100
AcDbEntity
  8
0
  6
Continuous
 62
     7
370
    25
100
AcDbCircle
 10
520.4376776463
 20
632.9638205417
 30
0.0
 40
31.5075577752834
100
AcDbArc
 50
285.0579972479
 51
305.1719294169
  0
LINE
  5
1B4
330
1F
100
AcDbEntity
  8
0
  6
Continuous
 62
     7
370
    25
100
AcDbLine
 10
538.6279561552
 20
607.1506175348
 30
0.0
 11
538.587036269
 21
607.2086855479
 31
0.0
  0
SPLINE
  5
1B5
330
1F
100
AcDbEntity
  8
0
  6
Continuous
 62
     7
370
    25
100
AcDbSpline
210
0.0
220
0.0
230
1.0
 70
     8
 71
     3
 72
     9
 73
     5
 74
     0
 42
0.00000001
 43
0.00000001
 40
0.0
 40
0.0
 40
0.0
 40
0.0
 40
0.4998978730609696
 40
0.9999999999999999
 40
0.9999999999999999
 40
0.9999999999999999
 40
0.9999999999999999
 10
543.3068039357496
 20
606.4058488193166
 30
0.0
 10
543.4549988516454
 20
606.4258151573189
 30
0.0
 10
543.7514492345774
 20
606.4657559913935
 30
0.0
 10
544.000182463354
 20
606.6319219339641
 30
0.0
 10
544.1245744801056
 20
606.7150218752685
 30
0.0
  0
ARC
  5
1B6
330
1F
100
AcDbEntity
  8
0
  6
Continuous
 62
     7
370
    25
100
AcDbCircle
 10
526.7533032603
 20
602.4472053081
 30
0.0
 40
0.5000763404121809
100
AcDbArc
 50
273.1626296403
 51
281.6913635615
  0
ARC
  5
1B7
330
1F
100
AcDbEntity
  8
0
  6
Continuous
 62
     7
370
    25
100
AcDbCircle
 10
535.0523125733
 20
632.1055133187
 30
0.0
 40
48.10950076354642
100
AcDbArc
 50
282.8580809319
 51
283.1066633214
  0
SPLINE
  5
1B8
330
1F
100
AcDbEntity
  8
0
  6
Continuous
 62
     7
370
    25
100
AcDbSpline
210
0.0
220
0.0
230
1.0
 70
     8
 71
     3
 72
    13
 73
     9
 74
     0
 42
0.00000001
 43
0.00000001
 40
0.0
 40
0.0
 40
0.0
 40
0.0
 40
0.0460329529079877
 40
0.2492425848193723
 40
0.4775225570272882
 40
0.7051721168687842
 40
0.852680826381466
 40
1.0
 40
1.0
 40
1.0
 40
1.0
 10
555.6676704546067
 20
588.7227406595382
 30
0.0
 10
555.5393358025682
 20
588.6602316911016
 30
0.0
 10
554.8444757430827
 20
588.3217807362242
 30
0.0
 10
553.4848125085061
 20
587.7038033121953
 30
0.0
 10
551.4768398916877
 20
586.8933309854822
 30
0.0
 10
549.4623296297846
 20
586.2007061842174
 30
0.0
 10
547.6000463485391
 20
585.6504723825193
 30
0.0
 10
546.5076767853005
 20
585.3829562714135
 30
0.0
 10
545.9618431292935
 20
585.2492842048531
 30
0.0
  0
LWPOLYLINE
  5
1B9
330
1F
100
AcDbEntity
  8
0
  6
Continuous
 62
     7
370
    25
100
AcDbPolyline
 90
        3
 70
   128
 43
0.0
 10
555.6676704546
 20
588.7227406595
 10
555.7110273313
 20
588.6953491872
 10
555.8156054044
 20
588.6293511571
  0
ARC
  5
1BA
330
1F
100
AcDbEntity
  8
0
  6
Continuous
 62
     7
370
    25
100
AcDbCircle
 10
535.0523125733
 20
632.1055133187
 30
0.0
 40
48.17977797259062
100
AcDbArc
 50
282.8580809319
 51
295.5281512988
  0
LINE
  5
1BB
330
1F
100
AcDbEntity
  8
0
  6
Continuous
 62
     7
370
    25
100
AcDbLine
 10
545.7584515378
 20
585.202393463
 30
0.0
 11
545.7740908098
 21
585.1338785064
 31
0.0
  0
LINE
  5
1BC
330
1F
100
AcDbEntity
  8
0
  6
Continuous
 62
     7
370
    25
100
AcDbLine
 10
545.5083830514
 20
587.1968867341
 30
0.0
 11
545.9618431293
 21
585.2492842049
 31
0.0
  0
SPLINE
  5
1BD
330
1F
100
AcDbEntity
  8
0
  6
Continuous
 62
     7
370
    25
100
AcDbSpline
210
0.0
220
0.0
230
1.0
 70
     8
 71
     3
 72
    13
 73
     9
 74
     0
 42
0.00000001
 43
0.00000001
 40
0.0
 40
0.0
 40
0.0
 40
0.0
 40
0.2574896950994369
 40
0.4890886589321034
 40
0.7206004760683484
 40
0.9447506334961274
 40
0.9460032291293298
 40
0.9999999999999999
 40
0.9999999999999999
 40
0.9999999999999999
 40
0.9999999999999999
 10
545.5083830514064
 20
587.1968867340671
 30
0.0
 10
546.4271086273944
 20
587.1688237699524
 30
0.0
 10
548.1721814145325
 20
587.115519588287
 30
0.0
 10
550.6667466604458
 20
587.2800837071251
 30
0.0
 10
552.9823964664474
 20
587.6934577021352
 30
0.0
 10
554.4595050680495
 20
588.1930148886985
 30
0.0
 10
555.3307665125918
 20
588.5672577436285
 30
0.0
 10
555.5008129214145
 20
588.6462381621136
 30
0.0
 10
555.6670040934697
 20
588.7234279622883
 30
0.0
  0
LINE
  5
1BE
330
1F
100
AcDbEntity
  8
0
  6
Continuous
 62
     7
370
    25
100
AcDbLine
 10
555.6670040935
 20
588.7234279623
 30
0.0
 11
555.6676704546
 21
588.7227406595
 31
0.0
  0
LINE
  5
1BF
330
1F
100
AcDbEntity
  8
0
  6
Continuous
 62
     7
370
    25
100
AcDbLine
 10
539.4030637356
 20
588.5047711415
 30
0.0
 11
538.2735883181
 21
586.8545993519
 31
0.0
  0
SPLINE
  5
1C0
330
1F
100
AcDbEntity
  8
0
  6
Continuous
 62
     7
370
    25
100
AcDbSpline
210
0.0
220
0.0
230
1.0
 70
     8
 71
     3
 72
    15
 73
    11
 74
     0
 42
0.00000001
 43
0.00000001
 40
0.0
 40
0.0
 40
0.0
 40
0.0
 40
0.2255198391625378
 40
0.4515645943751949
 40
0.6337799820516976
 40
0.815879032447355
 40
0.8946729146060263
 40
0.9638048440471929
 40
0.9940832206369724
 40
1.0
 40
1.0
 40
1.0
 40
1.0
 10
538.2735883181377
 20
586.8545993519105
 30
0.0
 10
537.4281397772837
 20
587.3996070212519
 30
0.0
 10
535.735274844276
 20
588.4908909102944
 30
0.0
 10
533.2589586505965
 20
589.7079942998871
 30
0.0
 10
530.9305477358853
 20
590.6388941083222
 30
0.0
 10
529.190068246063
 20
591.1946846531357
 30
0.0
 10
527.9323993896933
 20
591.5312374801001
 30
0.0
 10
527.288266491781
 20
591.6865845864246
 30
0.0
 10
526.9603212016989
 20
591.762137984692
 30
0.0
 10
526.8677837580748
 20
591.783658692742
 30
0.0
 10
526.8526567715394
 20
591.7871766574508
 30
0.0
  0
SPLINE
  5
1C1
330
1F
100
AcDbEntity
  8
0
  6
Continuous
 62
     7
370
    25
100
AcDbSpline
210
0.0
220
0.0
230
1.0
 70
     8
 71
     3
 72
    11
 73
     7
 74
     0
 42
0.00000001
 43
0.00000001
 40
0.0
 40
0.0
 40
0.0
 40
0.0
 40
0.0195561212295929
 40
0.1681891996744423
 40
0.5898876540792745
 40
1.0
 40
1.0
 40
1.0
 40
1.0
 10
526.9625981629564
 20
591.7954442195439
 30
0.0
 10
526.9606394498084
 20
591.7955023332596
 30
0.0
 10
526.9437938599857
 20
591.7960021307002
 30
0.0
 10
526.8918932962264
 20
591.7968485481138
 30
0.0
 10
526.8426086641609
 20
591.7947592495918
 30
0.0
 10
526.8493386492373
 20
591.7896806084082
 30
0.0
 10
526.8526567715394
 20
591.7871766574508
 30
0.0
  0
SPLINE
  5
1C2
330
1F
100
AcDbEntity
  8
0
  6
Continuous
 62
     7
370
    25
100
AcDbSpline
210
0.0
220
0.0
230
1.0
 70
     8
 71
     3
 72
    17
 73
    13
 74
     0
 42
0.00000001
 43
0.00000001
 40
0.0
 40
0.0
 40
0.0
 40
0.0
 40
0.0068263121770683
 40
0.008844850729726
 40
0.0223990310416126
 40
0.0309593028397538
 40
0.0563218912149133
 40
0.1198824177066675
 40
0.1957460556357056
 40
0.555862194488003
 40
0.77803360979772
 40
0.9999999999999999
 40
0.9999999999999999
 40
0.9999999999999999
 40
0.9999999999999999
 10
526.9625981629564
 20
591.7954442195439
 30
0.0
 10
526.966218308118
 20
591.7944060364988
 30
0.0
 10
526.9709089291654
 20
591.793060863025
 30
0.0
 10
527.014441641869
 20
591.7854708749502
 30
0.0
 10
527.0889735643012
 20
591.7737193681435
 30
0.0
 10
527.2558058098033
 20
591.7480004729204
 30
0.0
 10
527.6373819268706
 20
591.6894858938981
 30
0.0
 10
528.3202828936048
 20
591.5802889093109
 30
0.0
 10
530.4252822105227
 20
591.2131166768868
 30
0.0
 10
533.2382167923087
 20
590.5789389929216
 30
0.0
 10
536.6370010068754
 20
589.5659987010631
 30
0.0
 10
538.4813266216391
 20
588.8584047803763
 30
0.0
 10
539.4030637356298
 20
588.5047711415492
 30
0.0
  0
LINE
  5
1C3
330
1F
100
AcDbEntity
  8
0
  6
Continuous
 62
     7
370
    25
100
AcDbLine
 10
543.4965065864
 20
590.8822497573
 30
0.0
 11
543.3531447574
 21
588.2866017879
 31
0.0
  0
LINE
  5
1C4
330
1F
100
AcDbEntity
  8
0
  6
Continuous
 62
     7
370
    25
100
AcDbLine
 10
543.3531447574
 20
588.2866017879
 30
0.0
 11
539.4030637356
 21
588.5047711415
 31
0.0
  0
LINE
  5
1C5
330
1F
100
AcDbEntity
  8
0
  6
Continuous
 62
     7
370
    25
100
AcDbLine
 10
546.3149588254
 20
589.8172757795
 30
0.0
 11
544.7060018322
 21
587.7754142785
 31
0.0
  0
LINE
  5
1C6
330
1F
100
AcDbEntity
  8
0
  6
Continuous
 62
     7
370
    25
100
AcDbLine
 10
555.6670040935
 20
588.7234279623
 30
0.0
 11
555.666436208
 21
588.7240150032
 31
0.0
  0
ARC
  5
1C7
330
1F
100
AcDbEntity
  8
0
  6
Continuous
 62
     7
370
    25
100
AcDbCircle
 10
551.8802919801
 20
596.8800124196
 30
0.0
 40
11.59155496206749
100
AcDbArc
 50
231.762407147
 51
236.6533814372
  0
LWPOLYLINE
  5
1C8
330
1F
100
AcDbEntity
  8
0
  6
Continuous
 62
     7
370
    25
100
AcDbPolyline
 90
        4
 70
   128
 43
0.0
 10
526.8526567715
 20
591.7871766575
 10
526.8504145252
 20
591.7698184025
 10
526.8414420424
 20
591.7003855408
 10
526.8351117611
 20
591.6514253948
  0
ARC
  5
1C9
330
1F
100
AcDbEntity
  8
0
  6
Continuous
 62
     7
370
    25
100
AcDbCircle
 10
520.4376776463
 20
560.7962042976
 30
0.0
 40
31.57783498432761
100
AcDbArc
 50
54.8280705831
 51
55.6099480104
  0
LINE
  5
1CA
330
1F
100
AcDbEntity
  8
0
  6
Continuous
 62
     7
370
    25
100
AcDbLine
 10
538.6275181838
 20
586.6087857942
 30
0.0
 11
538.587036269
 21
586.5513392914
 31
0.0
  0
ARC
  5
1CB
330
1F
100
AcDbEntity
  8
0
  6
Continuous
 62
     7
370
    25
100
AcDbCircle
 10
520.4376776463
 20
560.7962042976
 30
0.0
 40
31.50755777528349
100
AcDbArc
 50
54.8280705831
 51
74.9420027521
  0
LINE
  5
1CC
330
1F
100
AcDbEntity
  8
0
  6
Continuous
 62
     7
370
    25
100
AcDbLine
 10
526.8351117611
 20
591.6514253948
 30
0.0
 11
528.6232360449
 21
591.2218978915
 31
0.0
  0
LINE
  5
1CD
330
1F
100
AcDbEntity
  8
0
  6
Continuous
 62
     7
370
    25
100
AcDbLine
 10
526.7612743518
 20
602.0982811482
 30
0.0
 11
526.8351117611
 21
602.1085994445
 31
0.0
  0
SPLINE
  5
1CE
330
1F
100
AcDbEntity
  8
0
  6
Continuous
 62
     7
370
    25
100
AcDbSpline
210
0.0
220
0.0
230
1.0
 70
     8
 71
     3
 72
    10
 73
     6
 74
     0
 42
0.00000001
 43
0.00000001
 40
0.0
 40
0.0
 40
0.0
 40
0.0
 40
0.0490769085761621
 40
0.5995805843665267
 40
1.0
 40
1.0
 40
1.0
 40
1.0
 10
544.7060018321665
 20
587.7754142785158
 30
0.0
 10
544.6870542937975
 20
587.7900370141172
 30
0.0
 10
544.4555691318908
 20
587.9686853563063
 30
0.0
 10
544.0096953570736
 20
588.2027373497275
 30
0.0
 10
543.5476887801892
 20
588.2617517227451
 30
0.0
 10
543.3531447574355
 20
588.2866017878774
 30
0.0
  0
ARC
  5
1CF
330
1F
100
AcDbEntity
  8
0
  6
Continuous
 62
     7
370
    25
100
AcDbCircle
 10
526.7513033706
 20
591.2974789604
 30
0.0
 40
0.5000763405390731
100
AcDbArc
 50
78.3065203381
 51
86.8373700343
  0
SPLINE
  5
1D0
330
1F
100
AcDbEntity
  8
0
  6
Continuous
 62
     7
370
    25
100
AcDbSpline
210
0.0
220
0.0
230
1.0
 70
     8
 71
     3
 72
     9
 73
     5
 74
     0
 42
0.00000001
 43
0.00000001
 40
0.0
 40
0.0
 40
0.0
 40
0.0
 40
0.8458911907784387
 40
0.9999999999999999
 40
0.9999999999999999
 40
0.9999999999999999
 40
0.9999999999999999
 10
526.8351117611288
 20
591.6514253947646
 30
0.0
 10
526.8142711650178
 20
591.655240201757
 30
0.0
 10
526.7896337218829
 20
591.6597500099142
 30
0.0
 10
526.7650611947066
 20
591.6614774736653
 30
0.0
 10
526.761274351804
 20
591.6617436910469
 30
0.0
  0
LINE
  5
1D1
330
1F
100
AcDbEntity
  8
0
  6
Continuous
 62
     7
370
    25
100
AcDbLine
 10
508.7658541542
 20
592.7279995443
 30
0.0
 11
508.766312174
 21
592.7279744579
 31
0.0
  0
LINE
  5
1D2
330
1F
100
AcDbEntity
  8
0
  6
Continuous
 62
     7
370
    25
100
AcDbLine
 10
538.6279561552
 20
607.1506175348
 30
0.0
 11
540.4666970045
 21
608.1475837705
 31
0.0
  0
LINE
  5
1D3
330
1F
100
AcDbEntity
  8
0
  6
Continuous
 62
     7
370
    25
100
AcDbLine
 10
541.2067214197
 20
606.2898578706
 30
0.0
 11
540.4666970045
 21
608.1475837705
 31
0.0
  0
LINE
  5
1D4
330
1F
100
AcDbEntity
  8
0
  6
Continuous
 62
     7
370
    25
100
AcDbLine
 10
544.1934917464
 20
606.7689793576
 30
0.0
 11
544.3153254931
 21
608.7649598666
 31
0.0
  0
LINE
  5
1D5
330
1F
100
AcDbEntity
  8
0
  6
Continuous
 62
     7
370
    25
100
AcDbLine
 10
544.3153254931
 20
608.7649598666
 30
0.0
 11
545.7582327328
 21
608.5566728013
 31
0.0
  0
ARC
  5
1D6
330
1F
100
AcDbEntity
  8
0
  6
Continuous
 62
     7
370
    25
100
AcDbCircle
 10
520.4376776463
 20
560.7962042976
 30
0.0
 40
33.5775303746404
100
AcDbArc
 50
54.8280705831
 51
55.6099480104
  0
LINE
  5
1D7
330
1F
100
AcDbEntity
  8
0
  6
Continuous
 62
     7
370
    25
100
AcDbLine
 10
539.779406535
 20
588.2433912147
 30
0.0
 11
538.6275181838
 21
586.6087857942
 31
0.0
  0
ARC
  5
1D8
330
1F
100
AcDbEntity
  8
0
  6
Continuous
 62
     7
370
    25
100
AcDbCircle
 10
543.7712767749
 20
599.8519068954
 30
0.0
 40
6.929946387144304
100
AcDbArc
 50
86.5070253286
 51
111.7198462835
  0
ARC
  5
1D9
330
1F
100
AcDbEntity
  8
0
  6
Continuous
 62
     7
370
    25
100
AcDbCircle
 10
543.7712767749
 20
593.9081179438
 30
0.0
 40
6.929946387144395
100
AcDbArc
 50
234.8280705831
 51
282.8580809319
  0
LINE
  5
1DA
330
1F
100
AcDbEntity
  8
0
  6
Continuous
 62
     7
370
    25
100
AcDbLine
 10
545.3134455328
 20
587.1519450293
 30
0.0
 11
545.7584515378
 21
585.202393463
 31
0.0
  0
ARC
  5
1DB
330
1F
100
AcDbEntity
  8
0
  6
Continuous
 62
     7
370
    25
100
AcDbCircle
 10
543.7712767749
 20
593.9081179438
 30
0.0
 40
8.929641777457157
100
AcDbArc
 50
234.8280705831
 51
282.8580809319
  0
ARC
  5
1DC
330
1F
100
AcDbEntity
  8
0
  6
Continuous
 62
     7
370
    25
100
AcDbCircle
 10
535.0523125733
 20
632.1055133187
 30
0.0
 40
46.10980537323366
100
AcDbArc
 50
282.8580809319
 51
283.1066633214
  0
ARC
  5
1DD
330
1F
100
AcDbEntity
  8
0
  6
Continuous
 62
     7
370
    25
100
AcDbCircle
 10
543.7712767749
 20
599.8519068954
 30
0.0
 40
8.929641777457107
100
AcDbArc
 50
86.5070253286
 51
111.7198462835
  0
ARC
  5
1DE
330
1F
100
AcDbEntity
  8
0
  6
Continuous
 62
     7
370
    25
100
AcDbCircle
 10
543.7712767749
 20
599.8519068954
 30
0.0
 40
8.999918986501271
100
AcDbArc
 50
77.1419190681
 51
125.1719294169
  0
ARC
  5
1DF
330
1F
100
AcDbEntity
  8
0
  6
Continuous
 62
     7
370
    25
100
AcDbCircle
 10
543.7712767749
 20
593.9081179438
 30
0.0
 40
8.999918986501354
100
AcDbArc
 50
234.8280705831
 51
282.8580809319
  0
SPLINE
  5
1E0
330
1F
100
AcDbEntity
  8
0
  6
Continuous
 62
     7
370
    25
100
AcDbSpline
210
0.0
220
0.0
230
1.0
 70
     8
 71
     3
 72
    11
 73
     7
 74
     0
 42
0.00000001
 43
0.00000001
 40
0.0
 40
0.0
 40
0.0
 40
0.0
 40
0.2200386424382247
 40
0.6637869905998173
 40
0.8890365590789576
 40
1.0
 40
1.0
 40
1.0
 40
1.0
 10
660.1578821247273
 20
602.9003307265916
 30
0.0
 10
660.3621035877287
 20
602.6353121153328
 30
0.0
 10
660.9781751506123
 20
601.835834785028
 30
0.0
 10
661.5017245016295
 20
600.5726655145003
 30
0.0
 10
661.7533537013907
 20
599.4060957011761
 30
0.0
 10
661.7326465066683
 20
598.8948159025167
 30
0.0
 10
661.7258123226422
 20
598.7260735750443
 30
0.0
  0
SPLINE
  5
1E1
330
1F
100
AcDbEntity
  8
0
  6
Continuous
 62
     7
370
    25
100
AcDbSpline
210
0.0
220
0.0
230
1.0
 70
     8
 71
     3
 72
     9
 73
     5
 74
     0
 42
0.00000001
 43
0.00000001
 40
0.0
 40
0.0
 40
0.0
 40
0.0
 40
0.9209630919903095
 40
0.9999999999999999
 40
0.9999999999999999
 40
0.9999999999999999
 40
0.9999999999999999
 10
661.7979244879746
 20
602.5800074509581
 30
0.0
 10
661.2835029501017
 20
602.6368345098767
 30
0.0
 10
660.724933836587
 20
602.6985384580728
 30
0.0
 10
660.1994173249176
 20
602.8855499189607
 30
0.0
 10
660.1578821247273
 20
602.9003307265916
 30
0.0
  0
SPLINE
  5
1E2
330
1F
100
AcDbEntity
  8
0
  6
Continuous
 62
     7
370
    25
100
AcDbSpline
210
0.0
220
0.0
230
1.0
 70
     8
 71
     3
 72
    10
 73
     6
 74
     0
 42
0.00000001
 43
0.00000001
 40
0.0
 40
0.0
 40
0.0
 40
0.0
 40
0.2596150688488839
 40
0.629760644481066
 40
1.0
 40
1.0
 40
1.0
 40
1.0
 10
708.9730854419118
 20
599.9884498819691
 30
0.0
 10
704.8952652231887
 20
600.2882040190675
 30
0.0
 10
695.0035023898236
 20
601.0153319142316
 30
0.0
 10
679.2739297071503
 20
601.8411787841217
 30
0.0
 10
667.6237514458857
 20
602.3337104333874
 30
0.0
 10
661.7979244879746
 20
602.5800074509581
 30
0.0
  0
SPLINE
  5
1E3
330
1F
100
AcDbEntity
  8
0
  6
Continuous
 62
     7
370
    25
100
AcDbSpline
210
0.0
220
0.0
230
1.0
 70
     8
 71
     3
 72
    11
 73
     7
 74
     0
 42
0.00000001
 43
0.00000001
 40
0.0
 40
0.0
 40
0.0
 40
0.0
 40
0.061464119541392
 40
0.4999988937835378
 40
0.9375097801832794
 40
1.0
 40
1.0
 40
1.0
 40
1.0
 10
708.9730854419116
 20
594.2624175349671
 30
0.0
 10
708.9847546381139
 20
594.3788745074193
 30
0.0
 10
709.0796813243834
 20
595.3262297747503
 30
0.0
 10
709.1633841516494
 20
597.1234739731987
 30
0.0
 10
709.0798142281295
 20
598.9226719974395
 30
0.0
 10
708.9849425230842
 20
599.8700468218726
 30
0.0
 10
708.9730854419118
 20
599.9884498819691
 30
0.0
  0
SPLINE
  5
1E4
330
1F
100
AcDbEntity
  8
0
  6
Continuous
 62
     7
370
    25
100
AcDbSpline
210
0.0
220
0.0
230
1.0
 70
     8
 71
     3
 72
    11
 73
     7
 74
     0
 42
0.00000001
 43
0.00000001
 40
0.0
 40
0.0
 40
0.0
 40
0.0
 40
0.259458927729189
 40
0.6296002946237427
 40
0.8147836738016297
 40
1.0
 40
1.0
 40
1.0
 40
1.0
 10
661.7979244879746
 20
591.6708599659798
 30
0.0
 10
665.8809251373195
 20
591.8363585524008
 30
0.0
 10
675.788691404124
 20
592.2379556748524
 30
0.0
 10
688.603828363085
 20
592.9162084908758
 30
0.0
 10
700.2481006293447
 20
593.5936293830879
 30
0.0
 10
706.0645847124772
 20
594.0394749317002
 30
0.0
 10
708.9730854419116
 20
594.2624175349671
 30
0.0
  0
SPLINE
  5
1E5
330
1F
100
AcDbEntity
  8
0
  6
Continuous
 62
     7
370
    25
100
AcDbSpline
210
0.0
220
0.0
230
1.0
 70
     8
 71
     3
 72
     9
 73
     5
 74
     0
 42
0.00000001
 43
0.00000001
 40
0.0
 40
0.0
 40
0.0
 40
0.0
 40
0.0790369080192211
 40
1.0
 40
1.0
 40
1.0
 40
1.0
 10
660.1578821247281
 20
591.3505366903465
 30
0.0
 10
660.1994173249234
 20
591.3653174979793
 30
0.0
 10
660.7249338365926
 20
591.5523289588672
 30
0.0
 10
661.2835029501072
 20
591.6140329070624
 30
0.0
 10
661.7979244879746
 20
591.6708599659798
 30
0.0
  0
SPLINE
  5
1E6
330
1F
100
AcDbEntity
  8
0
  6
Continuous
 62
     7
370
    25
100
AcDbSpline
210
0.0
220
0.0
230
1.0
 70
     8
 71
     3
 72
    11
 73
     7
 74
     0
 42
0.00000001
 43
0.00000001
 40
0.0
 40
0.0
 40
0.0
 40
0.0
 40
0.0728838064943292
 40
0.4140719411596023
 40
0.9209668754550557
 40
1.0
 40
1.0
 40
1.0
 40
1.0
 10
661.7258123226385
 20
595.5247938419085
 30
0.0
 10
661.7335274717761
 20
595.4143474076694
 30
0.0
 10
661.7773592491408
 20
594.7868723673384
 30
0.0
 10
661.4328675377027
 20
593.4038803368734
 30
0.0
 10
660.7931781882163
 20
592.1339488190958
 30
0.0
 10
660.2333894387835
 20
591.4436481529228
 30
0.0
 10
660.1578821247281
 20
591.3505366903465
 30
0.0
  0
SPLINE
  5
1E7
330
1F
100
AcDbEntity
  8
0
  6
Continuous
 62
     7
370
    25
100
AcDbSpline
210
0.0
220
0.0
230
1.0
 70
     8
 71
     3
 72
    10
 73
     6
 74
     0
 42
0.00000001
 43
0.00000001
 40
0.0
 40
0.0
 40
0.0
 40
0.0
 40
0.3880207377811387
 40
0.9790637766506859
 40
1.0
 40
1.0
 40
1.0
 40
1.0
 10
661.7258123226422
 20
598.7260735750443
 30
0.0
 10
661.6524977918829
 20
598.3152337131886
 30
0.0
 10
661.4675087065596
 20
597.2785921433403
 30
0.0
 10
661.5632156323908
 20
596.1848228217691
 30
0.0
 10
661.7204337836384
 20
595.5466269530496
 30
0.0
 10
661.7258123226385
 20
595.5247938419085
 30
0.0
  0
ARC
  5
1E8
330
1F
100
AcDbEntity
  8
0
  6
Continuous
 62
     7
370
    25
100
AcDbCircle
 10
653.4802919801
 20
597.1254337085
 30
0.0
 40
8.39944365426456
100
AcDbArc
 50
10.985757993
 51
349.0142420071
  0
SPLINE
  5
1E9
330
1F
100
AcDbEntity
  8
0
  6
Continuous
 62
     7
370
    25
100
AcDbSpline
210
0.0
220
0.0
230
1.0
 70
     8
 71
     3
 72
     9
 73
     5
 74
     0
 42
0.00000001
 43
0.00000001
 40
0.0
 40
0.0
 40
0.0
 40
0.0
 40
0.6817923421274255
 40
1.0
 40
1.0
 40
1.0
 40
1.0
 10
660.1578821247281
 20
591.3505366903465
 30
0.0
 10
660.015618564085
 20
591.1606263352414
 30
0.0
 10
659.8069574339246
 20
590.882080591368
 30
0.0
 10
659.5775316000442
 20
590.6491762184249
 30
0.0
 10
659.5045265427897
 20
590.5750642634024
 30
0.0
  0
ARC
  5
1EA
330
1F
100
AcDbEntity
  8
0
  6
Continuous
 62
     7
370
    25
100
AcDbCircle
 10
653.4802919801
 20
597.1254337085
 30
0.0
 40
8.899367501836373
100
AcDbArc
 50
47.3959191961
 51
312.6040808039
  0
LINE
  5
1EB
330
1F
100
AcDbEntity
  8
0
  6
Continuous
 62
     7
370
    25
100
AcDbLine
 10
659.5045265428
 20
603.6758031535
 30
0.0
 11
660.1578821247
 21
602.9003307266
 31
0.0
  0
SPLINE
  5
1EC
330
1F
100
AcDbEntity
  8
0
  6
Continuous
 62
     7
370
    25
100
AcDbSpline
210
0.0
220
0.0
230
1.0
 70
     8
 71
     3
 72
    10
 73
     6
 74
     0
 42
0.00000001
 43
0.00000001
 40
0.0
 40
0.0
 40
0.0
 40
0.0
 40
0.3702896688583041
 40
0.7405318123903295
 40
1.0
 40
1.0
 40
1.0
 40
1.0
 10
708.9846049050901
 20
593.8195579541339
 30
0.0
 10
703.1645410588716
 20
593.4993669396076
 30
0.0
 10
691.5251603503681
 20
592.859026005902
 30
0.0
 10
675.8062919435932
 20
591.9897916740388
 30
0.0
 10
665.9091181275835
 20
591.4410506724296
 30
0.0
 10
661.8310498071194
 20
591.2149453885978
 30
0.0
  0
ARC
  5
1ED
330
1F
100
AcDbEntity
  8
0
  6
Continuous
 62
     7
370
    25
100
AcDbCircle
 10
669.0461390145
 20
591.9683317553
 30
0.0
 40
7.254316183354113
100
AcDbArc
 50
182.3501399449
 51
185.9611177313
  0
ARC
  5
1EE
330
1F
100
AcDbEntity
  8
0
  6
Continuous
 62
     7
370
    25
100
AcDbCircle
 10
704.7240823638
 20
593.9303147781
 30
0.0
 40
4.26196191896251
100
AcDbArc
 50
358.5108705387
 51
4.4691613064
  0
SPLINE
  5
1EF
330
1F
100
AcDbEntity
  8
0
  6
Continuous
 62
     7
370
    25
100
AcDbSpline
210
0.0
220
0.0
230
1.0
 70
     8
 71
     3
 72
    10
 73
     6
 74
     0
 42
0.00000001
 43
0.00000001
 40
0.0
 40
0.0
 40
0.0
 40
0.0
 40
0.3702717503651154
 40
0.740512215137175
 40
1.0
 40
1.0
 40
1.0
 40
1.0
 10
661.8310498071194
 20
603.0359220283402
 30
0.0
 10
667.6507218687885
 20
602.7133935426723
 30
0.0
 10
679.2895742670854
 20
602.0683638229293
 30
0.0
 10
695.00871385104
 20
601.1995493354502
 30
0.0
 10
704.9062112747388
 20
600.6554944246834
 30
0.0
 10
708.9846049050866
 20
600.4313094628043
 30
0.0
  0
ARC
  5
1F0
330
1F
100
AcDbEntity
  8
0
  6
Continuous
 62
     7
370
    25
100
AcDbCircle
 10
704.724082361
 20
600.3205526388
 30
0.0
 40
4.261961921761206
100
AcDbArc
 50
355.530838696
 51
1.4891294599
  0
ARC
  5
1F1
330
1F
100
AcDbEntity
  8
0
  6
Continuous
 62
     7
370
    25
100
AcDbCircle
 10
669.0461390146
 20
602.2825356617
 30
0.0
 40
7.254316183399097
100
AcDbArc
 50
174.0388822687
 51
177.6498600551
  0
SPLINE
  5
1F2
330
1F
100
AcDbEntity
  8
0
  6
Continuous
 62
     7
370
    25
100
AcDbSpline
210
0.0
220
0.0
230
1.0
 70
     8
 71
     3
 72
    12
 73
     8
 74
     0
 42
0.00000001
 43
0.00000001
 40
0.0
 40
0.0
 40
0.0
 40
0.0
 40
0.122429049415135
 40
0.3423522449770488
 40
0.5614228816909436
 40
0.7807229538533572
 40
1.0
 40
1.0
 40
1.0
 40
1.0
 10
710.9088128747593
 20
599.8777755123128
 30
0.0
 10
710.8998087988953
 20
599.8801341967537
 30
0.0
 10
710.8746304151642
 20
599.8867298610785
 30
0.0
 10
710.6586427315195
 20
599.9037378288177
 30
0.0
 10
710.2227446017904
 20
599.9292488029722
 30
0.0
 10
709.6388189883602
 20
599.9588009855314
 30
0.0
 10
709.1949888567921
 20
599.9785672624105
 30
0.0
 10
708.9730854419118
 20
599.9884498819691
 30
0.0
  0
SPLINE
  5
1F3
330
1F
100
AcDbEntity
  8
0
  6
Continuous
 62
     7
370
    25
100
AcDbSpline
210
0.0
220
0.0
230
1.0
 70
     8
 71
     3
 72
    11
 73
     7
 74
     0
 42
0.00000001
 43
0.00000001
 40
0.0
 40
0.0
 40
0.0
 40
0.0
 40
0.0800485240044433
 40
0.5000005853538798
 40
0.9209248322279645
 40
1.0
 40
1.0
 40
1.0
 40
1.0
 10
710.9088128747593
 20
599.8777755123128
 30
0.0
 10
710.9085266303452
 20
599.7315310872123
 30
0.0
 10
710.9067386851406
 20
598.818056428379
 30
0.0
 10
710.9055029883107
 20
597.1236468406206
 30
0.0
 10
710.9067406864054
 20
595.4310199887659
 30
0.0
 10
710.9085299083735
 20
594.517556613122
 30
0.0
 10
710.9088128747594
 20
594.3730919046308
 30
0.0
  0
SPLINE
  5
1F4
330
1F
100
AcDbEntity
  8
0
  6
Continuous
 62
     7
370
    25
100
AcDbSpline
210
0.0
220
0.0
230
1.0
 70
     8
 71
     3
 72
    12
 73
     8
 74
     0
 42
0.00000001
 43
0.00000001
 40
0.0
 40
0.0
 40
0.0
 40
0.0
 40
0.1130367476169276
 40
0.3328594693547989
 40
0.5544127937945017
 40
0.7774207483513241
 40
1.0
 40
1.0
 40
1.0
 40
1.0
 10
708.9730854419116
 20
594.2624175349671
 30
0.0
 10
709.0871562818985
 20
594.2674327806685
 30
0.0
 10
709.4230608445064
 20
594.2822011817244
 30
0.0
 10
709.957128700901
 20
594.3077933858336
 30
0.0
 10
710.4736543387884
 20
594.3356686487047
 30
0.0
 10
710.8305490559428
 20
594.3591105222952
 30
0.0
 10
710.8827416734612
 20
594.3684344340548
 30
0.0
 10
710.9088128747594
 20
594.3730919046308
 30
0.0
  0
SPLINE
  5
1F5
330
1F
100
AcDbEntity
  8
0
  6
Continuous
 62
     7
370
    25
100
AcDbSpline
210
0.0
220
0.0
230
1.0
 70
     8
 71
     3
 72
     9
 73
     5
 74
     0
 42
0.00000001
 43
0.00000001
 40
0.0
 40
0.0
 40
0.0
 40
0.0
 40
0.500010612381545
 40
1.0
 40
1.0
 40
1.0
 40
1.0
 10
659.0049186939467
 20
604.107634842782
 30
0.0
 10
659.4346400607676
 20
603.8197943046887
 30
0.0
 10
660.2940645533282
 20
603.2441254469371
 30
0.0
 10
661.3187286386064
 20
603.1053221858505
 30
0.0
 10
661.8310498071194
 20
603.0359220283402
 30
0.0
  0
SPLINE
  5
1F6
330
1F
100
AcDbEntity
  8
0
  6
Continuous
 62
     7
370
    25
100
AcDbSpline
210
0.0
220
0.0
230
1.0
 70
     8
 71
     3
 72
     9
 73
     5
 74
     0
 42
0.00000001
 43
0.00000001
 40
0.0
 40
0.0
 40
0.0
 40
0.0
 40
0.9838702326459388
 40
1.0
 40
1.0
 40
1.0
 40
1.0
 10
659.5045265427897
 20
603.6758031535356
 30
0.0
 10
659.3431857278553
 20
603.8206355665545
 30
0.0
 10
659.179199859007
 20
603.9678423914113
 30
0.0
 10
659.0076851857247
 20
604.105415815458
 30
0.0
 10
659.0049186939467
 20
604.107634842782
 30
0.0
  0
SPLINE
  5
1F7
330
1F
100
AcDbEntity
  8
0
  6
Continuous
 62
     7
370
    25
100
AcDbSpline
210
0.0
220
0.0
230
1.0
 70
     8
 71
     3
 72
     9
 73
     5
 74
     0
 42
0.00000001
 43
0.00000001
 40
0.0
 40
0.0
 40
0.0
 40
0.0
 40
0.5055561057107295
 40
1.0
 40
1.0
 40
1.0
 40
1.0
 10
661.8310498071194
 20
591.2149453885978
 30
0.0
 10
661.3129902897863
 20
591.1442893543277
 30
0.0
 10
660.288258293711
 20
591.0045303177503
 30
0.0
 10
659.4295177249494
 20
590.4281970429546
 30
0.0
 10
659.0049186939467
 20
590.1432325741562
 30
0.0
  0
SPLINE
  5
1F8
330
1F
100
AcDbEntity
  8
0
  6
Continuous
 62
     7
370
    25
100
AcDbSpline
210
0.0
220
0.0
230
1.0
 70
     8
 71
     3
 72
     9
 73
     5
 74
     0
 42
0.00000001
 43
0.00000001
 40
0.0
 40
0.0
 40
0.0
 40
0.0
 40
0.016129767353325
 40
1.0
 40
1.0
 40
1.0
 40
1.0
 10
659.0049186939467
 20
590.1432325741562
 30
0.0
 10
659.0076851857245
 20
590.14545160148
 30
0.0
 10
659.1791998590113
 20
590.2830250255296
 30
0.0
 10
659.3431857278573
 20
590.4302318503848
 30
0.0
 10
659.5045265427897
 20
590.5750642634024
 30
0.0
  0
SPLINE
  5
1F9
330
1F
100
AcDbEntity
  8
0
  6
Continuous
 62
     7
370
    25
100
AcDbSpline
210
0.0
220
0.0
230
1.0
 70
     8
 71
     3
 72
    12
 73
     8
 74
     0
 42
0.00000001
 43
0.00000001
 40
0.0
 40
0.0
 40
0.0
 40
0.0
 40
0.2230315344150424
 40
0.446133755834037
 40
0.6675099896776974
 40
0.8870667292264951
 40
1.0
 40
1.0
 40
1.0
 40
1.0
 10
710.4364586096749
 20
593.8739288335823
 30
0.0
 10
710.4169248235489
 20
593.875819080877
 30
0.0
 10
710.3778510603124
 20
593.8796001745565
 30
0.0
 10
710.1102618782562
 20
593.8726573382858
 30
0.0
 10
709.7227327944311
 20
593.8570685157958
 30
0.0
 10
709.322010681968
 20
593.8377312357317
 30
0.0
 10
709.0701512597102
 20
593.8241656345554
 30
0.0
 10
708.9846049050901
 20
593.8195579541339
 30
0.0
  0
ARC
  5
1FA
330
1F
100
AcDbEntity
  8
0
  6
Continuous
 62
     7
370
    25
100
AcDbCircle
 10
710.4087129872
 20
594.37325849
 30
0.0
 40
0.5000999153469543
100
AcDbArc
 50
273.1804119247
 51
359.9809145383
  0
SPLINE
  5
1FB
330
1F
100
AcDbEntity
  8
0
  6
Continuous
 62
     7
370
    25
100
AcDbSpline
210
0.0
220
0.0
230
1.0
 70
     8
 71
     3
 72
    12
 73
     8
 74
     0
 42
0.00000001
 43
0.00000001
 40
0.0
 40
0.0
 40
0.0
 40
0.0
 40
0.2190444340109335
 40
0.4380981679380244
 40
0.6571027493691858
 40
0.8772791087290026
 40
1.0
 40
1.0
 40
1.0
 40
1.0
 10
708.9846049050866
 20
600.4313094628043
 30
0.0
 10
709.1510226458576
 20
600.4224806498546
 30
0.0
 10
709.4838651929566
 20
600.4048226491124
 30
0.0
 10
709.9220236355998
 20
600.3853041597033
 30
0.0
 10
710.2489894623594
 20
600.373998376071
 30
0.0
 10
710.4108333393735
 20
600.3721745079943
 30
0.0
 10
710.4297046717857
 20
600.3756829373191
 30
0.0
 10
710.4364586096748
 20
600.3769385833557
 30
0.0
  0
ARC
  5
1FC
330
1F
100
AcDbEntity
  8
0
  6
Continuous
 62
     7
370
    25
100
AcDbCircle
 10
710.4087129872
 20
599.877608927
 30
0.0
 40
0.5000999153469416
100
AcDbArc
 50
0.0190854623
 51
86.8195880753
  0
LINE
  5
1FD
330
1F
100
AcDbEntity
  8
0
  6
Continuous
 62
     7
370
    25
100
AcDbLine
 10
661.8310498071
 20
591.2149453886
 30
0.0
 11
661.8580359888
 21
591.1436551132
 31
0.0
  0
LINE
  5
1FE
330
1F
100
AcDbEntity
  8
0
  6
Continuous
 62
     7
370
    25
100
AcDbLine
 10
710.4411489703
 20
593.8694903805
 30
0.0
 11
710.4364586097
 21
593.8739288336
 31
0.0
  0
ELLIPSE
  5
1FF
330
1F
100
AcDbEntity
  8
0
  6
Continuous
 62
     7
370
    25
100
AcDbEllipse
 10
708.9413774276
 20
593.7861979305
 30
0.0
 11
1.499999304622861
 21
0.0828726334386829
 31
0.0
210
0.0
220
0.0
230
1.0
 40
0.0174284859
 41
5.396717970284461
 42
6.299675703200027
  0
LINE
  5
200
330
1F
100
AcDbEntity
  8
0
  6
Continuous
 62
     7
370
    25
100
AcDbLine
 10
706.4257627586
 20
593.5774383425
 30
0.0
 11
709.890725968
 21
593.8183296215
 31
0.0
  0
LINE
  5
201
330
1F
100
AcDbEntity
  8
0
  6
Continuous
 62
     7
370
    25
100
AcDbLine
 10
706.4257627586
 20
593.5775367337
 30
0.0
 11
706.4257627586
 21
593.5774383425
 31
0.0
  0
ELLIPSE
  5
202
330
1F
100
AcDbEntity
  8
0
  6
Continuous
 62
     7
370
    25
100
AcDbEllipse
 10
696.9762763376
 20
593.2478906823
 30
0.0
 11
14.4999932780205
 21
0.8011021232407529
 31
0.0
210
0.0
220
0.0
230
1.0
 40
0.0174284859
 41
4.685109492442221
 42
5.421234828997902
  0
ELLIPSE
  5
203
330
1F
100
AcDbEntity
  8
0
  6
Continuous
 62
     7
370
    25
100
AcDbEllipse
 10
695.6552664221
 20
592.297607133
 30
0.0
 11
35.70262504606012
 21
1.972514619921981
 31
0.0
210
0.0
220
0.0
230
1.0
 40
0.0174284859
 41
1.543516838852421
 42
2.025717338718003
  0
ELLIPSE
  5
204
330
1F
100
AcDbEntity
  8
0
  6
Continuous
 62
     7
370
    25
100
AcDbEllipse
 10
676.63503895
 20
591.9252110732
 30
0.0
 11
7.499996523114078
 21
0.4143631671934145
 31
0.0
210
0.0
220
0.0
230
1.0
 40
0.0174284859
 41
4.976419334597816
 42
5.167309992308083
  0
LINE
  5
205
330
1F
100
AcDbEntity
  8
0
  6
Continuous
 62
     7
370
    25
100
AcDbLine
 10
678.5796913511
 20
592.0575555244
 30
0.0
 11
678.5993096085
 21
591.9071649799
 31
0.0
  0
SPLINE
  5
206
330
1F
100
AcDbEntity
  8
0
  6
Continuous
 62
     7
370
    25
100
AcDbSpline
210
0.0
220
0.0
230
1.0
 70
     8
 71
     3
 72
    10
 73
     6
 74
     0
 42
0.00000001
 43
0.00000001
 40
0.0
 40
0.0
 40
0.0
 40
0.0
 40
0.0186368637457253
 40
0.3939469944633057
 40
1.0
 40
1.0
 40
1.0
 40
1.0
 10
678.3959200653891
 20
592.057069157194
 30
0.0
 10
678.3983762726377
 20
592.0571569076733
 30
0.0
 10
678.4502957091147
 20
592.0590117818662
 30
0.0
 10
678.5542945575928
 20
592.0616917632443
 30
0.0
 10
678.569995214942
 20
592.0591346818467
 30
0.0
 10
678.5796913510856
 20
592.0575555244388
 30
0.0
  0
LINE
  5
207
330
1F
100
AcDbEntity
  8
0
  6
Continuous
 62
     7
370
    25
100
AcDbLine
 10
661.8580359888
 20
591.1436551132
 30
0.0
 11
678.3959200654
 21
592.0570691572
 31
0.0
  0
LINE
  5
208
330
1F
100
AcDbEntity
  8
0
  6
Continuous
 62
     7
370
    25
100
AcDbLine
 10
678.3979857973
 20
602.2100019086
 30
0.0
 11
661.8640773739
 21
603.1231963708
 31
0.0
  0
SPLINE
  5
209
330
1F
100
AcDbEntity
  8
0
  6
Continuous
 62
     7
370
    25
100
AcDbSpline
210
0.0
220
0.0
230
1.0
 70
     8
 71
     3
 72
    11
 73
     7
 74
     0
 42
0.00000001
 43
0.00000001
 40
0.0
 40
0.0
 40
0.0
 40
0.0
 40
0.4177469294495335
 40
0.8392770662410767
 40
0.9817832068819767
 40
1.0
 40
1.0
 40
1.0
 40
1.0
 10
678.5816912379574
 20
602.2086524632857
 30
0.0
 10
678.5770542099256
 20
602.2075692721021
 30
0.0
 10
678.5677381599241
 20
602.205393080119
 30
0.0
 10
678.4922416941741
 20
602.2065952570103
 30
0.0
 10
678.421981493602
 20
602.2090657843504
 30
0.0
 10
678.4004286569444
 20
602.2099066073073
 30
0.0
 10
678.3979857973144
 20
602.2100019085659
 30
0.0
  0
LINE
  5
20A
330
1F
100
AcDbEntity
  8
0
  6
Continuous
 62
     7
370
    25
100
AcDbLine
 10
678.5993096085
 20
602.3437024371
 30
0.0
 11
678.581691238
 21
602.2086524633
 31
0.0
  0
ELLIPSE
  5
20B
330
1F
100
AcDbEntity
  8
0
  6
Continuous
 62
     7
370
    25
100
AcDbEllipse
 10
676.63503895
 20
602.3256563437
 30
0.0
 11
7.499996523114078
 21
-0.4143631671934145
 31
0.0
210
0.0
220
0.0
230
1.0
 40
0.0174284859
 41
1.115875314871314
 42
1.306765972581835
  0
ELLIPSE
  5
20C
330
1F
100
AcDbEntity
  8
0
  6
Continuous
 62
     7
370
    25
100
AcDbEllipse
 10
695.6552664221
 20
601.953260284
 30
0.0
 11
35.70262504606001
 21
-1.972514619921981
 31
0.0
210
0.0
220
0.0
230
1.0
 40
0.0174284859
 41
4.257467968461812
 42
4.739668468327172
  0
ELLIPSE
  5
20D
330
1F
100
AcDbEntity
  8
0
  6
Continuous
 62
     7
370
    25
100
AcDbEllipse
 10
696.9762763376
 20
601.0029767347
 30
0.0
 11
14.4999932780205
 21
-0.8011021232406391
 31
0.0
210
0.0
220
0.0
230
1.0
 40
0.0174284859
 41
0.8619504781818906
 42
1.598075814737354
  0
LINE
  5
20E
330
1F
100
AcDbEntity
  8
0
  6
Continuous
 62
     7
370
    25
100
AcDbLine
 10
706.4257627586
 20
600.6734290744
 30
0.0
 11
706.4257627586
 21
600.6733306832
 31
0.0
  0
LINE
  5
20F
330
1F
100
AcDbEntity
  8
0
  6
Continuous
 62
     7
370
    25
100
AcDbLine
 10
709.890725968
 20
600.4325377955
 30
0.0
 11
706.4257627586
 21
600.6734290744
 31
0.0
  0
ELLIPSE
  5
210
330
1F
100
AcDbEntity
  8
0
  6
Continuous
 62
     7
370
    25
100
AcDbEllipse
 10
708.9413774276
 20
600.4646694864
 30
0.0
 11
1.499999304622861
 21
-0.0828726334386829
 31
0.0
210
0.0
220
0.0
230
1.0
 40
0.0174284859
 41
0.4925846443098775
 42
0.8864673368912007
  0
LINE
  5
211
330
1F
100
AcDbEntity
  8
0
  6
Continuous
 62
     7
370
    25
100
AcDbLine
 10
710.4364586097
 20
600.3769385834
 30
0.0
 11
710.4411489703
 21
600.3813770364
 31
0.0
  0
LINE
  5
212
330
1F
100
AcDbEntity
  8
0
  6
Continuous
 62
     7
370
    25
100
AcDbLine
 10
661.8640773739
 20
603.1231963708
 30
0.0
 11
661.8310498071
 21
603.0359220283
 31
0.0
  0
SPLINE
  5
213
330
1F
100
AcDbEntity
  8
0
  6
Continuous
 62
     7
370
    25
100
AcDbSpline
210
0.0
220
0.0
230
1.0
 70
     8
 71
     3
 72
     9
 73
     5
 74
     0
 42
0.00000001
 43
0.00000001
 40
0.0
 40
0.0
 40
0.0
 40
0.0
 40
0.5001021276704715
 40
0.9999999999999999
 40
0.9999999999999999
 40
0.9999999999999999
 40
0.9999999999999999
 10
659.0381375600022
 20
590.077541127196
 30
0.0
 10
659.4670853357095
 20
590.3640667612844
 30
0.0
 10
660.32480569316
 20
590.9370010045823
 30
0.0
 10
661.3470288217752
 20
591.0747797910363
 30
0.0
 10
661.8580359888159
 20
591.143655113237
 30
0.0
  0
LINE
  5
214
330
1F
100
AcDbEntity
  8
0
  6
Continuous
 62
     7
370
    25
100
AcDbLine
 10
659.03813756
 20
590.0775411272
 30
0.0
 11
659.0049186939
 21
590.1432325742
 31
0.0
  0
SPLINE
  5
215
330
1F
100
AcDbEntity
  8
0
  6
Continuous
 62
     7
370
    25
100
AcDbSpline
210
0.0
220
0.0
230
1.0
 70
     8
 71
     3
 72
     9
 73
     5
 74
     0
 42
0.00000001
 43
0.00000001
 40
0.0
 40
0.0
 40
0.0
 40
0.0
 40
0.4007227371565293
 40
1.0
 40
1.0
 40
1.0
 40
1.0
 10
661.8640773738675
 20
603.1231963707804
 30
0.0
 10
661.4553912504583
 20
603.1716036328461
 30
0.0
 10
660.4355186914185
 20
603.2924035215899
 30
0.0
 10
659.5664426475926
 20
603.8525107949436
 30
0.0
 10
659.0456251348457
 20
604.1881703486176
 30
0.0
  0
LINE
  5
216
330
1F
100
AcDbEntity
  8
0
  6
Continuous
 62
     7
370
    25
100
AcDbLine
 10
659.0049186939
 20
604.1076348428
 30
0.0
 11
659.0456251348
 21
604.1881703486
 31
0.0
  0
ARC
  5
217
330
1F
100
AcDbEntity
  8
0
  6
Continuous
 62
     7
370
    25
100
AcDbCircle
 10
653.4802919801
 20
597.1254337085
 30
0.0
 40
8.975658044222099
100
AcDbArc
 50
245.1648853947
 51
308.2586979829
  0
LWPOLYLINE
  5
218
330
1F
100
AcDbEntity
  8
0
  6
Continuous
 62
     7
370
    25
100
AcDbPolyline
 90
        3
 70
   128
 43
0.0
 10
649.5449785559
 20
588.8747739852
 10
649.64956012
 20
588.9410263964
 10
649.7104406628
 20
588.9798423627
  0
ARC
  5
219
330
1F
100
AcDbEntity
  8
0
  6
Continuous
 62
     7
370
    25
100
AcDbCircle
 10
653.4802919801
 20
597.1254337085
 30
0.0
 40
9.141120151092158
100
AcDbArc
 50
115.4997164176
 51
244.5002794289
  0
LWPOLYLINE
  5
21A
330
1F
100
AcDbEntity
  8
0
  6
Continuous
 62
     7
370
    25
100
AcDbPolyline
 90
        3
 70
   128
 43
0.0
 10
649.6941477523
 20
605.2814311249
 10
649.64956012
 20
605.3098410205
 10
649.5449785556
 20
605.376093432
  0
ARC
  5
21B
330
1F
100
AcDbEntity
  8
0
  6
Continuous
 62
     7
370
    25
100
AcDbCircle
 10
653.4802919801
 20
597.1254337085
 30
0.0
 40
8.991950954660766
100
AcDbArc
 50
51.762407147
 51
114.9014811666
  0
LINE
  5
21C
330
1F
100
AcDbEntity
  8
0
  6
Continuous
 62
     7
370
    25
100
AcDbLine
 10
710.9135032354
 20
599.8822139654
 30
0.0
 11
710.9088128748
 21
599.8777755123
 31
0.0
  0
LINE
  5
21D
330
1F
100
AcDbEntity
  8
0
  6
Continuous
 62
     7
370
    25
100
AcDbLine
 10
710.9135032354
 20
594.3686534516
 30
0.0
 11
710.9135032354
 21
599.8822139654
 31
0.0
  0
LINE
  5
21E
330
1F
100
AcDbEntity
  8
0
  6
Continuous
 62
     7
370
    25
100
AcDbLine
 10
710.9088128748
 20
594.3730919046
 30
0.0
 11
710.9135032354
 21
594.3686534516
 31
0.0
  0
ARC
  5
21F
330
1F
100
AcDbEntity
  8
0
  6
Continuous
 62
     7
370
    25
100
AcDbCircle
 10
710.4134033478
 20
599.88204738
 30
0.0
 40
0.5000999153469133
100
AcDbArc
 50
0.0190854617
 51
86.8195880753
  0
ARC
  5
220
330
1F
100
AcDbEntity
  8
0
  6
Continuous
 62
     7
370
    25
100
AcDbCircle
 10
710.4134033478
 20
594.3688200369
 30
0.0
 40
0.5000999153468282
100
AcDbArc
 50
273.1804119247
 51
359.9809145383
  0
LINE
  5
221
330
1F
100
AcDbEntity
  8
0
  6
Continuous
 62
     7
370
    25
100
AcDbLine
 10
709.890725968
 20
593.8183296215
 30
0.0
 11
709.8978336988
 21
593.8186966581
 31
0.0
  0
LINE
  5
222
330
1F
100
AcDbEntity
  8
0
  6
Continuous
 62
     7
370
    25
100
AcDbLine
 10
709.890725968
 20
600.4325377955
 30
0.0
 11
709.8978336988
 21
600.4321707588
 31
0.0
  0
SPLINE
  5
223
330
1F
100
AcDbEntity
  8
0
  6
Continuous
 62
     7
370
    25
100
AcDbSpline
210
0.0
220
0.0
230
1.0
 70
     8
 71
     3
 72
    11
 73
     7
 74
     0
 42
0.00000001
 43
0.00000001
 40
0.0
 40
0.0
 40
0.0
 40
0.0
 40
0.1345990676765955
 40
0.41269788159695
 40
0.6969472592954596
 40
0.9999999999999999
 40
0.9999999999999999
 40
0.9999999999999999
 40
0.9999999999999999
 10
649.7096620563115
 20
588.9790357456487
 30
0.0
 10
650.1389680765598
 20
588.7881518604876
 30
0.0
 10
651.4552750032839
 20
588.2028775610677
 30
0.0
 10
653.8310850541673
 20
587.580409677044
 30
0.0
 10
656.8847744390483
 20
587.2039069945438
 30
0.0
 10
659.075804347409
 20
587.1767656662109
 30
0.0
 10
660.2063938649469
 20
587.1627605167658
 30
0.0
  0
ARC
  5
224
330
1F
100
AcDbEntity
  8
0
  6
Continuous
 62
     7
370
    25
100
AcDbCircle
 10
655.7138628719
 20
587.7825845613
 30
0.0
 40
4.535087272522317
100
AcDbArc
 50
329.0284626407
 51
352.1446266983
  0
SPLINE
  5
225
330
1F
100
AcDbEntity
  8
0
  6
Continuous
 62
     7
370
    25
100
AcDbSpline
210
0.0
220
0.0
230
1.0
 70
     8
 71
     3
 72
    12
 73
     8
 74
     0
 42
0.00000001
 43
0.00000001
 40
0.0
 40
0.0
 40
0.0
 40
0.0
 40
0.1662426524176549
 40
0.3368059756191304
 40
0.6054181071254592
 40
0.8801435087136196
 40
1.0
 40
1.0
 40
1.0
 40
1.0
 10
659.602351227446
 20
585.448773326798
 30
0.0
 10
658.9646697069098
 20
585.604258502281
 30
0.0
 10
657.6727332301092
 20
585.9192699356363
 30
0.0
 10
655.4885468477598
 20
586.5822350406348
 30
0.0
 10
653.1265725042
 20
587.4344299574402
 30
0.0
 10
651.1610349423075
 20
588.2770586360523
 30
0.0
 10
650.0472599575119
 20
588.8149167287476
 30
0.0
 10
649.7089444793544
 20
588.9782941795747
 30
0.0
  0
LINE
  5
226
330
1F
100
AcDbEntity
  8
0
  6
Continuous
 62
     7
370
    25
100
AcDbLine
 10
649.7089444794
 20
588.9782941796
 30
0.0
 11
649.7096620563
 21
588.9790357456
 31
0.0
  0
LINE
  5
227
330
1F
100
AcDbEntity
  8
0
  6
Continuous
 62
     7
370
    25
100
AcDbLine
 10
659.6023512274
 20
585.4487733268
 30
0.0
 11
659.5864931505
 21
585.3792997952
 31
0.0
  0
ARC
  5
228
330
1F
100
AcDbEntity
  8
0
  6
Continuous
 62
     7
370
    25
100
AcDbCircle
 10
670.308271387
 20
632.3509346075
 30
0.0
 40
48.17977797259065
100
AcDbArc
 50
244.4718479123
 51
257.1419190681
  0
LWPOLYLINE
  5
229
330
1F
100
AcDbEntity
  8
0
  6
Continuous
 62
     7
370
    25
100
AcDbPolyline
 90
        3
 70
   128
 43
0.0
 10
649.7089444794
 20
588.9782941796
 10
649.649556629
 20
588.940770476
 10
649.5449785562
 20
588.8747724461
  0
LINE
  5
22A
330
1F
100
AcDbEntity
  8
0
  6
Continuous
 62
     7
370
    25
100
AcDbLine
 10
659.03813756
 20
590.0775411272
 30
0.0
 11
661.2360094802
 21
587.2904242528
 31
0.0
  0
ARC
  5
22B
330
1F
100
AcDbEntity
  8
0
  6
Continuous
 62
     7
370
    25
100
AcDbCircle
 10
653.4802919801
 20
597.1254337085
 30
0.0
 40
12.52511736202734
100
AcDbArc
 50
307.8583068702
 51
308.2586979829
  0
LINE
  5
22C
330
1F
100
AcDbEntity
  8
0
  6
Continuous
 62
     7
370
    25
100
AcDbLine
 10
660.2063938649
 20
587.1627605168
 30
0.0
 11
661.1670922138
 21
587.2364667705
 31
0.0
  0
LINE
  5
22D
330
1F
100
AcDbEntity
  8
0
  6
Continuous
 62
     7
370
    25
100
AcDbLine
 10
649.7104406628
 20
588.9798423627
 30
0.0
 11
649.7096620563
 21
588.9790357456
 31
0.0
  0
LINE
  5
22E
330
1F
100
AcDbEntity
  8
0
  6
Continuous
 62
     7
370
    25
100
AcDbLine
 10
664.1538625406
 20
587.7155882575
 30
0.0
 11
662.0537800245
 21
587.5995973088
 31
0.0
  0
LINE
  5
22F
330
1F
100
AcDbEntity
  8
0
  6
Continuous
 62
     7
370
    25
100
AcDbLine
 10
661.8580359888
 20
591.1436551132
 30
0.0
 11
662.0537800245
 21
587.5995973088
 31
0.0
  0
SPLINE
  5
230
330
1F
100
AcDbEntity
  8
0
  6
Continuous
 62
     7
370
    25
100
AcDbSpline
210
0.0
220
0.0
230
1.0
 70
     8
 71
     3
 72
    17
 73
    13
 74
     0
 42
0.00000001
 43
0.00000001
 40
0.0
 40
0.0
 40
0.0
 40
0.0
 40
0.2859834379244695
 40
0.5215922644122232
 40
0.7592399016809382
 40
0.8521492405060503
 40
0.9266708633836017
 40
0.9605058393195365
 40
0.9835417153308587
 40
0.9930790992390833
 40
0.9972256067114874
 40
1.0
 40
1.0
 40
1.0
 40
1.0
 10
665.5945309026949
 20
588.2397319394838
 30
0.0
 10
666.8233090864422
 20
588.7716000635043
 30
0.0
 10
669.064422068273
 20
589.7416502915519
 30
0.0
 10
672.4033707551748
 20
590.7838809623366
 30
0.0
 10
674.9060261218816
 20
591.4016995232631
 30
0.0
 10
676.6763324059178
 20
591.7556748324814
 30
0.0
 10
677.5414532412551
 20
591.9103758670942
 30
0.0
 10
678.0670406705306
 20
591.9988758579259
 30
0.0
 10
678.3007027841878
 20
592.0379876207485
 30
0.0
 10
678.3783529436772
 20
592.0523073875104
 30
0.0
 10
678.3944345978773
 20
592.0560411398278
 30
0.0
 10
678.3954949858532
 20
592.0567749810228
 30
0.0
 10
678.3959200653891
 20
592.057069157194
 30
0.0
  0
LINE
  5
231
330
1F
100
AcDbEntity
  8
0
  6
Continuous
 62
     7
370
    25
100
AcDbLine
 10
664.1538625406
 20
587.7155882575
 30
0.0
 11
665.5945309027
 21
588.2397319395
 31
0.0
  0
ARC
  5
232
330
1F
100
AcDbEntity
  8
0
  6
Continuous
 62
     7
370
    25
100
AcDbCircle
 10
671.3979636938
 20
591.8488343203
 30
0.0
 40
6.834138728221142
100
AcDbArc
 50
211.8771071303
 51
226.9488007428
  0
SPLINE
  5
233
330
1F
100
AcDbEntity
  8
0
  6
Continuous
 62
     7
370
    25
100
AcDbSpline
210
0.0
220
0.0
230
1.0
 70
     8
 71
     3
 72
    10
 73
     6
 74
     0
 42
0.00000001
 43
0.00000001
 40
0.0
 40
0.0
 40
0.0
 40
0.0
 40
0.5975855365574468
 40
0.9790563563182108
 40
1.0
 40
1.0
 40
1.0
 40
1.0
 10
678.5059453850768
 20
592.0479422598545
 30
0.0
 10
678.5084645244301
 20
592.0516815575809
 30
0.0
 10
678.5125917652107
 20
592.0578078491043
 30
0.0
 10
678.4382206386556
 20
592.0581844079609
 30
0.0
 10
678.3980126865509
 20
592.0571243289605
 30
0.0
 10
678.3959200653891
 20
592.057069157194
 30
0.0
  0
SPLINE
  5
234
330
1F
100
AcDbEntity
  8
0
  6
Continuous
 62
     7
370
    25
100
AcDbSpline
210
0.0
220
0.0
230
1.0
 70
     8
 71
     3
 72
    15
 73
    11
 74
     0
 42
0.00000001
 43
0.00000001
 40
0.0
 40
0.0
 40
0.0
 40
0.0
 40
0.0128981401598393
 40
0.0519443541565597
 40
0.1318327952014331
 40
0.2279057212361199
 40
0.4677439605522724
 40
0.7076088995729
 40
0.8538517081976991
 40
1.0
 40
1.0
 40
1.0
 40
1.0
 10
678.5059453850768
 20
592.0479422598545
 30
0.0
 10
678.4724767815526
 20
592.0400973625669
 30
0.0
 10
678.3376895197422
 20
592.0085038058234
 30
0.0
 10
677.8984191397755
 20
591.9061130625144
 30
0.0
 10
677.0869635197909
 20
591.7037915670257
 30
0.0
 10
675.4336971880019
 20
591.2361426677954
 30
0.0
 10
673.0873380572377
 20
590.4045558897603
 30
0.0
 10
670.5437422154106
 20
589.2109652946853
 30
0.0
 10
668.4249647957693
 20
588.004043249995
 30
0.0
 10
667.2966185541891
 20
587.2378175834928
 30
0.0
 10
666.7326278050602
 20
586.8548285932986
 30
0.0
  0
LWPOLYLINE
  5
235
330
1F
100
AcDbEntity
  8
0
  6
Continuous
 62
     7
370
    25
100
AcDbPolyline
 90
        4
 70
   128
 43
0.0
 10
678.5254721991
 20
591.8968466836
 10
678.5232275635
 20
591.9142048305
 10
678.5142525295
 20
591.9836375766
 10
678.5059453851
 20
592.0479422599
  0
LINE
  5
236
330
1F
100
AcDbEntity
  8
0
  6
Continuous
 62
     7
370
    25
100
AcDbLine
 10
676.7373479154
 20
591.4673191803
 30
0.0
 11
678.5254721991
 21
591.8968466836
 31
0.0
  0
ARC
  5
237
330
1F
100
AcDbEntity
  8
0
  6
Continuous
 62
     7
370
    25
100
AcDbCircle
 10
684.9229063139
 20
561.0416255865
 30
0.0
 40
31.50755777528349
100
AcDbArc
 50
105.0579972479
 51
125.1719294169
  0
LINE
  5
238
330
1F
100
AcDbEntity
  8
0
  6
Continuous
 62
     7
370
    25
100
AcDbLine
 10
666.7326278051
 20
586.8548285933
 30
0.0
 11
666.7735476913
 21
586.7967605803
 31
0.0
  0
SPLINE
  5
239
330
1F
100
AcDbEntity
  8
0
  6
Continuous
 62
     7
370
    25
100
AcDbSpline
210
0.0
220
0.0
230
1.0
 70
     8
 71
     3
 72
     9
 73
     5
 74
     0
 42
0.00000001
 43
0.00000001
 40
0.0
 40
0.0
 40
0.0
 40
0.0
 40
0.499897873060973
 40
0.9999999999999999
 40
0.9999999999999999
 40
0.9999999999999999
 40
0.9999999999999999
 10
662.0537800245212
 20
587.599597308793
 30
0.0
 10
661.9055851086254
 20
587.579630970791
 30
0.0
 10
661.6091347256934
 20
587.5396901367161
 30
0.0
 10
661.3604014969168
 20
587.3735241941456
 30
0.0
 10
661.2360094801652
 20
587.2904242528411
 30
0.0
  0
ARC
  5
23A
330
1F
100
AcDbEntity
  8
0
  6
Continuous
 62
     7
370
    25
100
AcDbCircle
 10
678.6072807
 20
591.5582408201
 30
0.0
 40
0.5000763403555463
100
AcDbArc
 50
93.1626296397
 51
101.6913635619
  0
ARC
  5
23B
330
1F
100
AcDbEntity
  8
0
  6
Continuous
 62
     7
370
    25
100
AcDbCircle
 10
670.308271387
 20
561.8999328095
 30
0.0
 40
48.10950076354623
100
AcDbArc
 50
102.8580809319
 51
103.1066633214
  0
SPLINE
  5
23C
330
1F
100
AcDbEntity
  8
0
  6
Continuous
 62
     7
370
    25
100
AcDbSpline
210
0.0
220
0.0
230
1.0
 70
     8
 71
     3
 72
    13
 73
     9
 74
     0
 42
0.00000001
 43
0.00000001
 40
0.0
 40
0.0
 40
0.0
 40
0.0
 40
0.0460329529079877
 40
0.2492425848193723
 40
0.4775225570272884
 40
0.7051721168687842
 40
0.852680826381466
 40
1.0
 40
1.0
 40
1.0
 40
1.0
 10
649.6929135056641
 20
605.2827054685715
 30
0.0
 10
649.8212481577026
 20
605.345214437008
 30
0.0
 10
650.5161082171879
 20
605.6836653918855
 30
0.0
 10
651.8757714517648
 20
606.3016428159144
 30
0.0
 10
653.883744068583
 20
607.1121151426275
 30
0.0
 10
655.8982543304862
 20
607.8047399438922
 30
0.0
 10
657.7605376117317
 20
608.3549737455903
 30
0.0
 10
658.8529071749703
 20
608.6224898566962
 30
0.0
 10
659.3987408309773
 20
608.7561619232565
 30
0.0
  0
LWPOLYLINE
  5
23D
330
1F
100
AcDbEntity
  8
0
  6
Continuous
 62
     7
370
    25
100
AcDbPolyline
 90
        3
 70
   128
 43
0.0
 10
649.6929135057
 20
605.2827054686
 10
649.649556629
 20
605.3100969409
 10
649.5449785559
 20
605.376094971
  0
ARC
  5
23E
330
1F
100
AcDbEntity
  8
0
  6
Continuous
 62
     7
370
    25
100
AcDbCircle
 10
670.308271387
 20
561.8999328095
 30
0.0
 40
48.17977797259056
100
AcDbArc
 50
102.8580809319
 51
115.5281512988
  0
LINE
  5
23F
330
1F
100
AcDbEntity
  8
0
  6
Continuous
 62
     7
370
    25
100
AcDbLine
 10
659.6021324225
 20
608.8030526651
 30
0.0
 11
659.5864931505
 21
608.8715676217
 31
0.0
  0
LINE
  5
240
330
1F
100
AcDbEntity
  8
0
  6
Continuous
 62
     7
370
    25
100
AcDbLine
 10
659.8522009089
 20
606.808559394
 30
0.0
 11
659.398740831
 21
608.7561619233
 31
0.0
  0
SPLINE
  5
241
330
1F
100
AcDbEntity
  8
0
  6
Continuous
 62
     7
370
    25
100
AcDbSpline
210
0.0
220
0.0
230
1.0
 70
     8
 71
     3
 72
    13
 73
     9
 74
     0
 42
0.00000001
 43
0.00000001
 40
0.0
 40
0.0
 40
0.0
 40
0.0
 40
0.2574896950994369
 40
0.4890886589321034
 40
0.7206004760683483
 40
0.9447506334961274
 40
0.9460032291293298
 40
0.9999999999999999
 40
0.9999999999999999
 40
0.9999999999999999
 40
0.9999999999999999
 10
659.8522009088643
 20
606.8085593940425
 30
0.0
 10
658.9334753328764
 20
606.8366223581572
 30
0.0
 10
657.1884025457383
 20
606.8899265398227
 30
0.0
 10
654.6938372998248
 20
606.7253624209847
 30
0.0
 10
652.3781874938237
 20
606.3119884259746
 30
0.0
 10
650.9010788922205
 20
605.812431239411
 30
0.0
 10
650.0298174476792
 20
605.4381883844812
 30
0.0
 10
649.8597710388563
 20
605.3592079659962
 30
0.0
 10
649.6935798668011
 20
605.2820181658213
 30
0.0
  0
LINE
  5
242
330
1F
100
AcDbEntity
  8
0
  6
Continuous
 62
     7
370
    25
100
AcDbLine
 10
649.6935798668
 20
605.2820181658
 30
0.0
 11
649.6929135057
 21
605.2827054686
 31
0.0
  0
LINE
  5
243
330
1F
100
AcDbEntity
  8
0
  6
Continuous
 62
     7
370
    25
100
AcDbLine
 10
661.8640773739
 20
603.1231963708
 30
0.0
 11
662.0074392028
 21
605.7188443402
 31
0.0
  0
LINE
  5
244
330
1F
100
AcDbEntity
  8
0
  6
Continuous
 62
     7
370
    25
100
AcDbLine
 10
662.0074392028
 20
605.7188443402
 30
0.0
 11
665.9575202246
 21
605.5006749866
 31
0.0
  0
SPLINE
  5
245
330
1F
100
AcDbEntity
  8
0
  6
Continuous
 62
     7
370
    25
100
AcDbSpline
210
0.0
220
0.0
230
1.0
 70
     8
 71
     3
 72
    17
 73
    13
 74
     0
 42
0.00000001
 43
0.00000001
 40
0.0
 40
0.0
 40
0.0
 40
0.0
 40
0.0068263121770683
 40
0.008844850729726
 40
0.0223990310416119
 40
0.0309593028397531
 40
0.0563218912149136
 40
0.1198824177066677
 40
0.1957460556357049
 40
0.5558621944880022
 40
0.7780336097977192
 40
1.0
 40
1.0
 40
1.0
 40
1.0
 10
678.3979857973144
 20
602.2100019085659
 30
0.0
 10
678.3943656521528
 20
602.2110400916109
 30
0.0
 10
678.3896750311054
 20
602.2123852650847
 30
0.0
 10
678.3461423184018
 20
602.2199752531595
 30
0.0
 10
678.2716103959696
 20
602.2317267599661
 30
0.0
 10
678.1047781504675
 20
602.2574456551894
 30
0.0
 10
677.7232020334003
 20
602.3159602342115
 30
0.0
 10
677.040301066666
 20
602.4251572187987
 30
0.0
 10
674.9353017497483
 20
602.7923294512228
 30
0.0
 10
672.1223671679621
 20
603.4265071351882
 30
0.0
 10
668.7235829533954
 20
604.4394474270467
 30
0.0
 10
666.8792573386316
 20
605.1470413477333
 30
0.0
 10
665.957520224641
 20
605.5006749865605
 30
0.0
  0
LINE
  5
246
330
1F
100
AcDbEntity
  8
0
  6
Continuous
 62
     7
370
    25
100
AcDbLine
 10
665.9575202246
 20
605.5006749866
 30
0.0
 11
667.0869956421
 21
607.1508467762
 31
0.0
  0
SPLINE
  5
247
330
1F
100
AcDbEntity
  8
0
  6
Continuous
 62
     7
370
    25
100
AcDbSpline
210
0.0
220
0.0
230
1.0
 70
     8
 71
     3
 72
    15
 73
    11
 74
     0
 42
0.00000001
 43
0.00000001
 40
0.0
 40
0.0
 40
0.0
 40
0.0
 40
0.2255198391625371
 40
0.4515645943751955
 40
0.6337799820516983
 40
0.8158790324473555
 40
0.8946729146060259
 40
0.9638048440471934
 40
0.9940832206369729
 40
1.0
 40
1.0
 40
1.0
 40
1.0
 10
667.086995642133
 20
607.1508467761993
 30
0.0
 10
667.9324441829871
 20
606.6058391068578
 30
0.0
 10
669.6253091159948
 20
605.5145552178153
 30
0.0
 10
672.1016253096743
 20
604.2974518282226
 30
0.0
 10
674.4300362243855
 20
603.3665520197874
 30
0.0
 10
676.1705157142078
 20
602.8107614749739
 30
0.0
 10
677.4281845705775
 20
602.4742086480095
 30
0.0
 10
678.0723174684898
 20
602.3188615416851
 30
0.0
 10
678.4002627585719
 20
602.2433081434176
 30
0.0
 10
678.492800202196
 20
602.2217874353676
 30
0.0
 10
678.5079271887314
 20
602.2182694706588
 30
0.0
  0
SPLINE
  5
248
330
1F
100
AcDbEntity
  8
0
  6
Continuous
 62
     7
370
    25
100
AcDbSpline
210
0.0
220
0.0
230
1.0
 70
     8
 71
     3
 72
    11
 73
     7
 74
     0
 42
0.00000001
 43
0.00000001
 40
0.0
 40
0.0
 40
0.0
 40
0.0
 40
0.0195561212295859
 40
0.1681891996744558
 40
0.5898876540792811
 40
1.0
 40
1.0
 40
1.0
 40
1.0
 10
678.3979857973144
 20
602.2100019085659
 30
0.0
 10
678.3999445104624
 20
602.2099437948501
 30
0.0
 10
678.4167901002851
 20
602.2094439974094
 30
0.0
 10
678.4686906640443
 20
602.2085975799959
 30
0.0
 10
678.5179752961099
 20
602.210686878518
 30
0.0
 10
678.5112453110335
 20
602.2157655197014
 30
0.0
 10
678.5079271887314
 20
602.2182694706588
 30
0.0
  0
LINE
  5
249
330
1F
100
AcDbEntity
  8
0
  6
Continuous
 62
     7
370
    25
100
AcDbLine
 10
659.0456251348
 20
604.1881703486
 30
0.0
 11
660.6545821281
 21
606.2300318496
 31
0.0
  0
LINE
  5
24A
330
1F
100
AcDbEntity
  8
0
  6
Continuous
 62
     7
370
    25
100
AcDbLine
 10
649.6935798668
 20
605.2820181658
 30
0.0
 11
649.6941477523
 21
605.2814311249
 31
0.0
  0
ARC
  5
24B
330
1F
100
AcDbEntity
  8
0
  6
Continuous
 62
     7
370
    25
100
AcDbCircle
 10
653.4802919801
 20
597.1254337085
 30
0.0
 40
11.5915549620674
100
AcDbArc
 50
51.762407147
 51
56.6533814372
  0
LWPOLYLINE
  5
24C
330
1F
100
AcDbEntity
  8
0
  6
Continuous
 62
     7
370
    25
100
AcDbPolyline
 90
        4
 70
   128
 43
0.0
 10
678.5079271887
 20
602.2182694707
 10
678.510169435
 20
602.2356277257
 10
678.5191419179
 20
602.3050605873
 10
678.5254721991
 20
602.3540207333
  0
ARC
  5
24D
330
1F
100
AcDbEntity
  8
0
  6
Continuous
 62
     7
370
    25
100
AcDbCircle
 10
684.9229063139
 20
633.2092418305
 30
0.0
 40
31.57783498432761
100
AcDbArc
 50
234.8280705831
 51
235.6099480104
  0
LINE
  5
24E
330
1F
100
AcDbEntity
  8
0
  6
Continuous
 62
     7
370
    25
100
AcDbLine
 10
666.7330657765
 20
607.3966603339
 30
0.0
 11
666.7735476913
 21
607.4541068367
 31
0.0
  0
ARC
  5
24F
330
1F
100
AcDbEntity
  8
0
  6
Continuous
 62
     7
370
    25
100
AcDbCircle
 10
684.9229063139
 20
633.2092418305
 30
0.0
 40
31.5075577752834
100
AcDbArc
 50
234.8280705831
 51
254.9420027521
  0
LINE
  5
250
330
1F
100
AcDbEntity
  8
0
  6
Continuous
 62
     7
370
    25
100
AcDbLine
 10
678.5254721991
 20
602.3540207333
 30
0.0
 11
676.7373479154
 21
602.7835482366
 31
0.0
  0
LINE
  5
251
330
1F
100
AcDbEntity
  8
0
  6
Continuous
 62
     7
370
    25
100
AcDbLine
 10
678.5993096085
 20
591.9071649799
 30
0.0
 11
678.5254721991
 21
591.8968466836
 31
0.0
  0
SPLINE
  5
252
330
1F
100
AcDbEntity
  8
0
  6
Continuous
 62
     7
370
    25
100
AcDbSpline
210
0.0
220
0.0
230
1.0
 70
     8
 71
     3
 72
    10
 73
     6
 74
     0
 42
0.00000001
 43
0.00000001
 40
0.0
 40
0.0
 40
0.0
 40
0.0
 40
0.0490769085761621
 40
0.5995805843665267
 40
1.0
 40
1.0
 40
1.0
 40
1.0
 10
660.6545821281043
 20
606.2300318495938
 30
0.0
 10
660.6735296664733
 20
606.2154091139926
 30
0.0
 10
660.90501482838
 20
606.0367607718034
 30
0.0
 10
661.3508886031972
 20
605.8027087783821
 30
0.0
 10
661.8128951800816
 20
605.7436944053645
 30
0.0
 10
662.0074392028353
 20
605.7188443402323
 30
0.0
  0
ARC
  5
253
330
1F
100
AcDbEntity
  8
0
  6
Continuous
 62
     7
370
    25
100
AcDbCircle
 10
678.6092805897
 20
602.7079671677
 30
0.0
 40
0.5000763405274891
100
AcDbArc
 50
258.306520338
 51
266.8373700344
  0
SPLINE
  5
254
330
1F
100
AcDbEntity
  8
0
  6
Continuous
 62
     7
370
    25
100
AcDbSpline
210
0.0
220
0.0
230
1.0
 70
     8
 71
     3
 72
     9
 73
     5
 74
     0
 42
0.00000001
 43
0.00000001
 40
0.0
 40
0.0
 40
0.0
 40
0.0
 40
0.845891190778427
 40
0.9999999999999999
 40
0.9999999999999999
 40
0.9999999999999999
 40
0.9999999999999999
 10
678.525472199142
 20
602.3540207333451
 30
0.0
 10
678.546312795253
 20
602.3502059263528
 30
0.0
 10
678.5709502383879
 20
602.3456961181954
 30
0.0
 10
678.5955227655642
 20
602.3439686544444
 30
0.0
 10
678.5993096084668
 20
602.3437024370628
 30
0.0
  0
LINE
  5
255
330
1F
100
AcDbEntity
  8
0
  6
Continuous
 62
     7
370
    25
100
AcDbLine
 10
696.5947298061
 20
601.2774465838
 30
0.0
 11
696.5942717863
 21
601.2774716703
 31
0.0
  0
LINE
  5
256
330
1F
100
AcDbEntity
  8
0
  6
Continuous
 62
     7
370
    25
100
AcDbLine
 10
666.7326278051
 20
586.8548285933
 30
0.0
 11
664.8938869557
 21
585.8578623576
 31
0.0
  0
LINE
  5
257
330
1F
100
AcDbEntity
  8
0
  6
Continuous
 62
     7
370
    25
100
AcDbLine
 10
664.1538625406
 20
587.7155882575
 30
0.0
 11
664.8938869557
 21
585.8578623576
 31
0.0
  0
LINE
  5
258
330
1F
100
AcDbEntity
  8
0
  6
Continuous
 62
     7
370
    25
100
AcDbLine
 10
661.1670922138
 20
587.2364667705
 30
0.0
 11
661.0452584672
 21
585.2404862615
 31
0.0
  0
LINE
  5
259
330
1F
100
AcDbEntity
  8
0
  6
Continuous
 62
     7
370
    25
100
AcDbLine
 10
661.0452584672
 20
585.2404862615
 30
0.0
 11
659.6023512274
 21
585.4487733268
 31
0.0
  0
ARC
  5
25A
330
1F
100
AcDbEntity
  8
0
  6
Continuous
 62
     7
370
    25
100
AcDbCircle
 10
684.9229063139
 20
633.2092418305
 30
0.0
 40
33.57753037464038
100
AcDbArc
 50
234.8280705831
 51
235.6099480104
  0
LINE
  5
25B
330
1F
100
AcDbEntity
  8
0
  6
Continuous
 62
     7
370
    25
100
AcDbLine
 10
665.5811774253
 20
605.7620549135
 30
0.0
 11
666.7330657765
 21
607.3966603339
 31
0.0
  0
ARC
  5
25C
330
1F
100
AcDbEntity
  8
0
  6
Continuous
 62
     7
370
    25
100
AcDbCircle
 10
661.5893071854
 20
594.1535392327
 30
0.0
 40
6.929946387144304
100
AcDbArc
 50
266.5070253286
 51
291.7198462835
  0
ARC
  5
25D
330
1F
100
AcDbEntity
  8
0
  6
Continuous
 62
     7
370
    25
100
AcDbCircle
 10
661.5893071854
 20
594.1535392327
 30
0.0
 40
8.929641777457107
100
AcDbArc
 50
266.5070253286
 51
291.7198462835
  0
ARC
  5
25E
330
1F
100
AcDbEntity
  8
0
  6
Continuous
 62
     7
370
    25
100
AcDbCircle
 10
661.5893071854
 20
600.0973281843
 30
0.0
 40
6.929946387144206
100
AcDbArc
 50
54.8280705831
 51
102.8580809319
  0
LINE
  5
25F
330
1F
100
AcDbEntity
  8
0
  6
Continuous
 62
     7
370
    25
100
AcDbLine
 10
660.0471384274
 20
606.8535010988
 30
0.0
 11
659.6021324225
 21
608.8030526651
 31
0.0
  0
ARC
  5
260
330
1F
100
AcDbEntity
  8
0
  6
Continuous
 62
     7
370
    25
100
AcDbCircle
 10
661.5893071854
 20
600.0973281843
 30
0.0
 40
8.929641777456965
100
AcDbArc
 50
54.8280705831
 51
102.8580809319
  0
ARC
  5
261
330
1F
100
AcDbEntity
  8
0
  6
Continuous
 62
     7
370
    25
100
AcDbCircle
 10
670.308271387
 20
561.8999328095
 30
0.0
 40
46.10980537323346
100
AcDbArc
 50
102.8580809319
 51
103.1066633214
  0
ARC
  5
262
330
1F
100
AcDbEntity
  8
0
  6
Continuous
 62
     7
370
    25
100
AcDbCircle
 10
661.5893071854
 20
594.1535392327
 30
0.0
 40
8.999918986501354
100
AcDbArc
 50
257.1419190681
 51
305.1719294169
  0
ARC
  5
263
330
1F
100
AcDbEntity
  8
0
  6
Continuous
 62
     7
370
    25
100
AcDbCircle
 10
661.5893071854
 20
600.0973281843
 30
0.0
 40
8.999918986501177
100
AcDbArc
 50
54.8280705831
 51
102.8580809319
  0
SPLINE
  5
264
330
1F
100
AcDbEntity
  8
0
  6
Continuous
 62
     7
370
    25
100
AcDbSpline
210
0.0
220
0.0
230
1.0
 70
    24
 71
     3
 72
    10
 73
     6
 74
     0
 42
0.00000001
 43
0.00000001
 40
0.0
 40
0.0
 40
0.0
 40
0.0
 40
0.4453366976324039
 40
0.9400545668047974
 40
1.0
 40
1.0
 40
1.0
 40
1.0
 10
653.3610551947531
 20
587.3800124196407
 30
0.0
 10
652.7737582216273
 20
587.3800124196407
 30
0.0
 10
651.5340418349188
 20
587.3800124196407
 30
0.0
 10
650.2594047618974
 20
587.3800124196407
 30
0.0
 10
649.5743768647388
 20
587.3800124196407
 30
0.0
 10
649.5003422317089
 20
587.3800124196407
 30
0.0
  0
ARC
  5
265
330
1F
100
AcDbEntity
  8
0
  6
Continuous
 62
     7
370
    25
100
AcDbCircle
 10
653.4802919801
 20
596.8800124196
 30
0.0
 40
10.30000000000002
100
AcDbArc
 50
232.7308609266
 51
247.2691390734
  0
SPLINE
  5
266
330
1F
100
AcDbEntity
  8
0
  6
Continuous
 62
     7
370
    25
100
AcDbSpline
210
0.0
220
0.0
230
1.0
 70
    24
 71
     3
 72
    11
 73
     7
 74
     0
 42
0.00000001
 43
0.00000001
 40
0.0
 40
0.0
 40
0.0
 40
0.0
 40
0.243164119738092
 40
0.4936284730588937
 40
0.7421706076863289
 40
1.0
 40
1.0
 40
1.0
 40
1.0
 10
647.2430255183965
 20
588.6832748317179
 30
0.0
 10
646.9292665166998
 20
589.2267213639886
 30
0.0
 10
646.2923288916797
 20
590.3299296917754
 30
0.0
 10
645.2819399226732
 20
592.0799747215021
 30
0.0
 10
644.2502327948372
 20
593.8669438854449
 30
0.0
 10
643.596127051939
 20
594.9998882656672
 30
0.0
 10
643.26307576997
 20
595.5767500075635
 30
0.0
  0
ARC
  5
267
330
1F
100
AcDbEntity
  8
0
  6
Continuous
 62
     7
370
    25
100
AcDbCircle
 10
653.4802919801
 20
596.8800124196
 30
0.0
 40
10.30000000000007
100
AcDbArc
 50
172.7308609266
 51
187.2691390734
  0
SPLINE
  5
268
330
1F
100
AcDbEntity
  8
0
  6
Continuous
 62
     7
370
    25
100
AcDbSpline
210
0.0
220
0.0
230
1.0
 70
    24
 71
     3
 72
    11
 73
     7
 74
     0
 42
0.00000001
 43
0.00000001
 40
0.0
 40
0.0
 40
0.0
 40
0.0
 40
0.2431641197380916
 40
0.4936284730588936
 40
0.7421706076863288
 40
0.9999999999999999
 40
0.9999999999999999
 40
0.9999999999999999
 40
0.9999999999999999
 10
643.26307576997
 20
598.1832748317179
 30
0.0
 10
643.5768347716668
 20
598.7267213639888
 30
0.0
 10
644.2137723966866
 20
599.8299296917755
 30
0.0
 10
645.2241613656932
 20
601.579974721502
 30
0.0
 10
646.2558684935292
 20
603.366943885445
 30
0.0
 10
646.9099742364275
 20
604.4998882656672
 30
0.0
 10
647.2430255183965
 20
605.0767500075634
 30
0.0
  0
ARC
  5
269
330
1F
100
AcDbEntity
  8
0
  6
Continuous
 62
     7
370
    25
100
AcDbCircle
 10
653.4802919801
 20
596.8800124196
 30
0.0
 40
10.30000000000001
100
AcDbArc
 50
112.7308609266
 51
127.2691390734
  0
SPLINE
  5
26A
330
1F
100
AcDbEntity
  8
0
  6
Continuous
 62
     7
370
    25
100
AcDbSpline
210
0.0
220
0.0
230
1.0
 70
    24
 71
     3
 72
    10
 73
     6
 74
     0
 42
0.00000001
 43
0.00000001
 40
0.0
 40
0.0
 40
0.0
 40
0.0
 40
0.0964101743436714
 40
0.8920643797695731
 40
1.0
 40
1.0
 40
1.0
 40
1.0
 10
649.5003422317089
 20
606.3800124196407
 30
0.0
 10
649.5743978725942
 20
606.3800124196407
 30
0.0
 10
650.2596201513056
 20
606.3800124196407
 30
0.0
 10
651.0463268990273
 20
606.3800124196407
 30
0.0
 10
651.7844200461257
 20
606.3800124196407
 30
0.0
 10
651.872586755575
 20
606.3800124196407
 30
0.0
  0
SPLINE
  5
26B
330
1F
100
AcDbEntity
  8
0
  6
Continuous
 62
     7
370
    25
100
AcDbSpline
210
0.0
220
0.0
230
1.0
 70
    24
 71
     3
 72
    10
 73
     6
 74
     0
 42
0.00000001
 43
0.00000001
 40
0.0
 40
0.0
 40
0.0
 40
0.0
 40
0.0681302181676404
 40
0.525519491554559
 40
1.0
 40
1.0
 40
1.0
 40
1.0
 10
552.6997933548461
 20
606.3511395443296
 30
0.0
 10
552.7988980622404
 20
606.338853990669
 30
0.0
 10
553.5633379369568
 20
606.2440899037948
 30
0.0
 10
555.041775277793
 20
606.0608148428793
 30
0.0
 10
556.3384870193438
 20
605.9000674666744
 30
0.0
 10
556.9987342539182
 20
605.818219661026
 30
0.0
  0
ARC
  5
26C
330
1F
100
AcDbEntity
  8
0
  6
Continuous
 62
     7
370
    25
100
AcDbCircle
 10
551.8802919801
 20
596.8800124196
 30
0.0
 40
10.29999999999993
100
AcDbArc
 50
45.6642188199
 51
60.2024969667
  0
SPLINE
  5
26D
330
1F
100
AcDbEntity
  8
0
  6
Continuous
 62
     7
370
    25
100
AcDbSpline
210
0.0
220
0.0
230
1.0
 70
    24
 71
     3
 72
    11
 73
     7
 74
     0
 42
0.00000001
 43
0.00000001
 40
0.0
 40
0.0
 40
0.0
 40
0.0
 40
0.2431641197380915
 40
0.4936284730588936
 40
0.7421706076863288
 40
1.0
 40
1.0
 40
1.0
 40
1.0
 10
559.0785715987614
 20
604.247153692351
 30
0.0
 10
559.3230903913334
 20
603.6692355280215
 30
0.0
 10
559.8194688798274
 20
602.4960490343963
 30
0.0
 10
560.6068856213186
 20
600.6349960125884
 30
0.0
 10
561.4109160390028
 20
598.7346767031173
 30
0.0
 10
561.920673992091
 20
597.5298679544634
 30
0.0
 10
562.1802276523565
 20
596.9164150034333
 30
0.0
  0
ARC
  5
26E
330
1F
100
AcDbEntity
  8
0
  6
Continuous
 62
     7
370
    25
100
AcDbCircle
 10
551.8802919801
 20
596.8800124196
 30
0.0
 40
10.29999999999995
100
AcDbArc
 50
345.6642188199
 51
0.2024969667
  0
SPLINE
  5
26F
330
1F
100
AcDbEntity
  8
0
  6
Continuous
 62
     7
370
    25
100
AcDbSpline
210
0.0
220
0.0
230
1.0
 70
    24
 71
     3
 72
    13
 73
     9
 74
     0
 42
0.00000001
 43
0.00000001
 40
0.0
 40
0.0
 40
0.0
 40
0.0
 40
0.0290865078712628
 40
0.2691317361521215
 40
0.5086847447945269
 40
0.7393528760311809
 40
0.9704551097945746
 40
1.0
 40
1.0
 40
1.0
 40
1.0
 10
561.8595632848844
 20
594.329690042722
 30
0.0
 10
561.8149400185399
 20
594.2706160524232
 30
0.0
 10
561.4020497122424
 20
593.724016039767
 30
0.0
 10
560.5963166841215
 20
592.6573557751616
 30
0.0
 10
559.4320502388098
 20
591.1160552310797
 30
0.0
 10
558.2843369002294
 20
589.5966683241329
 30
0.0
 10
557.507001172344
 20
588.5676014939854
 30
0.0
 10
557.1071134754964
 20
588.0382148340806
 30
0.0
 10
557.0617853785737
 20
587.9782077620479
 30
0.0
  0
ARC
  5
270
330
1F
100
AcDbEntity
  8
0
  6
Continuous
 62
     7
370
    25
100
AcDbCircle
 10
551.8802919801
 20
596.8800124196
 30
0.0
 40
10.3000000000001
100
AcDbArc
 50
285.6642188199
 51
300.2024969667
  0
SPLINE
  5
271
330
1F
100
AcDbEntity
  8
0
  6
Continuous
 62
     7
370
    25
100
AcDbSpline
210
0.0
220
0.0
230
1.0
 70
    24
 71
     3
 72
     9
 73
     5
 74
     0
 42
0.00000001
 43
0.00000001
 40
0.0
 40
0.0
 40
0.0
 40
0.0
 40
0.885493371694982
 40
1.0
 40
1.0
 40
1.0
 40
1.0
 10
554.6612836662584
 20
586.9625487700115
 30
0.0
 10
554.0430890781508
 20
587.0391835029582
 30
0.0
 10
553.3449533180556
 20
587.125728174433
 30
0.0
 10
552.6078315883226
 20
587.2171057568219
 30
0.0
 10
552.5234262644005
 20
587.2275690956839
 30
0.0
  0
LINE
  5
272
330
1F
100
AcDbEntity
  8
0
  6
Continuous
 62
     7
370
    25
100
AcDbLine
 10
645.0365442932
 20
592.0050124196
 30
0.0
 11
644.3643873881
 21
593.4212867195
 31
0.0
  0
LWPOLYLINE
  5
273
330
1F
100
AcDbEntity
  8
0
  6
Continuous
 62
     7
370
    25
100
AcDbPolyline
 90
        3
 70
   128
 43
0.0
 10
646.2222653023
 20
590.3697475445
 10
645.9278936023
 20
590.7136700076
 10
645.0365442932
 20
592.0050124196
  0
ARC
  5
274
330
1F
100
AcDbEntity
  8
0
  6
Continuous
 62
     7
370
    25
100
AcDbCircle
 10
653.4802919801
 20
596.8800124196
 30
0.0
 40
14.87500000000001
100
AcDbArc
 50
55.1611835908
 51
308.4167037132
  0
ARC
  5
275
330
1F
100
AcDbEntity
  8
0
  6
Continuous
 62
     7
370
    25
100
AcDbCircle
 10
653.4802919801
 20
596.8800124196
 30
0.0
 40
10.57500000000003
100
AcDbArc
 50
84.5490172093
 51
281.0490866707
  0
ARC
  5
276
330
1F
100
AcDbEntity
  8
0
  6
Continuous
 62
     7
370
    25
100
AcDbCircle
 10
653.4802919801
 20
596.8800124196
 30
0.0
 40
16.19999999999998
100
AcDbArc
 50
210.0
 51
318.1420914366
  0
ARC
  5
277
330
1F
100
AcDbEntity
  8
0
  6
Continuous
 62
     7
370
    25
100
AcDbCircle
 10
653.4802919801
 20
596.8800124196
 30
0.0
 40
16.19999999999998
100
AcDbArc
 50
45.9729863763
 51
210.0
  0
SPLINE
  5
278
330
1F
100
AcDbEntity
  8
0
  6
Continuous
 62
     7
370
    25
100
AcDbSpline
210
0.0
220
0.0
230
1.0
 70
     8
 71
     3
 72
     9
 73
     5
 74
     0
 42
0.00000001
 43
0.00000001
 40
0.0
 40
0.0
 40
0.0
 40
0.0
 40
0.5850553834534129
 40
1.0
 40
1.0
 40
1.0
 40
1.0
 10
642.3538813322206
 20
583.6515209677044
 30
0.0
 10
642.6136562520295
 20
583.2649744421404
 30
0.0
 10
643.0576739077178
 20
582.6042737008153
 30
0.0
 10
643.7295250997507
 20
582.1261148686891
 30
0.0
 10
644.008306135005
 20
581.9277054354442
 30
0.0
  0
SPLINE
  5
279
330
1F
100
AcDbEntity
  8
0
  6
Continuous
 62
     7
370
    25
100
AcDbSpline
210
0.0
220
0.0
230
1.0
 70
    24
 71
     3
 72
    11
 73
     7
 74
     0
 42
0.00000001
 43
0.00000001
 40
0.0
 40
0.0
 40
0.0
 40
0.0
 40
0.2379053903768482
 40
0.4814905141303173
 40
0.7366519444348056
 40
0.9999999999999999
 40
0.9999999999999999
 40
0.9999999999999999
 40
0.9999999999999999
 10
636.4608770050551
 20
593.8585038715785
 30
0.0
 10
636.9176091158303
 20
593.0674206502676
 30
0.0
 10
637.8419773215638
 20
591.4663679530358
 30
0.0
 10
639.3183034140835
 20
588.9092961522521
 30
0.0
 10
640.850436798547
 20
586.2555632863888
 30
0.0
 10
641.8474857631935
 20
584.5286238219873
 30
0.0
 10
642.3538813322206
 20
583.6515209677044
 30
0.0
  0
SPLINE
  5
27A
330
1F
100
AcDbEntity
  8
0
  6
Continuous
 62
     7
370
    25
100
AcDbSpline
210
0.0
220
0.0
230
1.0
 70
     8
 71
     3
 72
     9
 73
     5
 74
     0
 42
0.00000001
 43
0.00000001
 40
0.0
 40
0.0
 40
0.0
 40
0.0
 40
0.5841917497409947
 40
1.0
 40
1.0
 40
1.0
 40
1.0
 10
635.7952213640726
 20
596.1531855455694
 30
0.0
 10
635.8519135124808
 20
595.6728274200032
 30
0.0
 10
635.9489572458667
 20
594.850566363117
 30
0.0
 10
636.3105314626398
 20
594.1498623720524
 30
0.0
 10
636.4608770050551
 20
593.8585038715785
 30
0.0
  0
ARC
  5
27B
330
1F
100
AcDbEntity
  8
0
  6
Continuous
 62
     7
370
    25
100
AcDbCircle
 10
653.4802919801
 20
596.8800124196
 30
0.0
 40
17.70000000000003
100
AcDbArc
 50
177.6465635726
 51
182.3534364274
  0
SPLINE
  5
27C
330
1F
100
AcDbEntity
  8
0
  6
Continuous
 62
     7
370
    25
100
AcDbSpline
210
0.0
220
0.0
230
1.0
 70
     8
 71
     3
 72
     9
 73
     5
 74
     0
 42
0.00000001
 43
0.00000001
 40
0.0
 40
0.0
 40
0.0
 40
0.0
 40
0.585055383453618
 40
1.0
 40
1.0
 40
1.0
 40
1.0
 10
636.4608770050552
 20
599.901520967703
 30
0.0
 10
636.2560053540768
 20
599.4832760251006
 30
0.0
 10
635.9058305556345
 20
598.7683950848833
 30
0.0
 10
635.8276584559859
 20
597.9474754689577
 30
0.0
 10
635.7952213640726
 20
597.6068392937119
 30
0.0
  0
SPLINE
  5
27D
330
1F
100
AcDbEntity
  8
0
  6
Continuous
 62
     7
370
    25
100
AcDbSpline
210
0.0
220
0.0
230
1.0
 70
    24
 71
     3
 72
    11
 73
     7
 74
     0
 42
0.00000001
 43
0.00000001
 40
0.0
 40
0.0
 40
0.0
 40
0.0
 40
0.2328716322111471
 40
0.4710265024313225
 40
0.7311421212560291
 40
1.0
 40
1.0
 40
1.0
 40
1.0
 10
642.3538813322214
 20
610.1085038715783
 30
0.0
 10
641.9069531170611
 20
609.3344014955848
 30
0.0
 10
641.0029570741516
 20
607.768634419424
 30
0.0
 10
639.5391207038701
 20
605.2331954521292
 30
0.0
 10
637.995571248631
 20
602.55968937166
 30
0.0
 10
636.978047238138
 20
600.7972860875648
 30
0.0
 10
636.4608770050552
 20
599.901520967703
 30
0.0
  0
SPLINE
  5
27E
330
1F
100
AcDbEntity
  8
0
  6
Continuous
 62
     7
370
    25
100
AcDbSpline
210
0.0
220
0.0
230
1.0
 70
     8
 71
     3
 72
     9
 73
     5
 74
     0
 42
0.00000001
 43
0.00000001
 40
0.0
 40
0.0
 40
0.0
 40
0.0
 40
0.5841917497409241
 40
1.0
 40
1.0
 40
1.0
 40
1.0
 10
644.008306135005
 20
611.8323194038372
 30
0.0
 10
643.6206498695544
 20
611.5430435003374
 30
0.0
 10
642.9570727724413
 20
611.0478706335039
 30
0.0
 10
642.5310324240329
 20
610.3843861808926
 30
0.0
 10
642.3538813322214
 20
610.1085038715783
 30
0.0
  0
ARC
  5
27F
330
1F
100
AcDbEntity
  8
0
  6
Continuous
 62
     7
370
    25
100
AcDbCircle
 10
653.4802919801
 20
596.8800124196
 30
0.0
 40
17.70000000000011
100
AcDbArc
 50
117.6465635726
 51
122.3534364274
  0
SPLINE
  5
280
330
1F
100
AcDbEntity
  8
0
  6
Continuous
 62
     7
370
    25
100
AcDbSpline
210
0.0
220
0.0
230
1.0
 70
     8
 71
     3
 72
     9
 73
     5
 74
     0
 42
0.00000001
 43
0.00000001
 40
0.0
 40
0.0
 40
0.0
 40
0.0
 40
0.5850553834536188
 40
1.0
 40
1.0
 40
1.0
 40
1.0
 10
647.5872876529692
 20
613.1300124196407
 30
0.0
 10
647.1226410821819
 20
613.098314002602
 30
0.0
 10
646.3284486280513
 20
613.0441338037094
 30
0.0
 10
645.5784253363703
 20
612.7013730199095
 30
0.0
 10
645.267207209203
 20
612.5591462779084
 30
0.0
  0
SPLINE
  5
281
330
1F
100
AcDbEntity
  8
0
  6
Continuous
 62
     7
370
    25
100
AcDbSpline
210
0.0
220
0.0
230
1.0
 70
    24
 71
     3
 72
    11
 73
     7
 74
     0
 42
0.00000001
 43
0.00000001
 40
0.0
 40
0.0
 40
0.0
 40
0.0
 40
0.2328716322111483
 40
0.4710265024313251
 40
0.731142121256031
 40
1.0
 40
1.0
 40
1.0
 40
1.0
 10
659.3732963073016
 20
613.1300124196407
 30
0.0
 10
658.4794398769812
 20
613.1300124196407
 30
0.0
 10
656.6714477911619
 20
613.1300124196407
 30
0.0
 10
653.7437750505989
 20
613.1300124196406
 30
0.0
 10
650.6566761401209
 20
613.1300124196407
 30
0.0
 10
648.6216281191348
 20
613.1300124196406
 30
0.0
 10
647.5872876529692
 20
613.1300124196407
 30
0.0
  0
SPLINE
  5
282
330
1F
100
AcDbEntity
  8
0
  6
Continuous
 62
     7
370
    25
100
AcDbSpline
210
0.0
220
0.0
230
1.0
 70
     8
 71
     3
 72
     9
 73
     5
 74
     0
 42
0.00000001
 43
0.00000001
 40
0.0
 40
0.0
 40
0.0
 40
0.0
 40
0.584191749740921
 40
1.0
 40
1.0
 40
1.0
 40
1.0
 10
661.6933767510678
 20
612.5591462779084
 30
0.0
 10
661.2490283372092
 20
612.7502284999748
 30
0.0
 10
660.4884075067099
 20
613.0773166900277
 30
0.0
 10
659.7007929415283
 20
613.114536228481
 30
0.0
 10
659.3732963073016
 20
613.1300124196407
 30
0.0
  0
ARC
  5
283
330
1F
100
AcDbEntity
  8
0
  6
Continuous
 62
     7
370
    25
100
AcDbCircle
 10
653.4802919801
 20
596.8800124196
 30
0.0
 40
17.70000000000005
100
AcDbArc
 50
57.6465635726
 51
62.3534364274
  0
SPLINE
  5
284
330
1F
100
AcDbEntity
  8
0
  6
Continuous
 62
     7
370
    25
100
AcDbSpline
210
0.0
220
0.0
230
1.0
 70
     8
 71
     3
 72
     9
 73
     5
 74
     0
 42
0.00000001
 43
0.00000001
 40
0.0
 40
0.0
 40
0.0
 40
0.0
 40
0.5850553834536193
 40
1.0
 40
1.0
 40
1.0
 40
1.0
 10
664.6067026280494
 20
610.1085038715783
 30
0.0
 10
664.3469277082405
 20
610.495050397142
 30
0.0
 10
663.9029100525522
 20
611.1557511384667
 30
0.0
 10
663.2310588605199
 20
611.6339099705925
 30
0.0
 10
662.9522778252658
 20
611.8323194038372
 30
0.0
  0
LINE
  5
285
330
1F
100
AcDbEntity
  8
0
  6
Continuous
 62
     7
370
    25
100
AcDbLine
 10
665.8968181079
 20
607.8739583128
 30
0.0
 11
664.606702628
 21
610.1085038716
 31
0.0
  0
SPLINE
  5
286
330
1F
100
AcDbEntity
  8
0
  6
Continuous
 62
     7
370
    25
100
AcDbSpline
210
0.0
220
0.0
230
1.0
 70
    24
 71
     3
 72
     9
 73
     5
 74
     0
 42
0.00000001
 43
0.00000001
 40
0.0
 40
0.0
 40
0.0
 40
0.0
 40
0.7900438317877638
 40
1.0
 40
1.0
 40
1.0
 40
1.0
 10
664.6067026280494
 20
583.6515209677032
 30
0.0
 10
665.0515814648035
 20
584.4220737161733
 30
0.0
 10
665.6146879898521
 20
585.397402827631
 30
0.0
 10
666.2029392135984
 20
586.4162838347743
 30
0.0
 10
666.3264461864824
 20
586.6302041868984
 30
0.0
  0
SPLINE
  5
287
330
1F
100
AcDbEntity
  8
0
  6
Continuous
 62
     7
370
    25
100
AcDbSpline
210
0.0
220
0.0
230
1.0
 70
     8
 71
     3
 72
     9
 73
     5
 74
     0
 42
0.00000001
 43
0.00000001
 40
0.0
 40
0.0
 40
0.0
 40
0.0
 40
0.5841917497409247
 40
1.0
 40
1.0
 40
1.0
 40
1.0
 10
662.9522778252658
 20
581.9277054354442
 30
0.0
 10
663.3399340907164
 20
582.2169813389439
 30
0.0
 10
664.0035111878295
 20
582.7121542057774
 30
0.0
 10
664.4295515362379
 20
583.3756386583887
 30
0.0
 10
664.6067026280494
 20
583.6515209677032
 30
0.0
  0
ARC
  5
288
330
1F
100
AcDbEntity
  8
0
  6
Continuous
 62
     7
370
    25
100
AcDbCircle
 10
653.4802919801
 20
596.8800124196
 30
0.0
 40
17.70000000000005
100
AcDbArc
 50
297.6465635726
 51
302.3534364274
  0
SPLINE
  5
289
330
1F
100
AcDbEntity
  8
0
  6
Continuous
 62
     7
370
    25
100
AcDbSpline
210
0.0
220
0.0
230
1.0
 70
     8
 71
     3
 72
     9
 73
     5
 74
     0
 42
0.00000001
 43
0.00000001
 40
0.0
 40
0.0
 40
0.0
 40
0.0
 40
0.5850553834536198
 40
1.0
 40
1.0
 40
1.0
 40
1.0
 10
659.3732963073016
 20
580.6300124196406
 30
0.0
 10
659.8379428780889
 20
580.6617108366793
 30
0.0
 10
660.6321353322195
 20
580.7158910355719
 30
0.0
 10
661.3821586239005
 20
581.0586518193719
 30
0.0
 10
661.6933767510678
 20
581.200878561373
 30
0.0
  0
SPLINE
  5
28A
330
1F
100
AcDbEntity
  8
0
  6
Continuous
 62
     7
370
    25
100
AcDbSpline
210
0.0
220
0.0
230
1.0
 70
    24
 71
     3
 72
    11
 73
     7
 74
     0
 42
0.00000001
 43
0.00000001
 40
0.0
 40
0.0
 40
0.0
 40
0.0
 40
0.2328716322111492
 40
0.4710265024313262
 40
0.7311421212560313
 40
1.0
 40
1.0
 40
1.0
 40
1.0
 10
647.5872876529692
 20
580.6300124196406
 30
0.0
 10
648.4811440832896
 20
580.6300124196406
 30
0.0
 10
650.289136169109
 20
580.6300124196406
 30
0.0
 10
653.216808909672
 20
580.6300124196406
 30
0.0
 10
656.3039078201498
 20
580.6300124196406
 30
0.0
 10
658.338955841136
 20
580.6300124196406
 30
0.0
 10
659.3732963073016
 20
580.6300124196406
 30
0.0
  0
SPLINE
  5
28B
330
1F
100
AcDbEntity
  8
0
  6
Continuous
 62
     7
370
    25
100
AcDbSpline
210
0.0
220
0.0
230
1.0
 70
     8
 71
     3
 72
     9
 73
     5
 74
     0
 42
0.00000001
 43
0.00000001
 40
0.0
 40
0.0
 40
0.0
 40
0.0
 40
0.5841917497409255
 40
1.0
 40
1.0
 40
1.0
 40
1.0
 10
645.267207209203
 20
581.200878561373
 30
0.0
 10
645.7115556230617
 20
581.0097963393064
 30
0.0
 10
646.4721764535609
 20
580.6827081492536
 30
0.0
 10
647.2597910187426
 20
580.6454886108004
 30
0.0
 10
647.5872876529692
 20
580.6300124196406
 30
0.0
  0
ARC
  5
28C
330
1F
100
AcDbEntity
  8
0
  6
Continuous
 62
     7
370
    25
100
AcDbCircle
 10
653.4802919801
 20
596.8800124196
 30
0.0
 40
17.70000000000011
100
AcDbArc
 50
237.6465635726
 51
242.3534364274
  0
LWPOLYLINE
  5
28D
330
1F
100
AcDbEntity
  8
0
  6
Continuous
 62
     7
370
    25
100
AcDbPolyline
 90
        3
 70
   128
 43
0.0
 10
552.3600429727
 20
606.6182021377
 10
553.0797732028
 20
606.5559487979
 10
554.6150062386
 20
606.2386361392
  0
ARC
  5
28E
330
1F
100
AcDbEntity
  8
0
  6
Continuous
 62
     7
370
    25
100
AcDbCircle
 10
551.8802919801
 20
596.8800124196
 30
0.0
 40
14.87500000000004
100
AcDbArc
 50
233.3837470415
 51
262.9333578933
  0
ARC
  5
28F
330
1F
100
AcDbEntity
  8
0
  6
Continuous
 62
     7
370
    25
100
AcDbCircle
 10
551.8802919801
 20
596.8800124196
 30
0.0
 40
14.87500000000004
100
AcDbArc
 50
262.9333578933
 51
126.6156955593
  0
LINE
  5
290
330
1F
100
AcDbEntity
  8
0
  6
Continuous
 62
     7
370
    25
100
AcDbLine
 10
550.5793161925
 20
586.3853429632
 30
0.0
 11
550.3447586416
 21
586.4170891968
 31
0.0
  0
ARC
  5
291
330
1F
100
AcDbEntity
  8
0
  6
Continuous
 62
     7
370
    25
100
AcDbCircle
 10
551.8802919801
 20
596.8800124196
 30
0.0
 40
10.57500000000002
100
AcDbArc
 50
262.9333578933
 51
98.3490982393
  0
ARC
  5
292
330
1F
100
AcDbEntity
  8
0
  6
Continuous
 62
     7
370
    25
100
AcDbCircle
 10
551.8802919801
 20
596.8800124196
 30
0.0
 40
16.19999999999996
100
AcDbArc
 50
82.9333578933
 51
136.0742282651
  0
ARC
  5
293
330
1F
100
AcDbEntity
  8
0
  6
Continuous
 62
     7
370
    25
100
AcDbCircle
 10
551.8802919801
 20
596.8800124196
 30
0.0
 40
16.20000000000007
100
AcDbArc
 50
223.9250761661
 51
82.9333578933
  0
SPLINE
  5
294
330
1F
100
AcDbEntity
  8
0
  6
Continuous
 62
     7
370
    25
100
AcDbSpline
210
0.0
220
0.0
230
1.0
 70
     8
 71
     3
 72
     9
 73
     5
 74
     0
 42
0.00000001
 43
0.00000001
 40
0.0
 40
0.0
 40
0.0
 40
0.0
 40
0.5850553834534096
 40
1.0
 40
1.0
 40
1.0
 40
1.0
 10
548.031187869458
 20
613.7315523357773
 30
0.0
 10
547.5661712219348
 20
613.7572572558036
 30
0.0
 10
546.7713462178841
 20
613.8011931305141
 30
0.0
 10
545.9848525997755
 20
613.5533067015781
 30
0.0
 10
545.6585013069932
 20
613.4504475623761
 30
0.0
  0
SPLINE
  5
295
330
1F
100
AcDbEntity
  8
0
  6
Continuous
 62
     7
370
    25
100
AcDbSpline
210
0.0
220
0.0
230
1.0
 70
    24
 71
     3
 72
    11
 73
     7
 74
     0
 42
0.00000001
 43
0.00000001
 40
0.0
 40
0.0
 40
0.0
 40
0.0
 40
0.2379053903768481
 40
0.4814905141303175
 40
0.7366519444348052
 40
1.0
 40
1.0
 40
1.0
 40
1.0
 10
559.7276668328641
 20
612.2815937644494
 30
0.0
 10
558.8211415311657
 20
612.3939715266321
 30
0.0
 10
556.9864486185942
 20
612.6214099482854
 30
0.0
 10
554.0562255735026
 20
612.9846561896051
 30
0.0
 10
551.0152357989153
 20
613.3616336716985
 30
0.0
 10
549.0362855736943
 20
613.6069550073131
 30
0.0
 10
548.031187869458
 20
613.7315523357773
 30
0.0
  0
SPLINE
  5
296
330
1F
100
AcDbEntity
  8
0
  6
Continuous
 62
     7
370
    25
100
AcDbSpline
210
0.0
220
0.0
230
1.0
 70
     8
 71
     3
 72
     9
 73
     5
 74
     0
 42
0.00000001
 43
0.00000001
 40
0.0
 40
0.0
 40
0.0
 40
0.0
 40
0.5841917497409934
 40
1.0
 40
1.0
 40
1.0
 40
1.0
 10
561.9598932481201
 20
611.4296391598165
 30
0.0
 10
561.5424278691514
 20
611.6739352626329
 30
0.0
 10
560.827824523326
 20
612.0921132032228
 30
0.0
 10
560.0507717760627
 20
612.225945281961
 30
0.0
 10
559.7276668328641
 20
612.2815937644494
 30
0.0
  0
ARC
  5
297
330
1F
100
AcDbEntity
  8
0
  6
Continuous
 62
     7
370
    25
100
AcDbCircle
 10
551.8802919801
 20
596.8800124196
 30
0.0
 40
17.69999999999996
100
AcDbArc
 50
50.5799214659
 51
55.2867943207
  0
SPLINE
  5
298
330
1F
100
AcDbEntity
  8
0
  6
Continuous
 62
     7
370
    25
100
AcDbSpline
210
0.0
220
0.0
230
1.0
 70
     8
 71
     3
 72
     9
 73
     5
 74
     0
 42
0.00000001
 43
0.00000001
 40
0.0
 40
0.0
 40
0.0
 40
0.0
 40
0.5850553834536202
 40
1.0
 40
1.0
 40
1.0
 40
1.0
 10
564.549601585058
 20
608.6392043193681
 30
0.0
 10
564.3393543750411
 20
609.0547730093189
 30
0.0
 10
563.9799914566527
 20
609.7650795917446
 30
0.0
 10
563.3720687028868
 20
610.3222598304724
 30
0.0
 10
563.1198144289356
 20
610.5534587709786
 30
0.0
  0
SPLINE
  5
299
330
1F
100
AcDbEntity
  8
0
  6
Continuous
 62
     7
370
    25
100
AcDbSpline
210
0.0
220
0.0
230
1.0
 70
    24
 71
     3
 72
    11
 73
     7
 74
     0
 42
0.00000001
 43
0.00000001
 40
0.0
 40
0.0
 40
0.0
 40
0.0
 40
0.232871632211147
 40
0.4710265024313224
 40
0.7311421212560292
 40
1.0
 40
1.0
 40
1.0
 40
1.0
 10
569.1421401095566
 20
597.7847771165631
 30
0.0
 10
568.7938398314884
 20
598.607981972187
 30
0.0
 10
568.089337268353
 20
600.2730680122826
 30
0.0
 10
566.9485397140243
 20
602.9693336920465
 30
0.0
 10
565.7456201259671
 20
605.8124242899245
 30
0.0
 10
564.9526429010481
 20
607.6866194687891
 30
0.0
 10
564.549601585058
 20
608.6392043193681
 30
0.0
  0
SPLINE
  5
29A
330
1F
100
AcDbEntity
  8
0
  6
Continuous
 62
     7
370
    25
100
AcDbSpline
210
0.0
220
0.0
230
1.0
 70
     8
 71
     3
 72
     9
 73
     5
 74
     0
 42
0.00000001
 43
0.00000001
 40
0.0
 40
0.0
 40
0.0
 40
0.0
 40
0.5841917497409242
 40
1.0
 40
1.0
 40
1.0
 40
1.0
 10
569.5204389867015
 20
595.425635031636
 30
0.0
 10
569.5232729283016
 20
595.9093187064315
 30
0.0
 10
569.5281239752419
 20
596.7372723278409
 30
0.0
 10
569.2554995816387
 20
597.4771357864205
 30
0.0
 10
569.1421401095566
 20
597.7847771165631
 30
0.0
  0
ARC
  5
29B
330
1F
100
AcDbEntity
  8
0
  6
Continuous
 62
     7
370
    25
100
AcDbCircle
 10
551.8802919801
 20
596.8800124196
 30
0.0
 40
17.70000000000002
100
AcDbArc
 50
350.5799214659
 51
355.2867943207
  0
SPLINE
  5
29C
330
1F
100
AcDbEntity
  8
0
  6
Continuous
 62
     7
370
    25
100
AcDbSpline
210
0.0
220
0.0
230
1.0
 70
     8
 71
     3
 72
     9
 73
     5
 74
     0
 42
0.00000001
 43
0.00000001
 40
0.0
 40
0.0
 40
0.0
 40
0.0
 40
0.585055383453619
 40
0.9999999999999999
 40
0.9999999999999999
 40
0.9999999999999999
 40
0.9999999999999999
 10
568.3987056957369
 20
591.7876644032312
 30
0.0
 10
568.6534751332432
 20
592.1775281731559
 30
0.0
 10
569.0889372189049
 20
592.8438988808714
 30
0.0
 10
569.267508083247
 20
593.6489655485352
 30
0.0
 10
569.3416051020778
 20
593.9830236282431
 30
0.0
  0
SPLINE
  5
29D
330
1F
100
AcDbEntity
  8
0
  6
Continuous
 62
     7
370
    25
100
AcDbSpline
210
0.0
220
0.0
230
1.0
 70
    24
 71
     3
 72
    11
 73
     7
 74
     0
 42
0.00000001
 43
0.00000001
 40
0.0
 40
0.0
 40
0.0
 40
0.0
 40
0.2328716322111486
 40
0.4710265024313255
 40
0.7311421212560308
 40
1.0
 40
1.0
 40
1.0
 40
1.0
 10
561.2947652568281
 20
582.3831957717542
 30
0.0
 10
561.8335314352831
 20
583.0964350885184
 30
0.0
 10
562.9232869639249
 20
584.5390952252727
 30
0.0
 10
564.6879227607882
 20
586.8751877277784
 30
0.0
 10
566.5486516497828
 20
589.3384919486849
 30
0.0
 10
567.7752636738703
 20
590.9623279595196
 30
0.0
 10
568.3987056957369
 20
591.7876644032312
 30
0.0
  0
SPLINE
  5
29E
330
1F
100
AcDbEntity
  8
0
  6
Continuous
 62
     7
370
    25
100
AcDbSpline
210
0.0
220
0.0
230
1.0
 70
     8
 71
     3
 72
     9
 73
     5
 74
     0
 42
0.00000001
 43
0.00000001
 40
0.0
 40
0.0
 40
0.0
 40
0.0
 40
0.584191749740921
 40
1.0
 40
1.0
 40
1.0
 40
1.0
 10
559.4408377187168
 20
580.8760082914602
 30
0.0
 10
559.8611370392855
 20
581.1153958634393
 30
0.0
 10
560.5805914320515
 20
581.5251715442588
 30
0.0
 10
561.0850197857117
 20
582.1312029241003
 30
0.0
 10
561.2947652568281
 20
582.3831957717542
 30
0.0
  0
ARC
  5
29F
330
1F
100
AcDbEntity
  8
0
  6
Continuous
 62
     7
370
    25
100
AcDbCircle
 10
551.8802919801
 20
596.8800124196
 30
0.0
 40
17.70000000000009
100
AcDbArc
 50
290.5799214659
 51
295.2867943207
  0
SPLINE
  5
2A0
330
1F
100
AcDbEntity
  8
0
  6
Continuous
 62
     7
370
    25
100
AcDbSpline
210
0.0
220
0.0
230
1.0
 70
     8
 71
     3
 72
     9
 73
     5
 74
     0
 42
0.00000001
 43
0.00000001
 40
0.0
 40
0.0
 40
0.0
 40
0.0
 40
0.585055383453617
 40
1.0
 40
1.0
 40
1.0
 40
1.0
 10
555.7293960908142
 20
580.0284725035037
 30
0.0
 10
556.1944127383375
 20
580.0027675834777
 30
0.0
 10
556.9892377423877
 20
579.9588317087675
 30
0.0
 10
557.7757313604957
 20
580.2067181377034
 30
0.0
 10
558.1020826532776
 20
580.3095772769052
 30
0.0
  0
SPLINE
  5
2A1
330
1F
100
AcDbEntity
  8
0
  6
Continuous
 62
     7
370
    25
100
AcDbSpline
210
0.0
220
0.0
230
1.0
 70
    24
 71
     3
 72
    11
 73
     7
 74
     0
 42
0.00000001
 43
0.00000001
 40
0.0
 40
0.0
 40
0.0
 40
0.0
 40
0.255627964438097
 40
0.5185037642963863
 40
0.7560467972580102
 40
0.9999999999999999
 40
0.9999999999999999
 40
0.9999999999999999
 40
0.9999999999999999
 10
544.0329171274069
 20
581.4784310748317
 30
0.0
 10
545.0080392952867
 20
581.3575496754096
 30
0.0
 10
546.9859313299315
 20
581.112359518802
 30
0.0
 10
550.003257281196
 20
580.7383155317857
 30
0.0
 10
552.9640257768237
 20
580.3712827117905
 30
0.0
 10
554.7994609235735
 20
580.1437522787882
 30
0.0
 10
555.7293960908142
 20
580.0284725035037
 30
0.0
  0
SPLINE
  5
2A2
330
1F
100
AcDbEntity
  8
0
  6
Continuous
 62
     7
370
    25
100
AcDbSpline
210
0.0
220
0.0
230
1.0
 70
     8
 71
     3
 72
     9
 73
     5
 74
     0
 42
0.00000001
 43
0.00000001
 40
0.0
 40
0.0
 40
0.0
 40
0.0
 40
0.5841917497409234
 40
1.0
 40
1.0
 40
1.0
 40
1.0
 10
541.8006907121506
 20
582.3303856794648
 30
0.0
 10
542.2181560911193
 20
582.0860895766484
 30
0.0
 10
542.9327594369449
 20
581.6679116360584
 30
0.0
 10
543.7098121842083
 20
581.5340795573204
 30
0.0
 10
544.0329171274069
 20
581.4784310748317
 30
0.0
  0
ARC
  5
2A3
330
1F
100
AcDbEntity
  8
0
  6
Continuous
 62
     7
370
    25
100
AcDbCircle
 10
551.8802919801
 20
596.8800124196
 30
0.0
 40
17.70000000000005
100
AcDbArc
 50
230.5799214659
 51
235.2867943207
  0
SPLINE
  5
2A4
330
1F
100
AcDbEntity
  8
0
  6
Continuous
 62
     7
370
    25
100
AcDbSpline
210
0.0
220
0.0
230
1.0
 70
     8
 71
     3
 72
     9
 73
     5
 74
     0
 42
0.00000001
 43
0.00000001
 40
0.0
 40
0.0
 40
0.0
 40
0.0
 40
0.5850553834536163
 40
0.9999999999999999
 40
0.9999999999999999
 40
0.9999999999999999
 40
0.9999999999999999
 10
539.2109823752128
 20
585.1208205199132
 30
0.0
 10
539.4212295852296
 20
584.7052518299624
 30
0.0
 10
539.7805925036181
 20
583.9949452475369
 30
0.0
 10
540.3885152573839
 20
583.4377650088089
 30
0.0
 10
540.6407695313352
 20
583.2065660683028
 30
0.0
  0
LINE
  5
2A5
330
1F
100
AcDbEntity
  8
0
  6
Continuous
 62
     7
370
    25
100
AcDbLine
 10
538.6104749569
 20
586.5401148867
 30
0.0
 11
539.2109823752
 21
585.1208205199
 31
0.0
  0
SPLINE
  5
2A6
330
1F
100
AcDbEntity
  8
0
  6
Continuous
 62
     7
370
    25
100
AcDbSpline
210
0.0
220
0.0
230
1.0
 70
    24
 71
     3
 72
     9
 73
     5
 74
     0
 42
0.00000001
 43
0.00000001
 40
0.0
 40
0.0
 40
0.0
 40
0.0
 40
0.6025068913221977
 40
1.0
 40
1.0
 40
1.0
 40
1.0
 10
542.4658187034427
 20
611.3768290675271
 30
0.0
 10
541.928026010529
 20
610.6648784882342
 30
0.0
 10
541.0354342399462
 20
609.4832312912525
 30
0.0
 10
540.1030960367167
 20
608.2489662433399
 30
0.0
 10
539.732498025976
 20
607.7583543925126
 30
0.0
  0
SPLINE
  5
2A7
330
1F
100
AcDbEntity
  8
0
  6
Continuous
 62
     7
370
    25
100
AcDbSpline
210
0.0
220
0.0
230
1.0
 70
     8
 71
     3
 72
     9
 73
     5
 74
     0
 42
0.00000001
 43
0.00000001
 40
0.0
 40
0.0
 40
0.0
 40
0.0
 40
0.5841917497409256
 40
1.0
 40
1.0
 40
1.0
 40
1.0
 10
544.319746241554
 20
612.8840165478213
 30
0.0
 10
543.8994469209853
 20
612.644628975842
 30
0.0
 10
543.1799925282193
 20
612.2348532950226
 30
0.0
 10
542.6755641745591
 20
611.6288219151811
 30
0.0
 10
542.4658187034427
 20
611.3768290675271
 30
0.0
  0
ARC
  5
2A8
330
1F
100
AcDbEntity
  8
0
  6
Continuous
 62
     7
370
    25
100
AcDbCircle
 10
551.8802919801
 20
596.8800124196
 30
0.0
 40
17.70000000000008
100
AcDbArc
 50
110.5799214659
 51
115.2867943207
  0
SPLINE
  5
2A9
330
1F
100
AcDbEntity
  8
0
  6
Continuous
 62
     7
370
    25
100
AcDbSpline
210
0.0
220
0.0
230
1.0
 70
    24
 71
     3
 72
     9
 73
     5
 74
     0
 42
0.00000001
 43
0.00000001
 40
0.0
 40
0.0
 40
0.0
 40
0.0
 40
0.3310065965010482
 40
0.9999999999999999
 40
0.9999999999999999
 40
0.9999999999999999
 40
0.9999999999999999
 10
640.6937064488664
 20
584.2128069829892
 30
0.0
 10
641.0004002934197
 20
583.6815976618542
 30
0.0
 10
641.9269493344214
 20
582.0767676471351
 30
0.0
 10
642.8276974395741
 20
580.5166261641892
 30
0.0
 10
643.4302919801354
 20
579.4729018035734
 30
0.0
  0
SPLINE
  5
2AA
330
1F
100
AcDbEntity
  8
0
  6
Continuous
 62
     7
370
    25
100
AcDbSpline
210
0.0
220
0.0
230
1.0
 70
    24
 71
     3
 72
     9
 73
     5
 74
     0
 42
0.00000001
 43
0.00000001
 40
0.0
 40
0.0
 40
0.0
 40
0.0
 40
0.9674531052255487
 40
1.0
 40
1.0
 40
1.0
 40
1.0
 10
643.4302919801354
 20
614.2871230357079
 30
0.0
 10
642.5608237218728
 20
612.7811598368288
 30
0.0
 10
641.6621049585899
 20
611.2245332771073
 30
0.0
 10
640.7379455599305
 20
609.6238422443369
 30
0.0
 10
640.7078670412275
 20
609.5717447217269
 30
0.0
  0
SPLINE
  5
2AB
330
1F
100
AcDbEntity
  8
0
  6
Continuous
 62
     7
370
    25
100
AcDbSpline
210
0.0
220
0.0
230
1.0
 70
    24
 71
     3
 72
    10
 73
     6
 74
     0
 42
0.00000001
 43
0.00000001
 40
0.0
 40
0.0
 40
0.0
 40
0.0
 40
0.6585090324985514
 40
0.9952570063701635
 40
1.0
 40
1.0
 40
1.0
 40
1.0
 10
663.5302919801353
 20
614.2871230357079
 30
0.0
 10
661.7854727971251
 20
614.2871230357079
 30
0.0
 10
659.1483889743698
 20
614.2871230357079
 30
0.0
 10
656.4299403775095
 20
614.287123035708
 30
0.0
 10
655.4974902416893
 20
614.2871230357079
 30
0.0
 10
655.4845393719
 20
614.2871230357079
 30
0.0
  0
SPLINE
  5
2AC
330
1F
100
AcDbEntity
  8
0
  6
Continuous
 62
     7
370
    25
100
AcDbSpline
210
0.0
220
0.0
230
1.0
 70
    24
 71
     3
 72
     9
 73
     5
 74
     0
 42
0.00000001
 43
0.00000001
 40
0.0
 40
0.0
 40
0.0
 40
0.0
 40
0.4106006811659685
 40
1.0
 40
1.0
 40
1.0
 40
1.0
 10
651.4075048839176
 20
614.2871230357079
 30
0.0
 10
650.2970140407834
 20
614.2871230357079
 30
0.0
 10
647.5924621633226
 20
614.2871230357079
 30
0.0
 10
644.9737557540103
 20
614.2871230357079
 30
0.0
 10
643.4302919801354
 20
614.2871230357079
 30
0.0
  0
SPLINE
  5
2AD
330
1F
100
AcDbEntity
  8
0
  6
Continuous
 62
     7
370
    25
100
AcDbSpline
210
0.0
220
0.0
230
1.0
 70
    24
 71
     3
 72
    10
 73
     6
 74
     0
 42
0.00000001
 43
0.00000001
 40
0.0
 40
0.0
 40
0.0
 40
0.0
 40
0.0670074303718254
 40
0.6874345249829292
 40
1.0
 40
1.0
 40
1.0
 40
1.0
 10
667.6652490414718
 20
607.1251673183575
 30
0.0
 10
667.5712293922966
 20
607.2880141276388
 30
0.0
 10
666.6066743793502
 20
608.958672416757
 30
0.0
 10
665.2163758234155
 20
611.3667401533257
 30
0.0
 10
663.9534048167143
 20
613.5542701054187
 30
0.0
 10
663.5302919801353
 20
614.2871230357079
 30
0.0
  0
SPLINE
  5
2AE
330
1F
100
AcDbEntity
  8
0
  6
Continuous
 62
     7
370
    25
100
AcDbSpline
210
0.0
220
0.0
230
1.0
 70
    24
 71
     3
 72
    10
 73
     6
 74
     0
 42
0.00000001
 43
0.00000001
 40
0.0
 40
0.0
 40
0.0
 40
0.0
 40
0.6233020131968058
 40
0.9420458415961261
 40
1.0
 40
1.0
 40
1.0
 40
1.0
 10
663.5302919801354
 20
579.4729018035734
 30
0.0
 10
664.4026354640386
 20
580.9838450393453
 30
0.0
 10
665.7210774617462
 20
583.2674535662076
 30
0.0
 10
667.1574519514157
 20
585.7553271610111
 30
0.0
 10
667.7009040389249
 20
586.6966137880563
 30
0.0
 10
667.7845129496911
 20
586.8414286694688
 30
0.0
  0
SPLINE
  5
2AF
330
1F
100
AcDbEntity
  8
0
  6
Continuous
 62
     7
370
    25
100
AcDbSpline
210
0.0
220
0.0
230
1.0
 70
    24
 71
     3
 72
     9
 73
     5
 74
     0
 42
0.00000001
 43
0.00000001
 40
0.0
 40
0.0
 40
0.0
 40
0.0
 40
0.6947887350344629
 40
1.0
 40
1.0
 40
1.0
 40
1.0
 10
643.4302919801354
 20
579.4729018035734
 30
0.0
 10
645.1737024866558
 20
579.4729018035734
 30
0.0
 10
647.682969575498
 20
579.4729018035734
 30
0.0
 10
650.2630858892999
 20
579.4729018035734
 30
0.0
 10
651.0505664531936
 20
579.4729018035734
 30
0.0
  0
SPLINE
  5
2B0
330
1F
100
AcDbEntity
  8
0
  6
Continuous
 62
     7
370
    25
100
AcDbSpline
210
0.0
220
0.0
230
1.0
 70
    24
 71
     3
 72
     9
 73
     5
 74
     0
 42
0.00000001
 43
0.00000001
 40
0.0
 40
0.0
 40
0.0
 40
0.0
 40
0.3919424392661673
 40
1.0
 40
1.0
 40
1.0
 40
1.0
 10
655.80096495037
 20
579.4729018035734
 30
0.0
 10
656.8282637982817
 20
579.4729018035734
 30
0.0
 10
659.4493089952116
 20
579.4729018035734
 30
0.0
 10
661.9871428915687
 20
579.4729018035734
 30
0.0
 10
663.5302919801354
 20
579.4729018035734
 30
0.0
  0
SPLINE
  5
2B1
330
1F
100
AcDbEntity
  8
0
  6
Continuous
 62
     7
370
    25
100
AcDbSpline
210
0.0
220
0.0
230
1.0
 70
    24
 71
     3
 72
     9
 73
     5
 74
     0
 42
0.00000001
 43
0.00000001
 40
0.0
 40
0.0
 40
0.0
 40
0.0
 40
0.3298718794431169
 40
1.0
 40
1.0
 40
1.0
 40
1.0
 10
564.6621852412135
 20
609.5553451066655
 30
0.0
 10
564.3570635208388
 20
610.0838314288475
 30
0.0
 10
563.432093132669
 20
611.6859271366541
 30
0.0
 10
562.5328799920431
 20
613.2434099830517
 30
0.0
 10
561.9302919801354
 20
614.2871230357079
 30
0.0
  0
SPLINE
  5
2B2
330
1F
100
AcDbEntity
  8
0
  6
Continuous
 62
     7
370
    25
100
AcDbSpline
210
0.0
220
0.0
230
1.0
 70
    24
 71
     3
 72
     9
 73
     5
 74
     0
 42
0.00000001
 43
0.00000001
 40
0.0
 40
0.0
 40
0.0
 40
0.0
 40
0.9683613209766495
 40
1.0
 40
1.0
 40
1.0
 40
1.0
 10
561.9302919801354
 20
579.4729018035734
 30
0.0
 10
562.7997527872077
 20
580.9788520966125
 30
0.0
 10
563.6976209571128
 20
582.5340053853871
 30
0.0
 10
564.6209059018942
 20
584.1331818196118
 30
0.0
 10
564.6501174179092
 20
584.183777649516
 30
0.0
  0
SPLINE
  5
2B3
330
1F
100
AcDbEntity
  8
0
  6
Continuous
 62
     7
370
    25
100
AcDbSpline
210
0.0
220
0.0
230
1.0
 70
    24
 71
     3
 72
     9
 73
     5
 74
     0
 42
0.00000001
 43
0.00000001
 40
0.0
 40
0.0
 40
0.0
 40
0.0
 40
0.6851092969351019
 40
1.0
 40
1.0
 40
1.0
 40
1.0
 10
541.8302919801355
 20
579.4729018035734
 30
0.0
 10
543.5738613108878
 20
579.4729018035734
 30
0.0
 10
546.118811931982
 20
579.4729018035734
 30
0.0
 10
548.7356127580116
 20
579.4729018035734
 30
0.0
 10
549.5596190099009
 20
579.4729018035734
 30
0.0
  0
SPLINE
  5
2B4
330
1F
100
AcDbEntity
  8
0
  6
Continuous
 62
     7
370
    25
100
AcDbSpline
210
0.0
220
0.0
230
1.0
 70
    24
 71
     3
 72
     9
 73
     5
 74
     0
 42
0.00000001
 43
0.00000001
 40
0.0
 40
0.0
 40
0.0
 40
0.0
 40
0.3833546651424836
 40
0.9999999999999999
 40
0.9999999999999999
 40
0.9999999999999999
 40
0.9999999999999999
 10
554.3100175070771
 20
579.4729018035734
 30
0.0
 10
555.3007240584808
 20
579.4729018035734
 30
0.0
 10
557.8850321196214
 20
579.4729018035734
 30
0.0
 10
560.3872877308501
 20
579.4729018035734
 30
0.0
 10
561.9302919801354
 20
579.4729018035734
 30
0.0
  0
SPLINE
  5
2B5
330
1F
100
AcDbEntity
  8
0
  6
Continuous
 62
     7
370
    25
100
AcDbSpline
210
0.0
220
0.0
230
1.0
 70
    24
 71
     3
 72
    10
 73
     6
 74
     0
 42
0.00000001
 43
0.00000001
 40
0.0
 40
0.0
 40
0.0
 40
0.0
 40
0.0927209767792861
 40
0.696048920326318
 40
1.0
 40
1.0
 40
1.0
 40
1.0
 10
537.5760710105797
 20
586.8414286694688
 30
0.0
 10
537.7098712937329
 20
586.6096797809802
 30
0.0
 10
538.7142992653003
 20
584.8699595016823
 30
0.0
 10
540.1442453748272
 20
582.3932201878962
 30
0.0
 10
541.4071884882069
 20
580.2057385484535
 30
0.0
 10
541.8302919801355
 20
579.4729018035734
 30
0.0
  0
SPLINE
  5
2B6
330
1F
100
AcDbEntity
  8
0
  6
Continuous
 62
     7
370
    25
100
AcDbSpline
210
0.0
220
0.0
230
1.0
 70
    24
 71
     3
 72
    10
 73
     6
 74
     0
 42
0.00000001
 43
0.00000001
 40
0.0
 40
0.0
 40
0.0
 40
0.0
 40
0.6409686490400909
 40
0.968746831611868
 40
1.0
 40
1.0
 40
1.0
 40
1.0
 10
541.8302919801354
 20
614.2871230357079
 30
0.0
 10
540.957917156122
 20
612.7761255172727
 30
0.0
 10
539.6394277916163
 20
610.4924349487095
 30
0.0
 10
538.2428160350626
 20
608.0734324279107
 30
0.0
 10
537.7391760620358
 20
607.2011024059058
 30
0.0
 10
537.6953349187988
 20
607.1251673183573
 30
0.0
  0
SPLINE
  5
2B7
330
1F
100
AcDbEntity
  8
0
  6
Continuous
 62
     7
370
    25
100
AcDbSpline
210
0.0
220
0.0
230
1.0
 70
    24
 71
     3
 72
     9
 73
     5
 74
     0
 42
0.00000001
 43
0.00000001
 40
0.0
 40
0.0
 40
0.0
 40
0.0
 40
0.6640795797893606
 40
1.0
 40
1.0
 40
1.0
 40
1.0
 10
561.9302919801354
 20
614.2871230357079
 30
0.0
 10
560.186377585068
 20
614.2871230357079
 30
0.0
 10
557.560315215223
 20
614.2871230357079
 30
0.0
 10
554.8601273265605
 20
614.2871230357079
 30
0.0
 10
553.9530790763532
 20
614.2871230357079
 30
0.0
  0
SPLINE
  5
2B8
330
1F
100
AcDbEntity
  8
0
  6
Continuous
 62
     7
370
    25
100
AcDbSpline
210
0.0
220
0.0
230
1.0
 70
    24
 71
     3
 72
     9
 73
     5
 74
     0
 42
0.00000001
 43
0.00000001
 40
0.0
 40
0.0
 40
0.0
 40
0.0
 40
0.4155592569953468
 40
1.0
 40
1.0
 40
1.0
 40
1.0
 10
549.8760445883707
 20
614.2871230357079
 30
0.0
 10
548.7425480273783
 20
614.2871230357079
 30
0.0
 10
546.0149068019417
 20
614.2871230357079
 30
0.0
 10
543.3738393841279
 20
614.2871230357079
 30
0.0
 10
541.8302919801354
 20
614.2871230357079
 30
0.0
  0
ARC
  5
2B9
330
1F
100
AcDbEntity
  8
0
  6
Continuous
 62
     7
370
    25
100
AcDbCircle
 10
551.8802919801
 20
596.8800124196
 30
0.0
 40
25.80000000000007
100
AcDbArc
 50
191.8719799156
 51
270.0
  0
ARC
  5
2BA
330
1F
100
AcDbEntity
  8
0
  6
Continuous
 62
     7
370
    25
100
AcDbCircle
 10
551.8802919801
 20
596.8800124196
 30
0.0
 40
25.79999999999999
100
AcDbArc
 50
27.7177476896
 51
168.1370530221
  0
ARC
  5
2BB
330
1F
100
AcDbEntity
  8
0
  6
Continuous
 62
     7
370
    25
100
AcDbCircle
 10
551.8802919801
 20
596.8800124196
 30
0.0
 40
25.80000000000007
100
AcDbArc
 50
270.0
 51
332.2822523104
  0
ARC
  5
2BC
330
1F
100
AcDbEntity
  8
0
  6
Continuous
 62
     7
370
    25
100
AcDbCircle
 10
653.4802919801
 20
596.8800124196
 30
0.0
 40
25.79999999999995
100
AcDbArc
 50
12.3954281365
 51
90.0
  0
ARC
  5
2BD
330
1F
100
AcDbEntity
  8
0
  6
Continuous
 62
     7
370
    25
100
AcDbCircle
 10
653.4802919801
 20
596.8800124196
 30
0.0
 40
25.80000000000003
100
AcDbArc
 50
207.7177476896
 51
348.6877580596
  0
ARC
  5
2BE
330
1F
100
AcDbEntity
  8
0
  6
Continuous
 62
     7
370
    25
100
AcDbCircle
 10
653.4802919801
 20
596.8800124196
 30
0.0
 40
25.79999999999998
100
AcDbArc
 50
90.0
 51
152.2822523104
  0
ARC
  5
2BF
330
1F
100
AcDbEntity
  8
0
  6
Continuous
 62
     7
370
    25
100
AcDbCircle
 10
653.4802919801
 20
596.8800124196
 30
0.0
 40
17.60000000000018
100
AcDbArc
 50
152.0468131166
 51
172.5766498
  0
ARC
  5
2C0
330
1F
100
AcDbEntity
  8
0
  6
Continuous
 62
     7
370
    25
100
AcDbCircle
 10
653.4802919801
 20
596.8800124196
 30
0.0
 40
17.60000000000012
100
AcDbArc
 50
187.7414111396
 51
207.9531868834
  0
ARC
  5
2C1
330
1F
100
AcDbEntity
  8
0
  6
Continuous
 62
     7
370
    25
100
AcDbCircle
 10
653.4802919801
 20
596.8800124196
 30
0.0
 40
17.60000000000011
100
AcDbArc
 50
207.9531868834
 51
233.3326100063
  0
ARC
  5
2C2
330
1F
100
AcDbEntity
  8
0
  6
Continuous
 62
     7
370
    25
100
AcDbCircle
 10
653.4802919801
 20
596.8800124196
 30
0.0
 40
17.60000000000011
100
AcDbArc
 50
247.10338249
 51
293.092867187
  0
ARC
  5
2C3
330
1F
100
AcDbEntity
  8
0
  6
Continuous
 62
     7
370
    25
100
AcDbCircle
 10
653.4802919801
 20
596.8800124196
 30
0.0
 40
17.60000000000001
100
AcDbArc
 50
307.530308387
 51
329.914091969
  0
ARC
  5
2C4
330
1F
100
AcDbEntity
  8
0
  6
Continuous
 62
     7
370
    25
100
AcDbCircle
 10
653.4802919801
 20
596.8800124196
 30
0.0
 40
17.6
100
AcDbArc
 50
33.0957362986
 51
53.8886196624
  0
ARC
  5
2C5
330
1F
100
AcDbEntity
  8
0
  6
Continuous
 62
     7
370
    25
100
AcDbCircle
 10
653.4802919801
 20
596.8800124196
 30
0.0
 40
17.59999999999999
100
AcDbArc
 50
66.2201257225
 51
112.7631712972
  0
ARC
  5
2C6
330
1F
100
AcDbEntity
  8
0
  6
Continuous
 62
     7
370
    25
100
AcDbCircle
 10
653.4802919801
 20
596.8800124196
 30
0.0
 40
17.60000000000012
100
AcDbArc
 50
127.7871783964
 51
152.0468131166
  0
ARC
  5
2C7
330
1F
100
AcDbEntity
  8
0
  6
Continuous
 62
     7
370
    25
100
AcDbCircle
 10
551.8802919801
 20
596.8800124196
 30
0.0
 40
17.60000000000015
100
AcDbArc
 50
359.4508273007
 51
27.9531868834
  0
ARC
  5
2C8
330
1F
100
AcDbEntity
  8
0
  6
Continuous
 62
     7
370
    25
100
AcDbCircle
 10
551.8802919801
 20
596.8800124196
 30
0.0
 40
17.60000000000019
100
AcDbArc
 50
332.0468131166
 51
346.9653697453
  0
ARC
  5
2C9
330
1F
100
AcDbEntity
  8
0
  6
Continuous
 62
     7
370
    25
100
AcDbCircle
 10
551.8802919801
 20
596.8800124196
 30
0.0
 40
17.60000000000019
100
AcDbArc
 50
300.5161919565
 51
332.0468131166
  0
ARC
  5
2CA
330
1F
100
AcDbEntity
  8
0
  6
Continuous
 62
     7
370
    25
100
AcDbCircle
 10
551.8802919801
 20
596.8800124196
 30
0.0
 40
17.60000000000004
100
AcDbArc
 50
240.5794365959
 51
285.5763171687
  0
ARC
  5
2CB
330
1F
100
AcDbEntity
  8
0
  6
Continuous
 62
     7
370
    25
100
AcDbCircle
 10
551.8802919801
 20
596.8800124196
 30
0.0
 40
17.6
100
AcDbArc
 50
211.5427743269
 51
225.9092084509
  0
ARC
  5
2CC
330
1F
100
AcDbEntity
  8
0
  6
Continuous
 62
     7
370
    25
100
AcDbCircle
 10
551.8802919801
 20
596.8800124196
 30
0.0
 40
17.60000000000003
100
AcDbArc
 50
120.7108358652
 51
148.4572256731
  0
ARC
  5
2CD
330
1F
100
AcDbEntity
  8
0
  6
Continuous
 62
     7
370
    25
100
AcDbCircle
 10
551.8802919801
 20
596.8800124196
 30
0.0
 40
17.60000000000009
100
AcDbArc
 50
60.0678519836
 51
105.5213777003
  0
ARC
  5
2CE
330
1F
100
AcDbEntity
  8
0
  6
Continuous
 62
     7
370
    25
100
AcDbCircle
 10
551.8802919801
 20
596.8800124196
 30
0.0
 40
17.60000000000015
100
AcDbArc
 50
27.9531868834
 51
46.3184403697
  0
SPLINE
  5
2CF
330
1F
100
AcDbEntity
  8
0
  6
Continuous
 62
     7
370
    25
100
AcDbSpline
210
0.0
220
0.0
230
1.0
 70
     8
 71
     3
 72
     9
 73
     5
 74
     0
 42
0.00000001
 43
0.00000001
 40
0.0
 40
0.0
 40
0.0
 40
0.0
 40
0.2885219252512725
 40
1.0
 40
1.0
 40
1.0
 40
1.0
 10
642.2622372160043
 20
610.4386846418242
 30
0.0
 10
642.3071597577016
 20
610.4766218977263
 30
0.0
 10
642.4628586414457
 20
610.6081101923124
 30
0.0
 10
642.4676073140722
 20
610.6100530835519
 30
0.0
 10
642.4709858905301
 20
610.6114354080704
 30
0.0
  0
LWPOLYLINE
  5
2D0
330
1F
100
AcDbEntity
  8
0
  6
Continuous
 62
     7
370
    25
100
AcDbPolyline
 90
        9
 70
   128
 43
0.0
 10
630.86702154
 20
604.0800124196
 10
632.0454032884
 20
603.7416612844
 10
633.1934146532
 20
603.5357406587
 10
634.2814679853
 20
603.4675577263
 10
635.2815209315
 20
603.5388697631
 10
636.167799169
 20
603.7478388468
 10
636.9174606856
 20
604.0890792261
 10
637.5111844864
 20
604.5537961268
 10
637.9336685525
 20
605.1300124196
  0
LWPOLYLINE
  5
2D1
330
1F
100
AcDbEntity
  8
0
  6
Continuous
 62
     7
370
    25
100
AcDbPolyline
 90
        9
 70
   128
 43
0.0
 10
637.9336685525
 20
588.6300124196
 10
637.5111844864
 20
589.2062287125
 10
636.9174606856
 20
589.6709456132
 10
636.167799169
 20
590.0121859925
 10
635.2815209315
 20
590.2211550762
 10
634.2814679853
 20
590.292467113
 10
633.1934146532
 20
590.2242841806
 10
632.0454032884
 20
590.0183635549
 10
630.86702154
 20
589.6800124196
  0
SPLINE
  5
2D2
330
1F
100
AcDbEntity
  8
0
  6
Continuous
 62
     7
370
    25
100
AcDbSpline
210
0.0
220
0.0
230
1.0
 70
     8
 71
     3
 72
    30
 73
    26
 74
     0
 42
0.00000001
 43
0.00000001
 40
0.0
 40
0.0
 40
0.0
 40
0.0
 40
0.1249999999999998
 40
0.1249999999999998
 40
0.1874999999999996
 40
0.1874999999999996
 40
0.2499999999999994
 40
0.2499999999999994
 40
0.3749999999999993
 40
0.3749999999999993
 40
0.4999999999999992
 40
0.4999999999999992
 40
0.5624999999999991
 40
0.5624999999999991
 40
0.624999999999999
 40
0.624999999999999
 40
0.7499999999999991
 40
0.7499999999999991
 40
0.8124999999999994
 40
0.8124999999999994
 40
0.8749999999999997
 40
0.8749999999999997
 40
0.9374999999999999
 40
0.9374999999999999
 40
1.0
 40
1.0
 40
1.0
 40
1.0
 10
630.8670215399712
 20
589.6800124196407
 30
0.0
 10
630.4739089118901
 20
590.1244905282527
 30
0.0
 10
630.1487533528087
 20
590.619099059898
 30
0.0
 10
629.7561466321793
 20
591.4456642665224
 30
0.0
 10
629.6424657747257
 20
591.7328740711104
 30
0.0
 10
629.4481085175782
 20
592.3206278554668
 30
0.0
 10
629.3667499855566
 20
592.6225661661952
 30
0.0
 10
629.1617589441186
 20
593.5515160502842
 30
0.0
 10
629.0767070713066
 20
594.2062750771855
 30
0.0
 10
628.9724231521889
 20
595.5408999429859
 30
0.0
 10
628.952060441821
 20
596.211487452118
 30
0.0
 10
628.952102944477
 20
597.2161942563364
 30
0.0
 10
628.9575544673008
 20
597.5512269540624
 30
0.0
 10
628.9808597139411
 20
598.221561551564
 30
0.0
 10
628.9988714735628
 20
598.5585775712493
 30
0.0
 10
629.0770123151277
 20
599.5557019451562
 30
0.0
 10
629.1602965524845
 20
600.2003261313165
 30
0.0
 10
629.3657075038999
 20
601.133502275438
 30
0.0
 10
629.4483706339793
 20
601.440705971619
 30
0.0
 10
629.6448881812065
 20
602.0339529122164
 30
0.0
 10
629.7579735439066
 20
602.3182884803712
 30
0.0
 10
630.0167431236033
 20
602.86291930887
 30
0.0
 10
630.1624198666534
 20
603.1232159366497
 30
0.0
 10
630.4889148059605
 20
603.6203480226093
 30
0.0
 10
630.6703785993003
 20
603.8576754197645
 30
0.0
 10
630.8670215399707
 20
604.080012419641
 30
0.0
  0
SPLINE
  5
2D3
330
1F
100
AcDbEntity
  8
0
  6
Continuous
 62
     7
370
    25
100
AcDbSpline
210
0.0
220
0.0
230
1.0
 70
     8
 71
     3
 72
    26
 73
    22
 74
     0
 42
0.00000001
 43
0.00000001
 40
0.0
 40
0.0
 40
0.0
 40
0.0
 40
0.1249999999999996
 40
0.1249999999999996
 40
0.1874999999999994
 40
0.1874999999999994
 40
0.2499999999999992
 40
0.2499999999999992
 40
0.3749999999999991
 40
0.3749999999999991
 40
0.4374999999999992
 40
0.4374999999999992
 40
0.4999999999999992
 40
0.4999999999999992
 40
0.6249999999999993
 40
0.6249999999999993
 40
0.7499999999999994
 40
0.7499999999999994
 40
0.8749999999999998
 40
0.8749999999999998
 40
1.0
 40
1.0
 40
1.0
 40
1.0
 10
574.4935624202906
 20
604.0800124196508
 30
0.0
 10
574.8863375778919
 20
603.6359158766018
 30
0.0
 10
575.2102743354898
 20
603.1428951902792
 30
0.0
 10
575.6011470279846
 20
602.3219310935234
 30
0.0
 10
575.7158231749623
 20
602.0337008597891
 30
0.0
 10
575.912770935979
 20
601.4388896683064
 30
0.0
 10
575.9951119181899
 20
601.132541302619
 30
0.0
 10
576.2003140288839
 20
600.1999873494345
 30
0.0
 10
576.2835434803809
 20
599.5558103941927
 30
0.0
 10
576.3616580148936
 20
598.559397974576
 30
0.0
 10
576.3796713521516
 20
598.2226165409024
 30
0.0
 10
576.4029927682973
 20
597.5527479039349
 30
0.0
 10
576.4084588982028
 20
597.2179480103217
 30
0.0
 10
576.4085673058676
 20
596.2139390783949
 30
0.0
 10
576.3882269269524
 20
595.5432279626907
 30
0.0
 10
576.2843451663321
 20
594.2107938532481
 30
0.0
 10
576.2011876268514
 20
593.5654768351303
 30
0.0
 10
575.9280642243378
 20
592.3213237516197
 30
0.0
 10
575.7343466266708
 20
591.7187717767326
 30
0.0
 10
575.2111533642254
 20
590.6180684135426
 30
0.0
 10
574.8862654112451
 20
590.1240273664863
 30
0.0
 10
574.4935624202996
 20
589.6800124196407
 30
0.0
  0
LWPOLYLINE
  5
2D4
330
1F
100
AcDbEntity
  8
0
  6
Continuous
 62
     7
370
    25
100
AcDbPolyline
 90
        9
 70
   128
 43
0.0
 10
567.4269154077
 20
588.6300124196
 10
567.8493994739
 20
589.2062287125
 10
568.4431232747
 20
589.6709456132
 10
569.1927847913
 20
590.0121859925
 10
570.0790630287
 20
590.2211550762
 10
571.0791159749
 20
590.292467113
 10
572.167169307
 20
590.2242841806
 10
573.3151806718
 20
590.0183635549
 10
574.4935624203
 20
589.6800124196
  0
LWPOLYLINE
  5
2D5
330
1F
100
AcDbEntity
  8
0
  6
Continuous
 62
     7
370
    25
100
AcDbPolyline
 90
        9
 70
   128
 43
0.0
 10
574.4935624203
 20
604.0800124197
 10
573.3151806718
 20
603.7416612844
 10
572.167169307
 20
603.5357406587
 10
571.0791159749
 20
603.4675577263
 10
570.0790630287
 20
603.5388697631
 10
569.1927847913
 20
603.7478388468
 10
568.4431232747
 20
604.0890792261
 10
567.8493994739
 20
604.5537961268
 10
567.4269154077
 20
605.1300124197
  0
ARC
  5
2D6
330
1F
100
AcDbEntity
  8
0
  6
Continuous
 62
     8
370
    25
100
AcDbCircle
 10
602.7441238662
 20
511.6726220931
 30
0.0
 40
7.836369124243368
100
AcDbArc
 50
269.5332866466
 51
359.5896161799
  0
ARC
  5
2D7
330
1F
100
AcDbEntity
  8
0
  6
Continuous
 62
     8
370
    25
100
AcDbCircle
 10
602.6214918602
 20
511.6777314823
 30
0.0
 40
7.841438998329063
100
AcDbArc
 50
180.4474527828
 51
270.4296443906
  0
ARC
  5
2D8
330
1F
100
AcDbEntity
  8
0
  6
Continuous
 62
     8
370
    25
100
AcDbCircle
 10
602.6956984048
 20
511.6085695059
 30
0.0
 40
7.94571967231844
100
AcDbArc
 50
269.8889057634
 51
318.7466215351
  0
ARC
  5
2D9
330
1F
100
AcDbEntity
  8
0
  6
Continuous
 62
     8
370
    25
100
AcDbCircle
 10
602.6678678645
 20
511.6168466663
 30
0.0
 40
7.953991599650817
100
AcDbArc
 50
223.0750341787
 51
270.0894959054
  0
ARC
  5
2DA
330
1F
100
AcDbEntity
  8
0
  6
Continuous
 62
     8
370
    25
100
AcDbCircle
 10
602.8102914731
 20
511.0901731738
 30
0.0
 40
9.679246453468998
100
AcDbArc
 50
269.2304518464
 51
36.606628476
  0
ARC
  5
2DB
330
1F
100
AcDbEntity
  8
0
  6
Continuous
 62
     8
370
    25
100
AcDbCircle
 10
602.5502924871
 20
511.0901731738
 30
0.0
 40
9.679246453469
100
AcDbArc
 50
143.393371524
 51
270.7695481536
  0
ARC
  5
2DC
330
1F
100
AcDbEntity
  8
0
  6
Continuous
 62
     8
370
    25
100
AcDbCircle
 10
602.6802919801
 20
596.8800124196
 30
0.0
 40
11.05993649053882
100
AcDbArc
 50
182.3675813795
 51
224.4149728023
  0
ARC
  5
2DD
330
1F
100
AcDbEntity
  8
0
  6
Continuous
 62
     8
370
    25
100
AcDbCircle
 10
602.6802919801
 20
596.8800124196
 30
0.0
 40
11.05993649053882
100
AcDbArc
 50
315.5850271977
 51
182.3675813795
  0
ARC
  5
2DE
330
1F
100
AcDbEntity
  8
0
  6
Continuous
 62
     8
370
    25
100
AcDbCircle
 10
602.6802919801
 20
596.8800124196
 30
0.0
 40
11.30993649053889
100
AcDbArc
 50
314.3068486059
 51
182.3675813795
  0
ARC
  5
2DF
330
1F
100
AcDbEntity
  8
0
  6
Continuous
 62
     8
370
    25
100
AcDbCircle
 10
602.6802919801
 20
596.8800124196
 30
0.0
 40
11.30993649053889
100
AcDbArc
 50
182.3675813795
 51
225.6931513941
  0
SPLINE
  5
2E0
330
1F
100
AcDbEntity
  8
0
  6
Continuous
 62
     8
370
    25
100
AcDbSpline
210
0.0
220
0.0
230
1.0
 70
     8
 71
     3
 72
     9
 73
     5
 74
     0
 42
0.00000001
 43
0.00000001
 40
0.0
 40
0.0
 40
0.0
 40
0.0
 40
0.5050734883508603
 40
1.0
 40
1.0
 40
1.0
 40
1.0
 10
593.1067249033817
 20
586.033013152177
 30
0.0
 10
593.3816957133404
 20
585.8442144541315
 30
0.0
 10
593.9261131422902
 20
585.4704100426947
 30
0.0
 10
594.4974983115202
 20
585.1384730836968
 30
0.0
 10
594.7802919801354
 20
584.9741886824925
 30
0.0
  0
SPLINE
  5
2E1
330
1F
100
AcDbEntity
  8
0
  6
Continuous
 62
     8
370
    25
100
AcDbSpline
210
0.0
220
0.0
230
1.0
 70
     8
 71
     3
 72
     9
 73
     5
 74
     0
 42
0.00000001
 43
0.00000001
 40
0.0
 40
0.0
 40
0.0
 40
0.0
 40
0.1103590486141654
 40
1.0
 40
1.0
 40
1.0
 40
1.0
 10
610.5802919801354
 20
585.0109049038618
 30
0.0
 10
610.678218871697
 20
585.0721905522469
 30
0.0
 10
611.5655669667685
 20
585.627520170929
 30
0.0
 10
612.3863778885524
 20
586.2799266459872
 30
0.0
 10
613.116604897916
 20
586.8603341631481
 30
0.0
  0
ARC
  5
2E2
330
1F
100
AcDbEntity
  8
0
  6
Continuous
 62
     8
370
    25
100
AcDbCircle
 10
602.6802919801
 20
596.8800124196
 30
0.0
 40
9.375000000000101
100
AcDbArc
 50
119.4063269879
 51
212.5772063232
  0
ARC
  5
2E3
330
1F
100
AcDbEntity
  8
0
  6
Continuous
 62
     8
370
    25
100
AcDbCircle
 10
602.6802919801
 20
596.8800124196
 30
0.0
 40
9.375000000000101
100
AcDbArc
 50
327.4227936768
 51
119.4063269879
  0
ELLIPSE
  5
2E4
330
1F
100
AcDbEntity
  8
0
  6
Continuous
 62
     8
370
    25
100
AcDbEllipse
 10
496.4192065327
 20
593.5407766417
 30
0.0
 11
1.499999304622804
 21
-0.0828726334386829
 31
0.0
210
0.0
220
0.0
230
1.0
 40
0.0174284859
 41
3.125102257569404
 42
3.634177297898267
  0
ELLIPSE
  5
2E5
330
1F
100
AcDbEntity
  8
0
  6
Continuous
 62
     8
370
    25
100
AcDbEllipse
 10
708.9413774276
 20
600.4646694864
 30
0.0
 11
1.499999304622861
 21
-0.0828726334386829
 31
0.0
210
0.0
220
0.0
230
1.0
 40
0.0174284859
 41
6.266694911160076
 42
6.775769951489449
  0
ARC
  5
2E6
330
1F
100
AcDbEntity
  8
0
  6
Continuous
 62
     8
370
    25
100
AcDbCircle
 10
551.8802919801
 20
596.8800124196
 30
0.0
 40
24.80000000000007
100
AcDbArc
 50
270.0
 51
331.0614722598
  0
ARC
  5
2E7
330
1F
100
AcDbEntity
  8
0
  6
Continuous
 62
     8
370
    25
100
AcDbCircle
 10
551.8802919801
 20
596.8800124196
 30
0.0
 40
24.79999999999996
100
AcDbArc
 50
28.9385277402
 51
167.2347481715
  0
ARC
  5
2E8
330
1F
100
AcDbEntity
  8
0
  6
Continuous
 62
     8
370
    25
100
AcDbCircle
 10
551.8802919801
 20
596.8800124196
 30
0.0
 40
24.80000000000007
100
AcDbArc
 50
192.7953384551
 51
270.0
  0
ARC
  5
2E9
330
1F
100
AcDbEntity
  8
0
  6
Continuous
 62
     8
370
    25
100
AcDbCircle
 10
653.4802919801
 20
596.8800124196
 30
0.0
 40
24.79999999999996
100
AcDbArc
 50
90.0
 51
151.0614722598
  0
ARC
  5
2EA
330
1F
100
AcDbEntity
  8
0
  6
Continuous
 62
     8
370
    25
100
AcDbCircle
 10
653.4802919801
 20
596.8800124196
 30
0.0
 40
24.80000000000001
100
AcDbArc
 50
208.9385277402
 51
347.8388909482
  0
ARC
  5
2EB
330
1F
100
AcDbEntity
  8
0
  6
Continuous
 62
     8
370
    25
100
AcDbCircle
 10
653.4802919801
 20
596.8800124196
 30
0.0
 40
24.79999999999995
100
AcDbArc
 50
13.410653158
 51
90.0
  0
SPLINE
  5
2EC
330
1F
100
AcDbEntity
  8
0
  6
Continuous
 62
     8
370
    25
100
AcDbSpline
210
0.0
220
0.0
230
1.0
 70
     8
 71
     3
 72
    16
 73
    12
 74
     0
 42
0.00000001
 43
0.00000001
 40
0.0
 40
0.0
 40
0.0
 40
0.0
 40
0.0813136106776338
 40
0.1605245215906397
 40
0.2399383939261342
 40
0.2485515096895553
 40
0.3627608172497965
 40
0.4772794202588531
 40
0.6362603090226956
 40
0.7954727285312144
 40
1.0
 40
1.0
 40
1.0
 40
1.0
 10
580.8999600092701
 20
596.8800124196407
 30
0.0
 10
580.9343840974473
 20
597.410579140426
 30
0.0
 10
581.0023420966035
 20
598.4579925846971
 30
0.0
 10
581.5152297196263
 20
599.9228593033006
 30
0.0
 10
582.0146273018933
 20
600.8468197337057
 30
0.0
 10
582.703988166721
 20
601.8897566599085
 30
0.0
 10
583.6367467477561
 20
603.0033393379965
 30
0.0
 10
585.3841508282839
 20
604.5077758867284
 30
0.0
 10
587.5219670458625
 20
605.8432992734332
 30
0.0
 10
590.2462811320363
 20
607.1081258844678
 30
0.0
 10
592.2367882899082
 20
607.6153295709917
 30
0.0
 10
593.3560310009382
 20
607.9005252443175
 30
0.0
  0
SPLINE
  5
2ED
330
1F
100
AcDbEntity
  8
0
  6
Continuous
 62
     8
370
    25
100
AcDbSpline
210
0.0
220
0.0
230
1.0
 70
     8
 71
     3
 72
    25
 73
    21
 74
     0
 42
0.00000001
 43
0.00000001
 40
0.0
 40
0.0
 40
0.0
 40
0.0
 40
0.0526784881708172
 40
0.1453922882094721
 40
0.2379513132461878
 40
0.299319158423163
 40
0.3605205014289073
 40
0.4002741325525056
 40
0.4399361505571017
 40
0.4964011000727749
 40
0.5179173805888279
 40
0.5506779321059796
 40
0.5834850329649993
 40
0.5979684467091877
 40
0.6502010571274868
 40
0.7025854572164298
 40
0.779205452476972
 40
0.8563320165624841
 40
0.9333167194295373
 40
1.0
 40
1.0
 40
1.0
 40
1.0
 10
612.2483133276729
 20
607.8254620318131
 30
0.0
 10
612.8227297151554
 20
607.7007008098263
 30
0.0
 10
614.4081152465378
 20
607.3563606403505
 30
0.0
 10
616.9083887473955
 20
606.3190392632174
 30
0.0
 10
619.3811582437053
 20
604.9372478071233
 30
0.0
 10
621.3568775291158
 20
603.3647844902246
 30
0.0
 10
622.6733197837798
 20
601.916218949442
 30
0.0
 10
623.5973862758894
 20
600.444229340036
 30
0.0
 10
624.2629675274643
 20
598.8595633580896
 30
0.0
 10
624.5037825283794
 20
597.3307091170306
 30
0.0
 10
624.4197993317828
 20
595.9009838325088
 30
0.0
 10
624.1899227246763
 20
594.8011004069745
 30
0.0
 10
623.8274112263723
 20
593.8520589385768
 30
0.0
 10
623.2653339801059
 20
592.7456526047013
 30
0.0
 10
622.4287235192421
 20
591.5399965708369
 30
0.0
 10
620.9120721419723
 20
589.9944610415585
 30
0.0
 10
618.9746366010979
 20
588.5570145115746
 30
0.0
 10
616.6372863836707
 20
587.3321069556403
 30
0.0
 10
614.3157589736376
 20
586.3921548534607
 30
0.0
 10
612.7492937659614
 20
586.0360047633416
 30
0.0
 10
612.0222212725081
 20
585.870698229371
 30
0.0
  0
SPLINE
  5
2EE
330
1F
100
AcDbEntity
  8
0
  6
Continuous
 62
     8
370
    25
100
AcDbSpline
210
0.0
220
0.0
230
1.0
 70
     8
 71
     3
 72
    15
 73
    11
 74
     0
 42
0.00000001
 43
0.00000001
 40
0.0
 40
0.0
 40
0.0
 40
0.0
 40
0.1313486671713984
 40
0.3332624885592779
 40
0.534647510735579
 40
0.6493601819563887
 40
0.7637405099563478
 40
0.8421230138288693
 40
0.9203191674107002
 40
1.0
 40
1.0
 40
1.0
 40
1.0
 10
593.1176231510615
 20
585.9348117552662
 30
0.0
 10
592.4071563925289
 20
586.0989557380742
 30
0.0
 10
590.6045349797193
 20
586.5154276625382
 30
0.0
 10
587.8317381533174
 20
587.7239834303489
 30
0.0
 10
585.2985513128626
 20
589.2861124817919
 30
0.0
 10
583.4195161215296
 20
590.9826308097726
 30
0.0
 10
582.2598140664895
 20
592.4399470716637
 30
0.0
 10
581.4783773584705
 20
593.92579402915
 30
0.0
 10
580.9955902648601
 20
595.3531121386525
 30
0.0
 10
580.9320359831358
 20
596.3678647399524
 30
0.0
 10
580.8999600092701
 20
596.8800124196407
 30
0.0
  0
SPLINE
  5
2EF
330
1F
100
AcDbEntity
  8
0
  6
Continuous
 62
     8
370
    25
100
AcDbSpline
210
0.0
220
0.0
230
1.0
 70
     8
 71
     3
 72
    13
 73
     9
 74
     0
 42
0.00000001
 43
0.00000001
 40
0.0
 40
0.0
 40
0.0
 40
0.0
 40
0.2467809313285545
 40
0.441215551717806
 40
0.6395768536646913
 40
0.7566883702459402
 40
0.8774051767762461
 40
1.0
 40
1.0
 40
1.0
 40
1.0
 10
630.8670215399712
 20
604.0800124196408
 30
0.0
 10
631.5178527725624
 20
604.7406282114883
 30
0.0
 10
632.6814631853155
 20
605.9217322761516
 30
0.0
 10
634.4572208910902
 20
607.186519624025
 30
0.0
 10
635.7964235240395
 20
607.9996380671944
 30
0.0
 10
636.7487339275597
 20
608.509900027402
 30
0.0
 10
637.3736455235703
 20
608.8200881708441
 30
0.0
 10
637.4395284756364
 20
608.8510563404716
 30
0.0
 10
637.4727242126021
 20
608.8666599402044
 30
0.0
  0
SPLINE
  5
2F0
330
1F
100
AcDbEntity
  8
0
  6
Continuous
 62
     8
370
    25
100
AcDbSpline
210
0.0
220
0.0
230
1.0
 70
     8
 71
     3
 72
    14
 73
    10
 74
     0
 42
0.00000001
 43
0.00000001
 40
0.0
 40
0.0
 40
0.0
 40
0.0
 40
0.0341975603538072
 40
0.1230306523915693
 40
0.2395783193027326
 40
0.3607459810743406
 40
0.5547246231403434
 40
0.75334503194874
 40
1.0
 40
1.0
 40
1.0
 40
1.0
 10
567.9126546645147
 20
608.8547417105856
 30
0.0
 10
567.8958891439773
 20
608.8628395132984
 30
0.0
 10
567.8355727673687
 20
608.891972525723
 30
0.0
 10
568.0888382991872
 20
608.7703218645029
 30
0.0
 10
568.5894012569163
 20
608.5208445546951
 30
0.0
 10
569.550458974042
 20
608.0080991295284
 30
0.0
 10
570.8891279878892
 20
607.195348060283
 30
0.0
 10
572.6684809598064
 20
605.9326597138463
 30
0.0
 10
573.8429688849187
 20
604.740432449674
 30
0.0
 10
574.4935624202906
 20
604.0800124196508
 30
0.0
  0
SPLINE
  5
2F1
330
1F
100
AcDbEntity
  8
0
  6
Continuous
 62
     8
370
    25
100
AcDbSpline
210
0.0
220
0.0
230
1.0
 70
     8
 71
     3
 72
    16
 73
    12
 74
     0
 42
0.00000001
 43
0.00000001
 40
0.0
 40
0.0
 40
0.0
 40
0.0
 40
0.0031760880575475
 40
0.0659955514614672
 40
0.1534643531729223
 40
0.2411365090942968
 40
0.2844309902621187
 40
0.4899181455546584
 40
0.696217629509377
 40
0.8481451162484644
 40
1.0
 40
1.0
 40
1.0
 40
1.0
 10
637.4934199772089
 20
584.8833684509489
 30
0.0
 10
637.4957928377787
 20
584.8822118874871
 30
0.0
 10
637.5450982219514
 20
584.8581797945235
 30
0.0
 10
637.424750468651
 20
584.91641079029
 30
0.0
 10
637.2105909585723
 20
585.0198638895757
 30
0.0
 10
636.8337699928275
 20
585.209419119348
 30
0.0
 10
636.1566638663235
 20
585.5647535012666
 30
0.0
 10
635.0222013501594
 20
586.2072629654476
 30
0.0
 10
633.4640750963883
 20
587.2711650075397
 30
0.0
 10
632.0549224351566
 20
588.4248795693475
 30
0.0
 10
631.2629254101382
 20
589.2617014687703
 30
0.0
 10
630.8670215399712
 20
589.6800124196407
 30
0.0
  0
SPLINE
  5
2F2
330
1F
100
AcDbEntity
  8
0
  6
Continuous
 62
     8
370
    25
100
AcDbSpline
210
0.0
220
0.0
230
1.0
 70
     8
 71
     3
 72
    15
 73
    11
 74
     0
 42
0.00000001
 43
0.00000001
 40
0.0
 40
0.0
 40
0.0
 40
0.0
 40
0.1537457978454966
 40
0.30756682465146
 40
0.5121165169706097
 40
0.7158722110863057
 40
0.8815360043641964
 40
0.9340216909668633
 40
0.9968673334091744
 40
1.0
 40
1.0
 40
1.0
 40
1.0
 10
574.4935624202996
 20
589.6800124196407
 30
0.0
 10
574.0927382562394
 20
589.2568629257113
 30
0.0
 10
573.2908938018795
 20
588.4103568876634
 30
0.0
 10
571.8765776194911
 20
587.256379912227
 30
0.0
 10
570.3218001243956
 20
586.1978077305031
 30
0.0
 10
568.9042622551978
 20
585.3948256145843
 30
0.0
 10
568.1286151326242
 20
585.00957536704
 30
0.0
 10
567.9129075272747
 20
584.9053108479924
 30
0.0
 10
567.815435494254
 20
584.858155476932
 30
0.0
 10
567.8647266760431
 20
584.8821804775055
 30
0.0
 10
567.8670670336649
 20
584.8833211905329
 30
0.0
  0
ENDSEC
  0
SECTION
  2
OBJECTS
  0
DICTIONARY
  5
C
330
0
100
AcDbDictionary
281
     1
  3
ACAD_GROUP
350
D
  3
ACAD_LAYOUT
350
1A
  3
ACAD_MLINESTYLE
350
17
  3
ACAD_PLOTSETTINGS
350
19
  3
ACAD_PLOTSTYLENAME
350
E
  3
ACAD_SCALELIST
350
47
  3
DWGPROPS
350
2F3
  0
DICTIONARY
  5
D
102
{ACAD_REACTORS
330
C
102
}
330
C
100
AcDbDictionary
281
     1
  0
DICTIONARY
  5
1A
102
{ACAD_REACTORS
330
C
102
}
330
C
100
AcDbDictionary
281
     1
  3
Layout1
350
1E
  3
Layout2
350
26
  3
Model
350
22
  0
DICTIONARY
  5
17
102
{ACAD_REACTORS
330
C
102
}
330
C
100
AcDbDictionary
281
     1
  3
Standard
350
18
  0
DICTIONARY
  5
19
102
{ACAD_REACTORS
330
C
102
}
330
C
100
AcDbDictionary
281
     1
  0
ACDBDICTIONARYWDFLT
  5
E
102
{ACAD_REACTORS
330
C
102
}
330
C
100
AcDbDictionary
281
     1
  3
Normal
350
F
100
AcDbDictionaryWithDefault
340
F
  0
DICTIONARY
  5
47
102
{ACAD_REACTORS
330
C
102
}
330
C
100
AcDbDictionary
281
     1
  3
A0
350
48
  3
A1
350
49
  3
A2
350
4A
  3
A3
350
4B
  3
A4
350
4C
  3
A5
350
4D
  3
A6
350
4E
  3
A7
350
4F
  3
A8
350
50
  3
A9
350
51
  3
B0
350
52
  3
B1
350
53
  3
B2
350
54
  3
B3
350
55
  3
B4
350
56
  3
B5
350
57
  3
B6
350
58
  3
B7
350
59
  3
B8
350
5A
  3
B9
350
5B
  3
C0
350
5C
  3
C1
350
5D
  3
C2
350
5E
  3
C3
350
5F
  3
C4
350
60
  3
C5
350
61
  3
C6
350
62
  3
C7
350
63
  3
C8
350
64
  3
C9
350
65
  3
D0
350
66
  3
D1
350
67
  3
D2
350
68
  0
XRECORD
  5
2F3
102
{ACAD_REACTORS
330
C
102
}
330
C
100
AcDbXrecord
280
     1
  1
DWGPROPS COOKIE
  2

  3

  4

  6

  7

  8
designer5
  9

300
=
301
=
302
=
303
=
304
=
305
=
306
=
307
=
308
=
309
=
 40
0.0
 41
2460383.180721459
 42
2460383.180722002
  1

 90
        0
  0
LAYOUT
  5
1E
102
{ACAD_REACTORS
330
1A
102
}
330
1A
100
AcDbPlotSettings
  1

  2
none_device
  4

  6

 40
0.0
 41
0.0
 42
0.0
 43
0.0
 44
0.0
 45
0.0
 46
0.0
 47
0.0
 48
0.0
 49
0.0
140
0.0
141
0.0
142
1.0
143
1.0
 70
   688
 72
     1
 73
     0
 74
     5
  7

 75
    16
147
1.0
148
0.0
149
0.0
100
AcDbLayout
  1
Layout1
 70
     1
 71
     1
 10
0.0
 20
0.0
 11
420.0
 21
297.0
 12
0.0
 22
0.0
 32
0.0
 14
1.0000000000E+20
 24
1.0000000000E+20
 34
1.0000000000E+20
 15
-1.0000000000E+20
 25
-1.0000000000E+20
 35
-1.0000000000E+20
146
0.0
 13
0.0
 23
0.0
 33
0.0
 16
1.0
 26
0.0
 36
0.0
 17
0.0
 27
1.0
 37
0.0
 76
     0
330
1B
  0
LAYOUT
  5
26
102
{ACAD_REACTORS
330
1A
102
}
330
1A
100
AcDbPlotSettings
  1

  2
none_device
  4

  6

 40
0.0
 41
0.0
 42
0.0
 43
0.0
 44
0.0
 45
0.0
 46
0.0
 47
0.0
 48
0.0
 49
0.0
140
0.0
141
0.0
142
1.0
143
1.0
 70
   688
 72
     1
 73
     0
 74
     5
  7

 75
    16
147
1.0
148
0.0
149
0.0
100
AcDbLayout
  1
Layout2
 70
     1
 71
     2
 10
0.0
 20
0.0
 11
0.0
 21
0.0
 12
0.0
 22
0.0
 32
0.0
 14
0.0
 24
0.0
 34
0.0
 15
0.0
 25
0.0
 35
0.0
146
0.0
 13
0.0
 23
0.0
 33
0.0
 16
1.0
 26
0.0
 36
0.0
 17
0.0
 27
1.0
 37
0.0
 76
     0
330
23
  0
LAYOUT
  5
22
102
{ACAD_REACTORS
330
1A
102
}
330
1A
100
AcDbPlotSettings
  1

  2
none_device
  4
Letter_(8.50_x_11.00_Inches)
  6

 40
6.35
 41
6.35
 42
6.35000508
 43
6.35000508
 44
215.9
 45
279.4
 46
0.0
 47
0.0
 48
0.0
 49
0.0
140
0.0
141
0.0
142
1.0
143
1.0
 70
  1712
 72
     1
 73
     0
 74
     0
  7

 75
     0
147
1.0
148
0.0
149
0.0
100
AcDbLayout
  1
Model
 70
     1
 71
     0
 10
0.0
 20
0.0
 11
1189.0
 21
841.0
 12
0.0
 22
0.0
 32
0.0
 14
0.0
 24
0.0
 34
0.0
 15
1189.0
 25
841.0
 35
0.0
146
0.0
 13
0.0
 23
0.0
 33
0.0
 16
1.0
 26
0.0
 36
0.0
 17
0.0
 27
1.0
 37
0.0
 76
     0
330
1F
331
29
  0
MLINESTYLE
  5
18
102
{ACAD_REACTORS
330
17
102
}
330
17
100
AcDbMlineStyle
  2
Standard
 70
     0
  3

 62
   256
 51
90.0
 52
90.0
 71
     2
 49
0.5
 62
   256
  6
BYLAYER
 49
-0.5
 62
   256
  6
BYLAYER
  0
ACDBPLACEHOLDER
  5
F
102
{ACAD_REACTORS
330
E
102
}
330
E
  0
SCALE
  5
48
102
{ACAD_REACTORS
330
47
102
}
330
47
100
AcDbScale
 70
     0
300
1:1
140
1.0
141
1.0
290
     1
  0
SCALE
  5
49
102
{ACAD_REACTORS
330
47
102
}
330
47
100
AcDbScale
 70
     0
300
1:2
140
1.0
141
2.0
290
     0
  0
SCALE
  5
4A
102
{ACAD_REACTORS
330
47
102
}
330
47
100
AcDbScale
 70
     0
300
1:4
140
1.0
141
4.0
290
     0
  0
SCALE
  5
4B
102
{ACAD_REACTORS
330
47
102
}
330
47
100
AcDbScale
 70
     0
300
1:5
140
1.0
141
5.0
290
     0
  0
SCALE
  5
4C
102
{ACAD_REACTORS
330
47
102
}
330
47
100
AcDbScale
 70
     0
300
1:8
140
1.0
141
8.0
290
     0
  0
SCALE
  5
4D
102
{ACAD_REACTORS
330
47
102
}
330
47
100
AcDbScale
 70
     0
300
1:10
140
1.0
141
10.0
290
     0
  0
SCALE
  5
4E
102
{ACAD_REACTORS
330
47
102
}
330
47
100
AcDbScale
 70
     0
300
1:16
140
1.0
141
16.0
290
     0
  0
SCALE
  5
4F
102
{ACAD_REACTORS
330
47
102
}
330
47
100
AcDbScale
 70
     0
300
1:20
140
1.0
141
20.0
290
     0
  0
SCALE
  5
50
102
{ACAD_REACTORS
330
47
102
}
330
47
100
AcDbScale
 70
     0
300
1:30
140
1.0
141
30.0
290
     0
  0
SCALE
  5
51
102
{ACAD_REACTORS
330
47
102
}
330
47
100
AcDbScale
 70
     0
300
1:40
140
1.0
141
40.0
290
     0
  0
SCALE
  5
52
102
{ACAD_REACTORS
330
47
102
}
330
47
100
AcDbScale
 70
     0
300
1:50
140
1.0
141
50.0
290
     0
  0
SCALE
  5
53
102
{ACAD_REACTORS
330
47
102
}
330
47
100
AcDbScale
 70
     0
300
1:100
140
1.0
141
100.0
290
     0
  0
SCALE
  5
54
102
{ACAD_REACTORS
330
47
102
}
330
47
100
AcDbScale
 70
     0
300
2:1
140
2.0
141
1.0
290
     0
  0
SCALE
  5
55
102
{ACAD_REACTORS
330
47
102
}
330
47
100
AcDbScale
 70
     0
300
4:1
140
4.0
141
1.0
290
     0
  0
SCALE
  5
56
102
{ACAD_REACTORS
330
47
102
}
330
47
100
AcDbScale
 70
     0
300
8:1
140
8.0
141
1.0
290
     0
  0
SCALE
  5
57
102
{ACAD_REACTORS
330
47
102
}
330
47
100
AcDbScale
 70
     0
300
10:1
140
10.0
141
1.0
290
     0
  0
SCALE
  5
58
102
{ACAD_REACTORS
330
47
102
}
330
47
100
AcDbScale
 70
     0
300
100:1
140
100.0
141
1.0
290
     0
  0
SCALE
  5
59
102
{ACAD_REACTORS
330
47
102
}
330
47
100
AcDbScale
 70
     0
300
1/128" = 1'-0"
140
0.0078125
141
12.0
290
     0
  0
SCALE
  5
5A
102
{ACAD_REACTORS
330
47
102
}
330
47
100
AcDbScale
 70
     0
300
1/64" = 1'-0"
140
0.015625
141
12.0
290
     0
  0
SCALE
  5
5B
102
{ACAD_REACTORS
330
47
102
}
330
47
100
AcDbScale
 70
     0
300
1/32" = 1'-0"
140
0.03125
141
12.0
290
     0
  0
SCALE
  5
5C
102
{ACAD_REACTORS
330
47
102
}
330
47
100
AcDbScale
 70
     0
300
1/16" = 1'-0"
140
0.0625
141
12.0
290
     0
  0
SCALE
  5
5D
102
{ACAD_REACTORS
330
47
102
}
330
47
100
AcDbScale
 70
     0
300
3/32" = 1'-0"
140
0.09375
141
12.0
290
     0
  0
SCALE
  5
5E
102
{ACAD_REACTORS
330
47
102
}
330
47
100
AcDbScale
 70
     0
300
1/8" = 1'-0"
140
0.125
141
12.0
290
     0
  0
SCALE
  5
5F
102
{ACAD_REACTORS
330
47
102
}
330
47
100
AcDbScale
 70
     0
300
3/16" = 1'-0"
140
0.1875
141
12.0
290
     0
  0
SCALE
  5
60
102
{ACAD_REACTORS
330
47
102
}
330
47
100
AcDbScale
 70
     0
300
1/4" = 1'-0"
140
0.25
141
12.0
290
     0
  0
SCALE
  5
61
102
{ACAD_REACTORS
330
47
102
}
330
47
100
AcDbScale
 70
     0
300
3/8" = 1'-0"
140
0.375
141
12.0
290
     0
  0
SCALE
  5
62
102
{ACAD_REACTORS
330
47
102
}
330
47
100
AcDbScale
 70
     0
300
1/2" = 1'-0"
140
0.5
141
12.0
290
     0
  0
SCALE
  5
63
102
{ACAD_REACTORS
330
47
102
}
330
47
100
AcDbScale
 70
     0
300
3/4" = 1'-0"
140
0.75
141
12.0
290
     0
  0
SCALE
  5
64
102
{ACAD_REACTORS
330
47
102
}
330
47
100
AcDbScale
 70
     0
300
1" = 1'-0"
140
1.0
141
12.0
290
     0
  0
SCALE
  5
65
102
{ACAD_REACTORS
330
47
102
}
330
47
100
AcDbScale
 70
     0
300
1-1/2" = 1'-0"
140
1.5
141
12.0
290
     0
  0
SCALE
  5
66
102
{ACAD_REACTORS
330
47
102
}
330
47
100
AcDbScale
 70
     0
300
3" = 1'-0"
140
3.0
141
12.0
290
     0
  0
SCALE
  5
67
102
{ACAD_REACTORS
330
47
102
}
330
47
100
AcDbScale
 70
     0
300
6" = 1'-0"
140
6.0
141
12.0
290
     0
  0
SCALE
  5
68
102
{ACAD_REACTORS
330
47
102
}
330
47
100
AcDbScale
 70
     0
300
1'-0" = 1'-0"
140
12.0
141
12.0
290
     0
  0
ENDSEC
  0
EOF
