  0
SECTION
  2
HEADER
  9
$ACADVER
  1
AC1015
  9
$ACADMAINTVER
 70
     6
  9
$DWGCODEPAGE
  3
ANSI_1252
  9
$INSBASE
 10
0.0
 20
0.0
 30
0.0
  9
$EXTMIN
 10
0.0
 20
0.0
 30
0.0
  9
$EXTMAX
 10
1189.0
 20
841.0
 30
0.0
  9
$LIMMIN
 10
0.0
 20
0.0
  9
$LIMMAX
 10
1189.0
 20
841.0
  9
$ORTHOMODE
 70
     0
  9
$REGENMODE
 70
     1
  9
$FILLMODE
 70
     1
  9
$QTEXTMODE
 70
     0
  9
$MIRRTEXT
 70
     1
  9
$LTSCALE
 40
1.0
  9
$ATTMODE
 70
     1
  9
$TEXTSIZE
 40
3.5
  9
$TRACEWID
 40
1.0
  9
$TEXTSTYLE
  7
Standard
  9
$CLAYER
  8
0
  9
$CELTYPE
  6
ByLayer
  9
$CECOLOR
 62
   256
  9
$CELTSCALE
 40
1.0
  9
$DISPSILH
 70
     0
  9
$DIMSCALE
 40
1.0
  9
$DIMASZ
 40
3.302
  9
$DIMEXO
 40
1.0
  9
$DIMDLI
 40
3.75
  9
$DIMRND
 40
0.0
  9
$DIMDLE
 40
0.0
  9
$DIMEXE
 40
1.0
  9
$DIMTP
 40
0.0
  9
$DIMTM
 40
0.0
  9
$DIMTXT
 40
3.5
  9
$DIMCEN
 40
2.5
  9
$DIMTSZ
 40
0.0
  9
$DIMTOL
 70
     0
  9
$DIMLIM
 70
     0
  9
$DIMTIH
 70
     1
  9
$DIMTOH
 70
     1
  9
$DIMSE1
 70
     0
  9
$DIMSE2
 70
     0
  9
$DIMTAD
 70
     1
  9
$DIMZIN
 70
     1
  9
$DIMBLK
  1

  9
$DIMASO
 70
     1
  9
$DIMSHO
 70
     1
  9
$DIMPOST
  1

  9
$DIMAPOST
  1

  9
$DIMALT
 70
     0
  9
$DIMALTD
 70
     3
  9
$DIMALTF
 40
0.0393700787
  9
$DIMLFAC
 40
1.0
  9
$DIMTOFL
 70
     1
  9
$DIMTVP
 40
0.0
  9
$DIMTIX
 70
     0
  9
$DIMSOXD
 70
     0
  9
$DIMSAH
 70
     0
  9
$DIMBLK1
  1

  9
$DIMBLK2
  1

  9
$DIMSTYLE
  2
ISO-25
  9
$DIMCLRD
 70
     0
  9
$DIMCLRE
 70
     0
  9
$DIMCLRT
 70
     0
  9
$DIMTFAC
 40
1.0
  9
$DIMGAP
 40
1.524
  9
$DIMJUST
 70
     0
  9
$DIMSD1
 70
     0
  9
$DIMSD2
 70
     0
  9
$DIMTOLJ
 70
     0
  9
$DIMTZIN
 70
     1
  9
$DIMALTZ
 70
     0
  9
$DIMALTTZ
 70
     0
  9
$DIMUPT
 70
     0
  9
$DIMDEC
 70
     2
  9
$DIMTDEC
 70
     2
  9
$DIMALTU
 70
     2
  9
$DIMALTTD
 70
     3
  9
$DIMTXSTY
  7
Standard
  9
$DIMAUNIT
 70
     0
  9
$DIMADEC
 70
     2
  9
$DIMALTRND
 40
0.0
  9
$DIMAZIN
 70
     0
  9
$DIMDSEP
 70
    44
  9
$DIMATFIT
 70
     3
  9
$DIMFRAC
 70
     0
  9
$DIMLDRBLK
  1

  9
$DIMLUNIT
 70
     2
  9
$DIMLWD
 70
    -2
  9
$DIMLWE
 70
    -2
  9
$DIMTMOVE
 70
     0
  9
$LUNITS
 70
     2
  9
$LUPREC
 70
     2
  9
$SKETCHINC
 40
1.0
  9
$FILLETRAD
 40
10.0
  9
$AUNITS
 70
     0
  9
$AUPREC
 70
     2
  9
$MENU
  1
.
  9
$ELEVATION
 40
0.0
  9
$PELEVATION
 40
0.0
  9
$THICKNESS
 40
0.0
  9
$LIMCHECK
 70
     0
  9
$CHAMFERA
 40
0.0
  9
$CHAMFERB
 40
0.0
  9
$CHAMFERC
 40
0.0
  9
$CHAMFERD
 40
0.0
  9
$SKPOLY
 70
     0
  9
$TDCREATE
 40
2460383.517205417
  9
$TDUCREATE
 40
2460383.28803875
  9
$TDUPDATE
 40
2460383.517205984
  9
$TDUUPDATE
 40
2460383.288039317
  9
$TDINDWG
 40
0.0000000116
  9
$TDUSRTIMER
 40
0.0000000116
  9
$USRTIMER
 70
     1
  9
$ANGBASE
 50
0.0
  9
$ANGDIR
 70
     0
  9
$PDMODE
 70
     0
  9
$PDSIZE
 40
-1.0
  9
$PLINEWID
 40
0.0
  9
$SPLFRAME
 70
     0
  9
$SPLINETYPE
 70
     6
  9
$SPLINESEGS
 70
     8
  9
$HANDSEED
  5
2D7
  9
$SURFTAB1
 70
     6
  9
$SURFTAB2
 70
     6
  9
$SURFTYPE
 70
     6
  9
$SURFU
 70
     6
  9
$SURFV
 70
     6
  9
$UCSBASE
  2

  9
$UCSNAME
  2

  9
$UCSORG
 10
0.0
 20
0.0
 30
0.0
  9
$UCSXDIR
 10
1.0
 20
0.0
 30
0.0
  9
$UCSYDIR
 10
0.0
 20
1.0
 30
0.0
  9
$UCSORTHOREF
  2

  9
$UCSORTHOVIEW
 70
     0
  9
$UCSORGTOP
 10
0.0
 20
0.0
 30
0.0
  9
$UCSORGBOTTOM
 10
0.0
 20
0.0
 30
0.0
  9
$UCSORGLEFT
 10
0.0
 20
0.0
 30
0.0
  9
$UCSORGRIGHT
 10
0.0
 20
0.0
 30
0.0
  9
$UCSORGFRONT
 10
0.0
 20
0.0
 30
0.0
  9
$UCSORGBACK
 10
0.0
 20
0.0
 30
0.0
  9
$PUCSBASE
  2

  9
$PUCSNAME
  2

  9
$PUCSORG
 10
0.0
 20
0.0
 30
0.0
  9
$PUCSXDIR
 10
1.0
 20
0.0
 30
0.0
  9
$PUCSYDIR
 10
0.0
 20
1.0
 30
0.0
  9
$PUCSORTHOREF
  2

  9
$PUCSORTHOVIEW
 70
     0
  9
$PUCSORGTOP
 10
0.0
 20
0.0
 30
0.0
  9
$PUCSORGBOTTOM
 10
0.0
 20
0.0
 30
0.0
  9
$PUCSORGLEFT
 10
0.0
 20
0.0
 30
0.0
  9
$PUCSORGRIGHT
 10
0.0
 20
0.0
 30
0.0
  9
$PUCSORGFRONT
 10
0.0
 20
0.0
 30
0.0
  9
$PUCSORGBACK
 10
0.0
 20
0.0
 30
0.0
  9
$USERI1
 70
     0
  9
$USERI2
 70
     0
  9
$USERI3
 70
     0
  9
$USERI4
 70
     0
  9
$USERI5
 70
     0
  9
$USERR1
 40
0.0
  9
$USERR2
 40
0.0
  9
$USERR3
 40
0.0
  9
$USERR4
 40
0.0
  9
$USERR5
 40
0.0
  9
$WORLDVIEW
 70
     1
  9
$SHADEDGE
 70
     3
  9
$SHADEDIF
 70
    70
  9
$TILEMODE
 70
     1
  9
$MAXACTVP
 70
    64
  9
$PINSBASE
 10
0.0
 20
0.0
 30
0.0
  9
$PLIMCHECK
 70
     0
  9
$PEXTMIN
 10
1.0000000000E+20
 20
1.0000000000E+20
 30
1.0000000000E+20
  9
$PEXTMAX
 10
-1.0000000000E+20
 20
-1.0000000000E+20
 30
-1.0000000000E+20
  9
$PLIMMIN
 10
0.0
 20
0.0
  9
$PLIMMAX
 10
420.0
 20
297.0
  9
$UNITMODE
 70
     0
  9
$VISRETAIN
 70
     1
  9
$PLINEGEN
 70
     0
  9
$PSLTSCALE
 70
     1
  9
$TREEDEPTH
 70
  3020
  9
$CMLSTYLE
  2
Standard
  9
$CMLJUST
 70
     0
  9
$CMLSCALE
 40
20.0
  9
$PROXYGRAPHICS
 70
     1
  9
$MEASUREMENT
 70
     1
  9
$CELWEIGHT
370
    -1
  9
$ENDCAPS
280
     0
  9
$JOINSTYLE
280
     0
  9
$LWDISPLAY
290
     1
  9
$INSUNITS
 70
     4
  9
$HYPERLINKBASE
  1

  9
$STYLESHEET
  1

  9
$XEDIT
290
     1
  9
$CEPSNTYPE
380
     0
  9
$PSTYLEMODE
290
     1
  9
$FINGERPRINTGUID
  2
{9074fd10-8735-4d58-9e43-82f2aa099dd1}
  9
$VERSIONGUID
  2
{FAEB1C32-E019-11D5-929B-00C0DF256EC4}
  9
$EXTNAMES
290
     1
  9
$PSVPSCALE
 40
0.0
  9
$OLESTARTUP
290
     0
  0
ENDSEC
  0
SECTION
  2
CLASSES
  0
CLASS
  1
ACDBDICTIONARYWDFLT
  2
AcDbDictionaryWithDefault
  3
ObjectDBX Classes
 90
        0
280
     0
281
     0
  0
CLASS
  1
VISUALSTYLE
  2
AcDbVisualStyle
  3
ObjectDBX Classes
 90
     4095
280
     0
281
     0
  0
CLASS
  1
MATERIAL
  2
AcDbMaterial
  3
ObjectDBX Classes
 90
     1153
280
     0
281
     0
  0
CLASS
  1
SCALE
  2
AcDbScale
  3
ObjectDBX Classes
 90
     1153
280
     0
281
     0
  0
CLASS
  1
TABLESTYLE
  2
AcDbTableStyle
  3
ObjectDBX Classes
 90
     4095
280
     0
281
     0
  0
CLASS
  1
MLEADERSTYLE
  2
AcDbMLeaderStyle
  3
ACDB_MLEADERSTYLE_CLASS
 90
     4095
280
     0
281
     0
  0
CLASS
  1
SUN
  2
AcDbSun
  3
SCENEOE
 90
     1153
280
     0
281
     0
  0
CLASS
  1
ACDBPLACEHOLDER
  2
AcDbPlaceHolder
  3
ObjectDBX Classes
 90
        0
280
     0
281
     0
  0
CLASS
  1
LAYOUT
  2
AcDbLayout
  3
ObjectDBX Classes
 90
        0
280
     0
281
     0
  0
ENDSEC
  0
SECTION
  2
TABLES
  0
TABLE
  2
VPORT
  5
8
330
0
100
AcDbSymbolTable
 70
     1
  0
VPORT
  5
29
330
8
100
AcDbSymbolTableRecord
100
AcDbViewportTableRecord
  2
*Active
 70
     0
 10
0.0
 20
0.0
 11
1.0
 21
1.0
 12
594.5
 22
420.5
 13
0.0
 23
0.0
 14
10.0
 24
10.0
 15
10.0
 25
10.0
 16
0.0
 26
0.0
 36
1.0
 17
0.0
 27
0.0
 37
0.0
 40
841.0
 41
1.4137931034
 42
50.0
 43
0.0
 44
0.0
 50
0.0
 51
0.0
 71
     0
 72
  2000
 73
     1
 74
     3
 75
     0
 76
     0
 77
     0
 78
     0
281
     0
 65
     1
110
0.0
120
0.0
130
0.0
111
1.0
121
0.0
131
0.0
112
0.0
122
1.0
132
0.0
 79
     0
146
0.0
  0
ENDTAB
  0
TABLE
  2
LTYPE
  5
5
330
0
100
AcDbSymbolTable
 70
     6
  0
LTYPE
  5
14
330
5
100
AcDbSymbolTableRecord
100
AcDbLinetypeTableRecord
  2
ByBlock
 70
     0
  3

 72
    65
 73
     0
 40
0.0
  0
LTYPE
  5
15
330
5
100
AcDbSymbolTableRecord
100
AcDbLinetypeTableRecord
  2
ByLayer
 70
     0
  3

 72
    65
 73
     0
 40
0.0
  0
LTYPE
  5
16
330
5
100
AcDbSymbolTableRecord
100
AcDbLinetypeTableRecord
  2
Continuous
 70
     0
  3
Solid line
 72
    65
 73
     0
 40
0.0
  0
LTYPE
  5
6E
330
5
100
AcDbSymbolTableRecord
100
AcDbLinetypeTableRecord
  2
HIDDEN
 70
     0
  3
Hidden __ __ __ __ __ __ __ __ __ __ __ __ __ __
 72
    65
 73
     2
 40
1.905
 49
1.27
 74
     0
 49
-0.635
 74
     0
  0
LTYPE
  5
6F
330
5
100
AcDbSymbolTableRecord
100
AcDbLinetypeTableRecord
  2
PHANTOM
 70
     0
  3
Phantom ______  __  __  ______  __  __  ______
 72
    65
 73
     6
 40
12.7
 49
6.35
 74
     0
 49
-1.27
 74
     0
 49
1.27
 74
     0
 49
-1.27
 74
     0
 49
1.27
 74
     0
 49
-1.27
 74
     0
  0
LTYPE
  5
70
330
5
100
AcDbSymbolTableRecord
100
AcDbLinetypeTableRecord
  2
CENTER
 70
     0
  3
Center ____ _ ____ _ ____ _ ____ _ ____ _ ____
 72
    65
 73
     4
 40
10.16
 49
6.35
 74
     0
 49
-1.27
 74
     0
 49
1.27
 74
     0
 49
-1.27
 74
     0
  0
LTYPE
  5
71
330
5
100
AcDbSymbolTableRecord
100
AcDbLinetypeTableRecord
  2
CENTERX2
 70
     0
  3
Center (2x) ________  __  ________  __  _____
 72
    65
 73
     4
 40
20.32
 49
12.7
 74
     0
 49
-2.54
 74
     0
 49
2.54
 74
     0
 49
-2.54
 74
     0
  0
LTYPE
  5
72
330
5
100
AcDbSymbolTableRecord
100
AcDbLinetypeTableRecord
  2
DOT2
 70
     0
  3
Dot (.5x) ........................................
 72
    65
 73
     2
 40
0.635
 49
0.0
 74
     0
 49
-0.635
 74
     0
  0
ENDTAB
  0
TABLE
  2
LAYER
  5
2
330
0
100
AcDbSymbolTable
 70
     1
  0
LAYER
  5
10
330
2
100
AcDbSymbolTableRecord
100
AcDbLayerTableRecord
  2
0
 70
     0
 62
     7
  6
Continuous
370
    -3
390
F
  0
ENDTAB
  0
TABLE
  2
STYLE
  5
3
330
0
100
AcDbSymbolTable
 70
     1
  0
STYLE
  5
11
330
3
100
AcDbSymbolTableRecord
100
AcDbTextStyleTableRecord
  2
Standard
 70
     0
 40
0.0
 41
1.0
 50
0.0
 71
     0
 42
3.5
  3
txt
  4

  0
ENDTAB
  0
TABLE
  2
VIEW
  5
6
330
0
100
AcDbSymbolTable
 70
     0
  0
ENDTAB
  0
TABLE
  2
UCS
  5
7
330
0
100
AcDbSymbolTable
 70
     0
  0
ENDTAB
  0
TABLE
  2
APPID
  5
9
330
0
100
AcDbSymbolTable
 70
     1
  0
APPID
  5
12
330
9
100
AcDbSymbolTableRecord
100
AcDbRegAppTableRecord
  2
ACAD
 70
     0
  0
ENDTAB
  0
TABLE
  2
DIMSTYLE
  5
A
330
0
100
AcDbSymbolTable
 70
     1
100
AcDbDimStyleTable
  0
DIMSTYLE
105
27
330
A
100
AcDbSymbolTableRecord
100
AcDbDimStyleTableRecord
  2
ISO-25
 70
     0
 41
2.5
 42
0.625
 43
3.75
 44
1.25
 73
     0
 74
     0
 77
     1
 78
     8
140
2.5
141
2.5
143
0.0393700787
147
0.625
171
     3
172
     1
178
     0
271
     2
272
     2
274
     3
278
    44
283
     0
284
     8
340
11
  0
ENDTAB
  0
TABLE
  2
BLOCK_RECORD
  5
1
330
0
100
AcDbSymbolTable
 70
     1
  0
BLOCK_RECORD
  5
1F
330
1
100
AcDbSymbolTableRecord
100
AcDbBlockTableRecord
  2
*Model_Space
340
22
  0
BLOCK_RECORD
  5
1B
330
1
100
AcDbSymbolTableRecord
100
AcDbBlockTableRecord
  2
*Paper_Space
340
1E
  0
BLOCK_RECORD
  5
23
330
1
100
AcDbSymbolTableRecord
100
AcDbBlockTableRecord
  2
*Paper_Space0
340
26
  0
ENDTAB
  0
ENDSEC
  0
SECTION
  2
BLOCKS
  0
BLOCK
  5
20
330
1F
100
AcDbEntity
  8
0
100
AcDbBlockBegin
  2
*Model_Space
 70
     0
 10
0.0
 20
0.0
 30
0.0
  3
*Model_Space
  1

  0
ENDBLK
  5
21
330
1F
100
AcDbEntity
  8
0
100
AcDbBlockEnd
  0
BLOCK
  5
1C
330
1B
100
AcDbEntity
 67
     1
  8
0
100
AcDbBlockBegin
  2
*Paper_Space
 70
     0
 10
0.0
 20
0.0
 30
0.0
  3
*Paper_Space
  1

  0
ENDBLK
  5
1D
330
1B
100
AcDbEntity
 67
     1
  8
0
100
AcDbBlockEnd
  0
BLOCK
  5
24
330
23
100
AcDbEntity
  8
0
100
AcDbBlockBegin
  2
*Paper_Space0
 70
     0
 10
0.0
 20
0.0
 30
0.0
  3
*Paper_Space0
  1

  0
ENDBLK
  5
25
330
23
100
AcDbEntity
  8
0
100
AcDbBlockEnd
  0
ENDSEC
  0
SECTION
  2
ENTITIES
  0
LINE
  5
73
330
1F
100
AcDbEntity
  8
0
  6
Continuous
 62
     7
370
    25
100
AcDbLine
 10
620.4613157895
 20
461.6845850882
 30
0.0
 11
620.4613157895
 21
414.3575731766
 31
0.0
  0
LINE
  5
74
330
1F
100
AcDbEntity
  8
0
  6
Continuous
 62
     7
370
    25
100
AcDbLine
 10
636.2613157895
 20
414.3575731766
 30
0.0
 11
636.2613157895
 21
461.6845850882
 31
0.0
  0
LINE
  5
75
330
1F
100
AcDbEntity
  8
0
  6
Continuous
 62
     7
370
    25
100
AcDbLine
 10
636.2613157895
 20
461.6845850882
 30
0.0
 11
636.2613157895
 21
544.0845850882
 31
0.0
  0
LINE
  5
76
330
1F
100
AcDbEntity
  8
0
  6
Continuous
 62
     7
370
    25
100
AcDbLine
 10
620.4613157895
 20
544.0845850882
 30
0.0
 11
620.4613157895
 21
461.6845850882
 31
0.0
  0
LINE
  5
77
330
1F
100
AcDbEntity
  8
0
  6
Continuous
 62
     7
370
    25
100
AcDbLine
 10
620.4613157895
 20
566.7575731766
 30
0.0
 11
620.4613157895
 21
544.0845850882
 31
0.0
  0
LINE
  5
78
330
1F
100
AcDbEntity
  8
0
  6
Continuous
 62
     7
370
    25
100
AcDbLine
 10
636.2613157895
 20
544.0845850882
 30
0.0
 11
636.2613157895
 21
566.7575731766
 31
0.0
  0
SPLINE
  5
79
330
1F
100
AcDbEntity
  8
0
  6
Continuous
 62
     7
370
    25
100
AcDbSpline
210
0.0
220
0.0
230
1.0
 70
     8
 71
     3
 72
    17
 73
    13
 74
     0
 42
0.00000001
 43
0.00000001
 40
0.0
 40
0.0
 40
0.0
 40
0.0
 40
0.0670347159856372
 40
0.2453803302561546
 40
0.411388073805857
 40
0.5632251410891286
 40
0.6981237965259628
 40
0.8109419041689812
 40
0.892136506139896
 40
0.9476202384249495
 40
0.9884465210508965
 40
1.0
 40
1.0
 40
1.0
 40
1.0
 10
663.1747465518055
 20
554.746879085709
 30
0.0
 10
663.2936435438053
 20
554.7507459807266
 30
0.0
 10
663.7288655438454
 20
554.7649007356556
 30
0.0
 10
664.4562868313435
 20
554.6703941342357
 30
0.0
 10
665.316837463405
 20
554.4843305258248
 30
0.0
 10
666.0786571603498
 20
554.2264205999195
 30
0.0
 10
666.7260791186119
 20
553.937265398395
 30
0.0
 10
667.2343845400093
 20
553.6579522462878
 30
0.0
 10
667.6023990215905
 20
553.4234392370862
 30
0.0
 10
667.825537810301
 20
553.2671078489228
 30
0.0
 10
667.9278920854337
 20
553.1917117503741
 30
0.0
 10
667.9552411794822
 20
553.1709287999618
 30
0.0
 10
667.9612736082843
 20
553.1663446748557
 30
0.0
  0
SPLINE
  5
7A
330
1F
100
AcDbEntity
  8
0
  6
Continuous
 62
     7
370
    25
100
AcDbSpline
210
0.0
220
0.0
230
1.0
 70
     8
 71
     3
 72
    15
 73
    11
 74
     0
 42
0.00000001
 43
0.00000001
 40
0.0
 40
0.0
 40
0.0
 40
0.0
 40
0.013901117204491
 40
0.0621914884600164
 40
0.1288078179185358
 40
0.2270882108824392
 40
0.3906473635205875
 40
0.5999525991930087
 40
0.8448769273882936
 40
0.9999999999999999
 40
0.9999999999999999
 40
0.9999999999999999
 40
0.9999999999999999
 10
588.7618008773469
 20
553.1665706538216
 30
0.0
 10
588.7674868766767
 20
553.170938185415
 30
0.0
 10
588.7929251746566
 20
553.1904778588599
 30
0.0
 10
588.9270773760297
 20
553.2891464608562
 30
0.0
 10
589.2087461852057
 20
553.4831172022863
 30
0.0
 10
589.7050985130135
 20
553.7867654463768
 30
0.0
 10
590.4531172826652
 20
554.1591711021753
 30
0.0
 10
591.4925994059199
 20
554.5200794770651
 30
0.0
 10
592.5611630385075
 20
554.7358920074815
 30
0.0
 10
593.2727158952281
 20
554.7453722527048
 30
0.0
 10
593.5486288626353
 20
554.7490483290028
 30
0.0
  0
SPLINE
  5
7B
330
1F
100
AcDbEntity
  8
0
  6
Continuous
 62
     7
370
    25
100
AcDbSpline
210
0.0
220
0.0
230
1.0
 70
     8
 71
     3
 72
    15
 73
    11
 74
     0
 42
0.00000001
 43
0.00000001
 40
0.0
 40
0.0
 40
0.0
 40
0.0
 40
0.0562270058986076
 40
0.0925790330490285
 40
0.1363356876940121
 40
0.2227902311131019
 40
0.3944879179898206
 40
0.5506397481528238
 40
0.7983365810550364
 40
1.0
 40
1.0
 40
1.0
 40
1.0
 10
667.9435919195695
 20
580.3307898785814
 30
0.0
 10
667.9253078577135
 20
580.3170624945992
 30
0.0
 10
667.8952027375888
 20
580.29446004734
 30
0.0
 10
667.7743236727193
 20
580.2074728335602
 30
0.0
 10
667.5524554278327
 20
580.0549302997384
 30
0.0
 10
667.0847694571171
 20
579.7623864019
 30
0.0
 10
666.4115365531297
 20
579.4202689698947
 30
0.0
 10
665.4257661877826
 20
579.0537468028541
 30
0.0
 10
664.3420069181509
 20
578.7992444347931
 30
0.0
 10
663.5209806702783
 20
578.7747865377941
 30
0.0
 10
663.1525213784097
 20
578.7638103486256
 30
0.0
  0
SPLINE
  5
7C
330
1F
100
AcDbEntity
  8
0
  6
Continuous
 62
     7
370
    25
100
AcDbSpline
210
0.0
220
0.0
230
1.0
 70
     8
 71
     3
 72
    14
 73
    10
 74
     0
 42
0.00000001
 43
0.00000001
 40
0.0
 40
0.0
 40
0.0
 40
0.0
 40
0.1934486682690192
 40
0.3848302540863916
 40
0.5607444297534424
 40
0.7185711613190227
 40
0.8545345765612719
 40
0.9616050294601597
 40
1.0
 40
1.0
 40
1.0
 40
1.0
 10
593.5950528459732
 20
578.7606702409983
 30
0.0
 10
593.2919819364284
 20
578.7673033199321
 30
0.0
 10
592.6890785607167
 20
578.7804986004908
 30
0.0
 10
591.821133731707
 20
578.9301564729841
 30
0.0
 10
591.0281852386789
 20
579.1489232719342
 30
0.0
 10
590.3406067895941
 20
579.4150795803877
 30
0.0
 10
589.7800914485794
 20
579.6902078249026
 30
0.0
 10
589.3934182182334
 20
579.9125677657048
 30
0.0
 10
589.2144667560436
 20
580.0304365161463
 30
0.0
 10
589.1672332901353
 20
580.0615474639839
 30
0.0
  0
LINE
  5
7D
330
1F
100
AcDbEntity
  8
0
  6
Continuous
 62
     7
370
    25
100
AcDbLine
 10
617.7783105452
 20
578.7575731766
 30
0.0
 11
593.5929035851
 21
578.7575731766
 31
0.0
  0
LINE
  5
7E
330
1F
100
AcDbEntity
  8
0
  6
Continuous
 62
     7
370
    25
100
AcDbLine
 10
663.1524658396
 20
578.7575731766
 30
0.0
 11
636.7076128152
 21
578.7575731766
 31
0.0
  0
LINE
  5
7F
330
1F
100
AcDbEntity
  8
0
  6
Continuous
 62
     7
370
    25
100
AcDbLine
 10
638.9443210337
 20
554.7575731766
 30
0.0
 11
663.1813283051
 21
554.7575731766
 31
0.0
  0
LINE
  5
80
330
1F
100
AcDbEntity
  8
0
  6
Continuous
 62
     7
370
    25
100
AcDbLine
 10
593.5413032738
 20
554.7575731766
 30
0.0
 11
620.0150187638
 21
554.7575731766
 31
0.0
  0
SPLINE
  5
81
330
1F
100
AcDbEntity
  8
0
  6
Continuous
 62
     7
370
    25
100
AcDbSpline
210
0.0
220
0.0
230
1.0
 70
     8
 71
     3
 72
    17
 73
    13
 74
     0
 42
0.00000001
 43
0.00000001
 40
0.0
 40
0.0
 40
0.0
 40
0.0
 40
0.0756294030500803
 40
0.1929964704249424
 40
0.2905575842813524
 40
0.3733508951250168
 40
0.441027828527571
 40
0.4907337481345743
 40
0.5342844175199539
 40
0.5959511942910535
 40
0.7380892225926746
 40
1.0
 40
1.0
 40
1.0
 40
1.0
 10
520.1394637156933
 20
563.953636174872
 30
0.0
 10
520.1406260037637
 20
563.9211326982243
 30
0.0
 10
520.1435920128312
 20
563.8381880230507
 30
0.0
 10
520.2040859441347
 20
563.7252594823049
 30
0.0
 10
520.2863094995895
 20
563.628559657065
 30
0.0
 10
520.3719861921072
 20
563.5668651379572
 30
0.0
 10
520.4467231745853
 20
563.5320074388595
 30
0.0
 10
520.5003610450174
 20
563.515264861278
 30
0.0
 10
520.5377329519719
 20
563.5065895359609
 30
0.0
 10
520.5793777494196
 20
563.4992480410782
 30
0.0
 10
520.6347924063132
 20
563.4917410671069
 30
0.0
 10
520.7254076283697
 20
563.4840949639786
 30
0.0
 10
520.7841458375129
 20
563.4791386399253
 30
0.0
  0
SPLINE
  5
82
330
1F
100
AcDbEntity
  8
0
  6
Continuous
 62
     7
370
    25
100
AcDbSpline
210
0.0
220
0.0
230
1.0
 70
     8
 71
     3
 72
    17
 73
    13
 74
     0
 42
0.00000001
 43
0.00000001
 40
0.0
 40
0.0
 40
0.0
 40
0.0
 40
0.1530562936995764
 40
0.4505526002284803
 40
0.5801582598015568
 40
0.6279244330710576
 40
0.6630068494193546
 40
0.7130766599680421
 40
0.7788136258070613
 40
0.862760732797641
 40
0.9533339673300989
 40
1.0
 40
1.0
 40
1.0
 40
1.0
 10
521.1437740708006
 20
570.0643102269564
 30
0.0
 10
521.0702596902764
 20
570.0590783193901
 30
0.0
 10
520.85385502962
 20
570.0436771261348
 30
0.0
 10
520.6683270945509
 20
570.0269438973928
 30
0.0
 10
520.5811878931725
 20
570.0165813145098
 30
0.0
 10
520.5219047765466
 20
570.0055215515303
 30
0.0
 10
520.4595238786596
 20
569.9881329809738
 30
0.0
 10
520.372982206377
 20
569.9502301814383
 30
0.0
 10
520.2686203231871
 20
569.873289289212
 30
0.0
 10
520.1758512956904
 20
569.7470960827166
 30
0.0
 10
520.124002000626
 20
569.6072696253691
 30
0.0
 10
520.1335475027859
 20
569.5183411860859
 30
0.0
 10
520.1367932991583
 20
569.4881024829984
 30
0.0
  0
LINE
  5
83
330
1F
100
AcDbEntity
  8
0
  6
Continuous
 62
     7
370
    25
100
AcDbLine
 10
524.6270947617
 20
570.3064777553
 30
0.0
 11
521.1437740708
 21
570.064310227
 31
0.0
  0
LINE
  5
84
330
1F
100
AcDbEntity
  8
0
  6
Continuous
 62
     7
370
    25
100
AcDbLine
 10
521.1437740708
 20
563.4508361263
 30
0.0
 11
524.6270947617
 21
563.2086685979
 31
0.0
  0
ARC
  5
85
330
1F
100
AcDbEntity
  8
0
  6
Continuous
 62
     7
370
    25
100
AcDbCircle
 10
569.4523005842
 20
569.7294676524
 30
0.0
 40
8.999995138922987
100
AcDbArc
 50
77.1419190681
 51
90.0
  0
ARC
  5
86
330
1F
100
AcDbEntity
  8
0
  6
Continuous
 62
     7
370
    25
100
AcDbCircle
 10
569.4523005842
 20
569.7294676524
 30
0.0
 40
8.999995138922941
100
AcDbArc
 50
90.0
 51
125.1719294169
  0
SPLINE
  5
87
330
1F
100
AcDbEntity
  8
0
  6
Continuous
 62
     7
370
    25
100
AcDbSpline
210
0.0
220
0.0
230
1.0
 70
     8
 71
     3
 72
    17
 73
    13
 74
     0
 42
0.00000001
 43
0.00000001
 40
0.0
 40
0.0
 40
0.0
 40
0.0
 40
0.0756294030500708
 40
0.192996470424938
 40
0.2905575842813404
 40
0.3733508951250154
 40
0.4410278285275698
 40
0.4907337481345574
 40
0.5342844175199465
 40
0.5959511942910417
 40
0.7380892225926652
 40
1.0
 40
1.0
 40
1.0
 40
1.0
 10
736.5831678632544
 20
569.8069314671777
 30
0.0
 10
736.582005575184
 20
569.8394349438255
 30
0.0
 10
736.5790395661165
 20
569.9223796189989
 30
0.0
 10
736.518545634813
 20
570.0353081597449
 30
0.0
 10
736.4363220793582
 20
570.1320079849847
 30
0.0
 10
736.3506453868405
 20
570.1937025040926
 30
0.0
 10
736.2759084043623
 20
570.2285602031902
 30
0.0
 10
736.2222705339303
 20
570.2453027807717
 30
0.0
 10
736.1848986269758
 20
570.2539781060889
 30
0.0
 10
736.1432538295281
 20
570.2613196009715
 30
0.0
 10
736.0878391726345
 20
570.2688265749429
 30
0.0
 10
735.997223950578
 20
570.2764726780712
 30
0.0
 10
735.9384857414348
 20
570.2814290021246
 30
0.0
  0
SPLINE
  5
88
330
1F
100
AcDbEntity
  8
0
  6
Continuous
 62
     7
370
    25
100
AcDbSpline
210
0.0
220
0.0
230
1.0
 70
     8
 71
     3
 72
    17
 73
    13
 74
     0
 42
0.00000001
 43
0.00000001
 40
0.0
 40
0.0
 40
0.0
 40
0.0
 40
0.1530562936995866
 40
0.4505526002284937
 40
0.5801582598015611
 40
0.6279244330710541
 40
0.6630068494193527
 40
0.713076659968043
 40
0.7788136258070716
 40
0.8627607327976463
 40
0.9533339673301098
 40
0.9999999999999999
 40
0.9999999999999999
 40
0.9999999999999999
 40
0.9999999999999999
 10
735.5788575081472
 20
563.6962574150933
 30
0.0
 10
735.6523718886713
 20
563.7014893226598
 30
0.0
 10
735.8687765493277
 20
563.716890515915
 30
0.0
 10
736.0543044843967
 20
563.7336237446569
 30
0.0
 10
736.1414436857754
 20
563.7439863275399
 30
0.0
 10
736.2007268024009
 20
563.7550460905195
 30
0.0
 10
736.2631077002882
 20
563.772434661076
 30
0.0
 10
736.3496493725708
 20
563.8103374606113
 30
0.0
 10
736.4540112557606
 20
563.8872783528377
 30
0.0
 10
736.5467802832571
 20
564.0134715593332
 30
0.0
 10
736.5986295783217
 20
564.1532980166805
 30
0.0
 10
736.5890840761618
 20
564.2422264559639
 30
0.0
 10
736.5858382797894
 20
564.2724651590514
 30
0.0
  0
LINE
  5
89
330
1F
100
AcDbEntity
  8
0
  6
Continuous
 62
     7
370
    25
100
AcDbLine
 10
732.0955368173
 20
563.4540898867
 30
0.0
 11
735.5788575081
 21
563.6962574151
 31
0.0
  0
LINE
  5
8A
330
1F
100
AcDbEntity
  8
0
  6
Continuous
 62
     7
370
    25
100
AcDbLine
 10
735.5788575081
 20
570.3097315158
 30
0.0
 11
732.0955368173
 21
570.5518990442
 31
0.0
  0
ARC
  5
8B
330
1F
100
AcDbEntity
  8
0
  6
Continuous
 62
     7
370
    25
100
AcDbCircle
 10
687.2703309947
 20
564.0310999896
 30
0.0
 40
8.999995138923055
100
AcDbArc
 50
257.1419190681
 51
270.0
  0
ARC
  5
8C
330
1F
100
AcDbEntity
  8
0
  6
Continuous
 62
     7
370
    25
100
AcDbCircle
 10
687.2703309947
 20
564.0310999896
 30
0.0
 40
8.999995138923055
100
AcDbArc
 50
270.0
 51
305.1719294169
  0
ARC
  5
8D
330
1F
100
AcDbEntity
  8
0
  6
Continuous
 62
     7
370
    25
100
AcDbCircle
 10
628.3613157895
 20
414.3575731766
 30
0.0
 40
7.900000000000091
100
AcDbArc
 50
180.0
 51
0.0
  0
ARC
  5
8E
330
1F
100
AcDbEntity
  8
0
  6
Continuous
 62
     7
370
    25
100
AcDbCircle
 10
628.3613157895
 20
566.7575731766
 30
0.0
 40
7.899999999999977
100
AcDbArc
 50
0.0
 51
180.0
  0
ARC
  5
8F
330
1F
100
AcDbEntity
  8
0
  6
Continuous
 62
     7
370
    25
100
AcDbCircle
 10
628.3613157895
 20
414.3575731766
 30
0.0
 40
10.82500000000002
100
AcDbArc
 50
136.8689719021
 51
180.0
  0
ARC
  5
90
330
1F
100
AcDbEntity
  8
0
  6
Continuous
 62
     7
370
    25
100
AcDbCircle
 10
628.3613157895
 20
414.3575731766
 30
0.0
 40
10.82500000000002
100
AcDbArc
 50
180.0
 51
43.1310280979
  0
SPLINE
  5
91
330
1F
100
AcDbEntity
  8
0
  6
Continuous
 62
     7
370
    25
100
AcDbSpline
210
0.0
220
0.0
230
1.0
 70
    24
 71
     3
 72
     9
 73
     5
 74
     0
 42
0.00000001
 43
0.00000001
 40
0.0
 40
0.0
 40
0.0
 40
0.0
 40
0.3310443812033463
 40
1.0
 40
1.0
 40
1.0
 40
1.0
 10
590.3480578415107
 20
579.4245075113398
 30
0.0
 10
590.0413115549918
 20
579.9558076646235
 30
0.0
 10
589.1147098546284
 20
581.5607288880328
 30
0.0
 10
588.2139105474313
 20
583.1209590555209
 30
0.0
 10
587.6113157894738
 20
584.1646837926779
 30
0.0
  0
SPLINE
  5
92
330
1F
100
AcDbEntity
  8
0
  6
Continuous
 62
     7
370
    25
100
AcDbSpline
210
0.0
220
0.0
230
1.0
 70
    24
 71
     3
 72
     9
 73
     5
 74
     0
 42
0.00000001
 43
0.00000001
 40
0.0
 40
0.0
 40
0.0
 40
0.0
 40
0.9630212637256275
 40
1.0
 40
1.0
 40
1.0
 40
1.0
 10
587.6113157894739
 20
549.3504625605435
 30
0.0
 10
588.4808204074825
 20
550.8564887363501
 30
0.0
 10
589.3837128468922
 20
552.4203443151774
 30
0.0
 10
590.3121629999483
 20
554.0284671525661
 30
0.0
 10
590.3464959133022
 20
554.0879335028667
 30
0.0
  0
SPLINE
  5
93
330
1F
100
AcDbEntity
  8
0
  6
Continuous
 62
     7
370
    25
100
AcDbSpline
210
0.0
220
0.0
230
1.0
 70
    24
 71
     3
 72
     9
 73
     5
 74
     0
 42
0.00000001
 43
0.00000001
 40
0.0
 40
0.0
 40
0.0
 40
0.0
 40
0.6717995328773205
 40
1.0
 40
1.0
 40
1.0
 40
1.0
 10
567.5113157894739
 20
549.3504625605434
 30
0.0
 10
569.2551035123513
 20
549.3504625605434
 30
0.0
 10
571.8508000520746
 20
549.3504625605434
 30
0.0
 10
574.5197703006635
 20
549.3504625605434
 30
0.0
 10
575.3957275829869
 20
549.3504625605434
 30
0.0
  0
SPLINE
  5
94
330
1F
100
AcDbEntity
  8
0
  6
Continuous
 62
     7
370
    25
100
AcDbSpline
210
0.0
220
0.0
230
1.0
 70
    24
 71
     3
 72
     9
 73
     5
 74
     0
 42
0.00000001
 43
0.00000001
 40
0.0
 40
0.0
 40
0.0
 40
0.0
 40
0.3723157624711829
 40
1.0
 40
1.0
 40
1.0
 40
1.0
 10
580.1268365771655
 20
549.3504625605434
 30
0.0
 10
581.0719832100954
 20
549.3504625605434
 30
0.0
 10
583.6105451733512
 20
549.3504625605435
 30
0.0
 10
586.0684977195998
 20
549.3504625605435
 30
0.0
 10
587.6113157894739
 20
549.3504625605435
 30
0.0
  0
SPLINE
  5
95
330
1F
100
AcDbEntity
  8
0
  6
Continuous
 62
     7
370
    25
100
AcDbSpline
210
0.0
220
0.0
230
1.0
 70
    24
 71
     3
 72
    10
 73
     6
 74
     0
 42
0.00000001
 43
0.00000001
 40
0.0
 40
0.0
 40
0.0
 40
0.0
 40
0.0747631653033624
 40
0.6900328039530912
 40
1.0
 40
1.0
 40
1.0
 40
1.0
 10
563.3410844632633
 20
556.5735150968553
 30
0.0
 10
563.4468691233361
 20
556.3902906909481
 30
0.0
 10
564.4232173732926
 20
554.6992059161423
 30
0.0
 10
565.8252433308377
 20
552.2708257241437
 30
0.0
 10
567.0882058098045
 20
550.0833105425202
 30
0.0
 10
567.5113157894739
 20
549.3504625605434
 30
0.0
  0
SPLINE
  5
96
330
1F
100
AcDbEntity
  8
0
  6
Continuous
 62
     7
370
    25
100
AcDbSpline
210
0.0
220
0.0
230
1.0
 70
    24
 71
     3
 72
     9
 73
     5
 74
     0
 42
0.00000001
 43
0.00000001
 40
0.0
 40
0.0
 40
0.0
 40
0.0
 40
0.6831909798116822
 40
1.0
 40
1.0
 40
1.0
 40
1.0
 10
567.5113157894738
 20
584.1646837926779
 30
0.0
 10
566.6395153858265
 20
582.6546811995016
 30
0.0
 10
565.3634440830588
 20
580.4444608690274
 30
0.0
 10
564.0513468045078
 20
578.1718417181045
 30
0.0
 10
563.6356625512984
 20
577.4518554716393
 30
0.0
  0
SPLINE
  5
97
330
1F
100
AcDbEntity
  8
0
  6
Continuous
 62
     7
370
    25
100
AcDbSpline
210
0.0
220
0.0
230
1.0
 70
    24
 71
     3
 72
    10
 73
     6
 74
     0
 42
0.00000001
 43
0.00000001
 40
0.0
 40
0.0
 40
0.0
 40
0.0
 40
0.630372586277136
 40
0.9527321603100103
 40
1.0
 40
1.0
 40
1.0
 40
1.0
 10
587.6113157894738
 20
584.1646837926779
 30
0.0
 10
585.8666045456748
 20
584.1646837926779
 30
0.0
 10
583.2296838600233
 20
584.1646837926779
 30
0.0
 10
580.3892931664975
 20
584.1646837926779
 30
0.0
 10
579.3347918624861
 20
584.1646837926779
 30
0.0
 10
579.1999425608911
 20
584.1646837926779
 30
0.0
  0
SPLINE
  5
98
330
1F
100
AcDbEntity
  8
0
  6
Continuous
 62
     7
370
    25
100
AcDbSpline
210
0.0
220
0.0
230
1.0
 70
    24
 71
     3
 72
     9
 73
     5
 74
     0
 42
0.00000001
 43
0.00000001
 40
0.0
 40
0.0
 40
0.0
 40
0.0
 40
0.4410170907538339
 40
1.0
 40
1.0
 40
1.0
 40
1.0
 10
575.9281059056939
 20
584.1646837926779
 30
0.0
 10
574.67004526007
 20
584.1646837926779
 30
0.0
 10
571.8174105844532
 20
584.1646837926779
 30
0.0
 10
569.0552925590148
 20
584.1646837926779
 30
0.0
 10
567.5113157894738
 20
584.1646837926779
 30
0.0
  0
SPLINE
  5
99
330
1F
100
AcDbEntity
  8
0
  6
Continuous
 62
     7
370
    25
100
AcDbSpline
210
0.0
220
0.0
230
1.0
 70
    24
 71
     3
 72
     9
 73
     5
 74
     0
 42
0.00000001
 43
0.00000001
 40
0.0
 40
0.0
 40
0.0
 40
0.0
 40
0.3295419706937449
 40
1.0
 40
1.0
 40
1.0
 40
1.0
 10
666.3807837834364
 20
554.0798827266933
 30
0.0
 10
666.6854494255338
 20
553.5521863552601
 30
0.0
 10
667.6099618372789
 20
551.9508838858897
 30
0.0
 10
668.5087296757133
 20
550.3941723255124
 30
0.0
 10
669.1113157894739
 20
549.3504625605434
 30
0.0
  0
SPLINE
  5
9A
330
1F
100
AcDbEntity
  8
0
  6
Continuous
 62
     7
370
    25
100
AcDbSpline
210
0.0
220
0.0
230
1.0
 70
    24
 71
     3
 72
     9
 73
     5
 74
     0
 42
0.00000001
 43
0.00000001
 40
0.0
 40
0.0
 40
0.0
 40
0.0
 40
0.962097360139919
 40
1.0
 40
1.0
 40
1.0
 40
1.0
 10
669.1113157894738
 20
584.1646837926779
 30
0.0
 10
668.2418035915688
 20
582.6586444881054
 30
0.0
 10
667.3380362246376
 20
581.093273490358
 30
0.0
 10
666.4086866009478
 20
579.4835927241321
 30
0.0
 10
666.373461796857
 20
579.4225815737601
 30
0.0
  0
SPLINE
  5
9B
330
1F
100
AcDbEntity
  8
0
  6
Continuous
 62
     7
370
    25
100
AcDbSpline
210
0.0
220
0.0
230
1.0
 70
    24
 71
     3
 72
    10
 73
     6
 74
     0
 42
0.00000001
 43
0.00000001
 40
0.0
 40
0.0
 40
0.0
 40
0.0
 40
0.6299737918003797
 40
0.9521294305409329
 40
1.0
 40
1.0
 40
1.0
 40
1.0
 10
689.2113157894738
 20
584.1646837926779
 30
0.0
 10
687.4666059426926
 20
584.1646837926779
 30
0.0
 10
684.8296873684651
 20
584.1646837926779
 30
0.0
 10
681.9874907754094
 20
584.1646837926779
 30
0.0
 10
680.9311812347178
 20
584.1646837926779
 30
0.0
 10
680.7945256732537
 20
584.1646837926779
 30
0.0
  0
SPLINE
  5
9C
330
1F
100
AcDbEntity
  8
0
  6
Continuous
 62
     7
370
    25
100
AcDbSpline
210
0.0
220
0.0
230
1.0
 70
    24
 71
     3
 72
     9
 73
     5
 74
     0
 42
0.00000001
 43
0.00000001
 40
0.0
 40
0.0
 40
0.0
 40
0.0
 40
0.4406613875512629
 40
1.0
 40
1.0
 40
1.0
 40
1.0
 10
677.5226890180566
 20
584.1646837926779
 30
0.0
 10
676.2664471900221
 20
584.1646837926779
 30
0.0
 10
673.4156373311973
 20
584.1646837926779
 30
0.0
 10
670.6552865598122
 20
584.1646837926779
 30
0.0
 10
669.1113157894738
 20
584.1646837926779
 30
0.0
  0
SPLINE
  5
9D
330
1F
100
AcDbEntity
  8
0
  6
Continuous
 62
     7
370
    25
100
AcDbSpline
210
0.0
220
0.0
230
1.0
 70
    24
 71
     3
 72
    10
 73
     6
 74
     0
 42
0.00000001
 43
0.00000001
 40
0.0
 40
0.0
 40
0.0
 40
0.0
 40
0.0057413088690737
 40
0.6669095229696839
 40
1.0
 40
1.0
 40
1.0
 40
1.0
 10
693.0869690276492
 20
577.4518554716393
 30
0.0
 10
693.0794117049124
 20
577.4649451385885
 30
0.0
 10
692.2015543005788
 20
578.9854387646947
 30
0.0
 10
690.8974945308304
 20
581.244136542006
 30
0.0
 10
689.6344524401675
 20
583.431789615132
 30
0.0
 10
689.2113157894738
 20
584.1646837926779
 30
0.0
  0
SPLINE
  5
9E
330
1F
100
AcDbEntity
  8
0
  6
Continuous
 62
     7
370
    25
100
AcDbSpline
210
0.0
220
0.0
230
1.0
 70
    24
 71
     3
 72
    10
 73
     6
 74
     0
 42
0.00000001
 43
0.00000001
 40
0.0
 40
0.0
 40
0.0
 40
0.0
 40
0.6356400199057378
 40
0.9606932511466303
 40
1.0
 40
1.0
 40
1.0
 40
1.0
 10
689.2113157894739
 20
549.3504625605435
 30
0.0
 10
690.0836807994541
 20
550.8614430805748
 30
0.0
 10
691.402155331232
 20
553.1451079580997
 30
0.0
 10
692.810529579151
 20
555.5844837115667
 30
0.0
 10
693.32594470585
 20
556.4772088979993
 30
0.0
 10
693.3815471156844
 20
556.5735150968554
 30
0.0
  0
SPLINE
  5
9F
330
1F
100
AcDbEntity
  8
0
  6
Continuous
 62
     7
370
    25
100
AcDbSpline
210
0.0
220
0.0
230
1.0
 70
    24
 71
     3
 72
     9
 73
     5
 74
     0
 42
0.00000001
 43
0.00000001
 40
0.0
 40
0.0
 40
0.0
 40
0.0
 40
0.7072310259674085
 40
0.9999999999999999
 40
0.9999999999999999
 40
0.9999999999999999
 40
0.9999999999999999
 10
669.1113157894739
 20
549.3504625605434
 30
0.0
 10
670.8545221377277
 20
549.3504625605434
 30
0.0
 10
673.3193551049596
 20
549.3504625605435
 30
0.0
 10
675.8537908491918
 20
549.3504625605435
 30
0.0
 10
676.5957950017822
 20
549.3504625605435
 30
0.0
  0
SPLINE
  5
A0
330
1F
100
AcDbEntity
  8
0
  6
Continuous
 62
     7
370
    25
100
AcDbSpline
210
0.0
220
0.0
230
1.0
 70
    24
 71
     3
 72
     9
 73
     5
 74
     0
 42
0.00000001
 43
0.00000001
 40
0.0
 40
0.0
 40
0.0
 40
0.0
 40
0.4037512436873242
 40
1.0
 40
1.0
 40
1.0
 40
1.0
 10
681.3269039959608
 20
549.3504625605435
 30
0.0
 10
682.4062479385564
 20
549.3504625605435
 30
0.0
 10
685.0795373945546
 20
549.3504625605435
 30
0.0
 10
687.667967536523
 20
549.3504625605435
 30
0.0
 10
689.2113157894739
 20
549.3504625605435
 30
0.0
  0
ARC
  5
A1
330
1F
100
AcDbEntity
  8
0
  6
Continuous
 62
     7
370
    25
100
AcDbCircle
 10
679.1613157895
 20
566.7575731766
 30
0.0
 40
25.80000000000007
100
AcDbArc
 50
12.2552832529
 51
90.0
  0
ARC
  5
A2
330
1F
100
AcDbEntity
  8
0
  6
Continuous
 62
     7
370
    25
100
AcDbCircle
 10
679.1613157895
 20
566.7575731766
 30
0.0
 40
25.80000000000003
100
AcDbArc
 50
207.7177476896
 51
348.9141211324
  0
ARC
  5
A3
330
1F
100
AcDbEntity
  8
0
  6
Continuous
 62
     7
370
    25
100
AcDbCircle
 10
679.1613157895
 20
566.7575731766
 30
0.0
 40
25.80000000000007
100
AcDbArc
 50
90.0
 51
152.2822523104
  0
ARC
  5
A4
330
1F
100
AcDbEntity
  8
0
  6
Continuous
 62
     7
370
    25
100
AcDbCircle
 10
577.5613157895
 20
566.7575731766
 30
0.0
 40
25.8000000000001
100
AcDbArc
 50
191.6486469977
 51
270.0
  0
ARC
  5
A5
330
1F
100
AcDbEntity
  8
0
  6
Continuous
 62
     7
370
    25
100
AcDbCircle
 10
577.5613157895
 20
566.7575731766
 30
0.0
 40
25.8000000000001
100
AcDbArc
 50
27.7177476896
 51
168.1358962755
  0
ARC
  5
A6
330
1F
100
AcDbEntity
  8
0
  6
Continuous
 62
     7
370
    25
100
AcDbCircle
 10
577.5613157895
 20
566.7575731766
 30
0.0
 40
25.80000000000003
100
AcDbArc
 50
270.0
 51
332.2822523104
  0
ARC
  5
A7
330
1F
100
AcDbEntity
  8
0
  6
Continuous
 62
     7
370
    25
100
AcDbCircle
 10
577.5613157895
 20
566.7575731766
 30
0.0
 40
17.60000000000011
100
AcDbArc
 50
359.7271408305
 51
27.9531868834
  0
ARC
  5
A8
330
1F
100
AcDbEntity
  8
0
  6
Continuous
 62
     7
370
    25
100
AcDbCircle
 10
577.5613157895
 20
566.7575731766
 30
0.0
 40
17.60000000000004
100
AcDbArc
 50
332.0468131166
 51
346.6276288744
  0
ARC
  5
A9
330
1F
100
AcDbEntity
  8
0
  6
Continuous
 62
     7
370
    25
100
AcDbCircle
 10
577.5613157895
 20
566.7575731766
 30
0.0
 40
17.60000000000004
100
AcDbArc
 50
300.5519830646
 51
332.0468131166
  0
ARC
  5
AA
330
1F
100
AcDbEntity
  8
0
  6
Continuous
 62
     7
370
    25
100
AcDbCircle
 10
577.5613157895
 20
566.7575731766
 30
0.0
 40
17.59999999999997
100
AcDbArc
 50
240.1182747131
 51
285.5760687249
  0
ARC
  5
AB
330
1F
100
AcDbEntity
  8
0
  6
Continuous
 62
     7
370
    25
100
AcDbCircle
 10
577.5613157895
 20
566.7575731766
 30
0.0
 40
17.60000000000004
100
AcDbArc
 50
211.5427743269
 51
226.3419429868
  0
ARC
  5
AC
330
1F
100
AcDbEntity
  8
0
  6
Continuous
 62
     7
370
    25
100
AcDbCircle
 10
577.5613157895
 20
566.7575731766
 30
0.0
 40
17.60000000000013
100
AcDbArc
 50
120.412187485
 51
148.4572256731
  0
ARC
  5
AD
330
1F
100
AcDbEntity
  8
0
  6
Continuous
 62
     7
370
    25
100
AcDbCircle
 10
577.5613157895
 20
566.7575731766
 30
0.0
 40
17.60000000000008
100
AcDbArc
 50
60.2386659836
 51
106.1118177679
  0
ARC
  5
AE
330
1F
100
AcDbEntity
  8
0
  6
Continuous
 62
     7
370
    25
100
AcDbCircle
 10
577.5613157895
 20
566.7575731766
 30
0.0
 40
17.60000000000011
100
AcDbArc
 50
27.9531868834
 51
45.8489354635
  0
ARC
  5
AF
330
1F
100
AcDbEntity
  8
0
  6
Continuous
 62
     7
370
    25
100
AcDbCircle
 10
679.1613157895
 20
566.7575731766
 30
0.0
 40
17.60000000000007
100
AcDbArc
 50
152.0468131166
 51
172.6371567318
  0
ARC
  5
B0
330
1F
100
AcDbEntity
  8
0
  6
Continuous
 62
     7
370
    25
100
AcDbCircle
 10
679.1613157895
 20
566.7575731766
 30
0.0
 40
17.60000000000004
100
AcDbArc
 50
187.6384625044
 51
207.9531868834
  0
ARC
  5
B1
330
1F
100
AcDbEntity
  8
0
  6
Continuous
 62
     7
370
    25
100
AcDbCircle
 10
679.1613157895
 20
566.7575731766
 30
0.0
 40
17.60000000000004
100
AcDbArc
 50
207.9531868834
 51
233.5950943176
  0
ARC
  5
B2
330
1F
100
AcDbEntity
  8
0
  6
Continuous
 62
     7
370
    25
100
AcDbCircle
 10
679.1613157895
 20
566.7575731766
 30
0.0
 40
17.60000000000002
100
AcDbArc
 50
246.900793817
 51
292.8555475709
  0
ARC
  5
B3
330
1F
100
AcDbEntity
  8
0
  6
Continuous
 62
     7
370
    25
100
AcDbCircle
 10
679.1613157895
 20
566.7575731766
 30
0.0
 40
17.60000000000003
100
AcDbArc
 50
307.7302992996
 51
329.914091969
  0
ARC
  5
B4
330
1F
100
AcDbEntity
  8
0
  6
Continuous
 62
     7
370
    25
100
AcDbCircle
 10
679.1613157895
 20
566.7575731766
 30
0.0
 40
17.60000000000013
100
AcDbArc
 50
33.0957362986
 51
53.0273725593
  0
ARC
  5
B5
330
1F
100
AcDbEntity
  8
0
  6
Continuous
 62
     7
370
    25
100
AcDbCircle
 10
679.1613157895
 20
566.7575731766
 30
0.0
 40
17.60000000000008
100
AcDbArc
 50
67.6213913509
 51
112.8554343655
  0
ARC
  5
B6
330
1F
100
AcDbEntity
  8
0
  6
Continuous
 62
     7
370
    25
100
AcDbCircle
 10
679.1613157895
 20
566.7575731766
 30
0.0
 40
17.6000000000001
100
AcDbArc
 50
127.3533268043
 51
152.0468131166
  0
LWPOLYLINE
  5
B7
330
1F
100
AcDbEntity
  8
0
  6
Continuous
 62
     7
370
    25
100
AcDbPolyline
 90
        9
 70
   128
 43
0.0
 10
663.6146923619
 20
558.5075731766
 10
663.1922082957
 20
559.0837894695
 10
662.5984844949
 20
559.5485063702
 10
661.8488229783
 20
559.8897467495
 10
660.9625447409
 20
560.0987158332
 10
659.9624917947
 20
560.1700278699
 10
658.8744384626
 20
560.1018449375
 10
657.7264270978
 20
559.8959243119
 10
656.5480453493
 20
559.5575731766
  0
LWPOLYLINE
  5
B8
330
1F
100
AcDbEntity
  8
0
  6
Continuous
 62
     7
370
    25
100
AcDbPolyline
 90
        9
 70
   128
 43
0.0
 10
593.1079392171
 20
558.5075731766
 10
593.5304232833
 20
559.0837894695
 10
594.124147084
 20
559.5485063702
 10
594.8738086006
 20
559.8897467495
 10
595.7600868381
 20
560.0987158332
 10
596.7601397843
 20
560.1700278699
 10
597.8481931164
 20
560.1018449375
 10
598.9962044812
 20
559.8959243119
 10
600.1745862296
 20
559.5575731766
  0
LWPOLYLINE
  5
B9
330
1F
100
AcDbEntity
  8
0
  6
Continuous
 62
     7
370
    25
100
AcDbPolyline
 90
        9
 70
   128
 43
0.0
 10
656.5480453493
 20
573.9575731766
 10
657.7264270978
 20
573.6192220414
 10
658.8744384626
 20
573.4133014157
 10
659.9624917947
 20
573.3451184833
 10
660.9625447409
 20
573.41643052
 10
661.8488229783
 20
573.6253996038
 10
662.5984844949
 20
573.966639983
 10
663.1922082957
 20
574.4313568838
 10
663.6146923619
 20
575.0075731766
  0
SPLINE
  5
BA
330
1F
100
AcDbEntity
  8
0
  6
Continuous
 62
     7
370
    25
100
AcDbSpline
210
0.0
220
0.0
230
1.0
 70
     8
 71
     3
 72
    30
 73
    26
 74
     0
 42
0.00000001
 43
0.00000001
 40
0.0
 40
0.0
 40
0.0
 40
0.0
 40
0.1249999999999998
 40
0.1249999999999998
 40
0.1874999999999996
 40
0.1874999999999996
 40
0.2499999999999994
 40
0.2499999999999994
 40
0.3749999999999993
 40
0.3749999999999993
 40
0.4999999999999992
 40
0.4999999999999992
 40
0.5624999999999991
 40
0.5624999999999991
 40
0.624999999999999
 40
0.624999999999999
 40
0.7499999999999991
 40
0.7499999999999991
 40
0.8124999999999994
 40
0.8124999999999994
 40
0.8749999999999997
 40
0.8749999999999997
 40
0.9374999999999999
 40
0.9374999999999999
 40
1.0
 40
1.0
 40
1.0
 40
1.0
 10
656.5480453493096
 20
559.5575731766107
 30
0.0
 10
656.1549327212286
 20
560.0020512852228
 30
0.0
 10
655.8297771621471
 20
560.496659816868
 30
0.0
 10
655.4371704415178
 20
561.3232250234925
 30
0.0
 10
655.3234895840642
 20
561.6104348280804
 30
0.0
 10
655.1291323269168
 20
562.1981886124369
 30
0.0
 10
655.047773794895
 20
562.5001269231652
 30
0.0
 10
654.842782753457
 20
563.4290768072543
 30
0.0
 10
654.757730880645
 20
564.0838358341556
 30
0.0
 10
654.6534469615273
 20
565.418460699956
 30
0.0
 10
654.6330842511594
 20
566.0890482090881
 30
0.0
 10
654.6331267538154
 20
567.0937550133065
 30
0.0
 10
654.6385782766392
 20
567.4287877110323
 30
0.0
 10
654.6618835232795
 20
568.0991223085341
 30
0.0
 10
654.6798952829012
 20
568.4361383282194
 30
0.0
 10
654.7580361244661
 20
569.4332627021263
 30
0.0
 10
654.8413203618229
 20
570.0778868882865
 30
0.0
 10
655.0467313132383
 20
571.0110630324081
 30
0.0
 10
655.1293944433178
 20
571.318266728589
 30
0.0
 10
655.325911990545
 20
571.9115136691864
 30
0.0
 10
655.4389973532451
 20
572.1958492373412
 30
0.0
 10
655.6977669329418
 20
572.74048006584
 30
0.0
 10
655.8434436759919
 20
573.0007766936197
 30
0.0
 10
656.169938615299
 20
573.4979087795793
 30
0.0
 10
656.3514024086387
 20
573.7352361767346
 30
0.0
 10
656.5480453493091
 20
573.957573176611
 30
0.0
  0
SPLINE
  5
BB
330
1F
100
AcDbEntity
  8
0
  6
Continuous
 62
     7
370
    25
100
AcDbSpline
210
0.0
220
0.0
230
1.0
 70
     8
 71
     3
 72
    26
 73
    22
 74
     0
 42
0.00000001
 43
0.00000001
 40
0.0
 40
0.0
 40
0.0
 40
0.0
 40
0.1249999999999996
 40
0.1249999999999996
 40
0.1874999999999994
 40
0.1874999999999994
 40
0.2499999999999992
 40
0.2499999999999992
 40
0.3749999999999991
 40
0.3749999999999991
 40
0.4374999999999992
 40
0.4374999999999992
 40
0.4999999999999992
 40
0.4999999999999992
 40
0.6249999999999993
 40
0.6249999999999993
 40
0.7499999999999994
 40
0.7499999999999994
 40
0.8749999999999998
 40
0.8749999999999998
 40
1.0
 40
1.0
 40
1.0
 40
1.0
 10
600.1745862296291
 20
573.9575731766208
 30
0.0
 10
600.5673613872304
 20
573.5134766335718
 30
0.0
 10
600.8912981448282
 20
573.0204559472493
 30
0.0
 10
601.2821708373231
 20
572.1994918504934
 30
0.0
 10
601.3968469843007
 20
571.9112616167591
 30
0.0
 10
601.5937947453175
 20
571.3164504252765
 30
0.0
 10
601.6761357275283
 20
571.010102059589
 30
0.0
 10
601.8813378382224
 20
570.0775481064046
 30
0.0
 10
601.9645672897194
 20
569.4333711511628
 30
0.0
 10
602.0426818242321
 20
568.436958731546
 30
0.0
 10
602.0606951614901
 20
568.1001772978724
 30
0.0
 10
602.0840165776358
 20
567.4303086609049
 30
0.0
 10
602.0894827075413
 20
567.0955087672917
 30
0.0
 10
602.089591115206
 20
566.091499835365
 30
0.0
 10
602.0692507362908
 20
565.4207887196607
 30
0.0
 10
601.9653689756706
 20
564.0883546102181
 30
0.0
 10
601.8822114361898
 20
563.4430375921004
 30
0.0
 10
601.6090880336762
 20
562.1988845085898
 30
0.0
 10
601.4153704360092
 20
561.5963325337027
 30
0.0
 10
600.8921771735639
 20
560.4956291705126
 30
0.0
 10
600.5672892205836
 20
560.0015881234564
 30
0.0
 10
600.1745862296381
 20
559.5575731766107
 30
0.0
  0
LWPOLYLINE
  5
BC
330
1F
100
AcDbEntity
  8
0
  6
Continuous
 62
     7
370
    25
100
AcDbPolyline
 90
        9
 70
   128
 43
0.0
 10
600.1745862296
 20
573.9575731766
 10
598.9962044812
 20
573.6192220414
 10
597.8481931164
 20
573.4133014157
 10
596.7601397843
 20
573.3451184833
 10
595.7600868381
 20
573.41643052
 10
594.8738086006
 20
573.6253996038
 10
594.124147084
 20
573.966639983
 10
593.5304232832
 20
574.4313568838
 10
593.1079392171
 20
575.0075731766
  0
ARC
  5
BD
330
1F
100
AcDbEntity
  8
0
  6
Continuous
 62
     7
370
    25
100
AcDbCircle
 10
628.3613157895
 20
414.3575731766
 30
0.0
 40
11.55000000000002
100
AcDbArc
 50
133.1556534408
 51
274.9657006069
  0
ARC
  5
BE
330
1F
100
AcDbEntity
  8
0
  6
Continuous
 62
     7
370
    25
100
AcDbCircle
 10
628.3613157895
 20
414.3575731766
 30
0.0
 40
11.55000000000002
100
AcDbArc
 50
274.9657006069
 51
46.8443465592
  0
ARC
  5
BF
330
1F
100
AcDbEntity
  8
0
  6
Continuous
 62
     7
370
    25
100
AcDbCircle
 10
620.3383367324
 20
561.2173288635
 30
0.0
 40
0.0999999999999943
100
AcDbArc
 50
34.6269032223
 51
109.8647129029
  0
ARC
  5
C0
330
1F
100
AcDbEntity
  8
0
  6
Continuous
 62
     7
370
    25
100
AcDbCircle
 10
628.3613157895
 20
566.7575731766
 30
0.0
 40
9.650000000000004
100
AcDbArc
 50
324.9501653321
 51
211.6883360596
  0
ARC
  5
C1
330
1F
100
AcDbEntity
  8
0
  6
Continuous
 62
     7
370
    25
100
AcDbCircle
 10
620.0648646631
 20
561.6359134156
 30
0.0
 40
0.0999999999999948
100
AcDbArc
 50
316.450526379
 51
31.6883360596
  0
ARC
  5
C2
330
1F
100
AcDbEntity
  8
0
  6
Continuous
 62
     7
370
    25
100
AcDbCircle
 10
628.3613157895
 20
566.7575731766
 30
0.0
 40
9.925000000000068
100
AcDbArc
 50
322.7469493593
 51
217.2530506407
  0
ARC
  5
C3
330
1F
100
AcDbEntity
  8
0
  6
Continuous
 62
     7
370
    25
100
AcDbCircle
 10
628.3613157895
 20
566.7575731766
 30
0.0
 40
9.725000000000138
100
AcDbArc
 50
324.3251241983
 51
215.6748758017
  0
ARC
  5
C4
330
1F
100
AcDbEntity
  8
0
  6
Continuous
 62
     7
370
    25
100
AcDbCircle
 10
628.3613157895
 20
566.7575731766
 30
0.0
 40
14.22500000000008
100
AcDbArc
 50
303.7355336397
 51
223.2235523034
  0
LWPOLYLINE
  5
C5
330
1F
100
AcDbEntity
  8
0
  6
Continuous
 62
     7
370
    25
100
AcDbPolyline
 90
        3
 70
   128
 43
0.0
 10
620.4613157895
 20
554.9279229282
 10
619.355998593
 20
555.7459934901
 10
617.9957407632
 20
557.0156288442
  0
LINE
  5
C6
330
1F
100
AcDbEntity
  8
0
  6
Continuous
 62
     7
370
    25
100
AcDbLine
 10
613.9132733437
 20
567.5090045876
 30
0.0
 11
614.1555158669
 21
567.496405743
 31
0.0
  0
SPLINE
  5
C7
330
1F
100
AcDbEntity
  8
0
  6
Continuous
 62
     7
370
    25
100
AcDbSpline
210
0.0
220
0.0
230
1.0
 70
     8
 71
     3
 72
    11
 73
     7
 74
     0
 42
0.00000001
 43
0.00000001
 40
0.0
 40
0.0
 40
0.0
 40
0.0
 40
0.1446702591042557
 40
0.3907520209323619
 40
0.5962314811354645
 40
1.0
 40
1.0
 40
1.0
 40
1.0
 10
615.9053440404957
 20
574.1168766402624
 30
0.0
 10
615.7732429599366
 20
573.8106865035344
 30
0.0
 10
615.4164400861781
 20
572.9836719156239
 30
0.0
 10
614.9520806933625
 20
571.6883777528224
 30
0.0
 10
614.370652279256
 20
569.8021496052415
 30
0.0
 10
614.095575621818
 20
568.4230072412495
 30
0.0
 10
613.9132733436587
 20
567.509004587577
 30
0.0
  0
LINE
  5
C8
330
1F
100
AcDbEntity
  8
0
  6
Continuous
 62
     7
370
    25
100
AcDbLine
 10
615.9053440405
 20
574.1168766403
 30
0.0
 11
616.1141865905
 21
573.9934871744
 31
0.0
  0
LINE
  5
C9
330
1F
100
AcDbEntity
  8
0
  6
Continuous
 62
     7
370
    25
100
AcDbLine
 10
621.7880532577
 20
579.6456606751
 30
0.0
 11
621.8982635999
 21
579.4295730738
 31
0.0
  0
SPLINE
  5
CA
330
1F
100
AcDbEntity
  8
0
  6
Continuous
 62
     7
370
    25
100
AcDbSpline
210
0.0
220
0.0
230
1.0
 70
     8
 71
     3
 72
    11
 73
     7
 74
     0
 42
0.00000001
 43
0.00000001
 40
0.0
 40
0.0
 40
0.0
 40
0.0
 40
0.1446702591042559
 40
0.3907520209323659
 40
0.5962314811354595
 40
1.0
 40
1.0
 40
1.0
 40
1.0
 10
628.5066736686662
 20
581.2244128718727
 30
0.0
 10
628.175454691592
 20
581.1857206951402
 30
0.0
 10
627.2808376122819
 20
581.0812137540031
 30
0.0
 10
625.9269002655142
 20
580.8357137032667
 30
0.0
 10
624.0026645653228
 20
580.3961314065746
 30
0.0
 10
622.6707539139513
 20
579.944783597908
 30
0.0
 10
621.788053257665
 20
579.6456606751254
 30
0.0
  0
LINE
  5
CB
330
1F
100
AcDbEntity
  8
0
  6
Continuous
 62
     7
370
    25
100
AcDbLine
 10
628.5066736687
 20
581.2244128719
 30
0.0
 11
628.5042365316
 21
580.9818551853
 31
0.0
  0
LINE
  5
CC
330
1F
100
AcDbEntity
  8
0
  6
Continuous
 62
     7
370
    25
100
AcDbLine
 10
636.2360957035
 20
578.8942292642
 30
0.0
 11
636.1040635224
 21
578.6907405074
 31
0.0
  0
SPLINE
  5
CD
330
1F
100
AcDbEntity
  8
0
  6
Continuous
 62
     7
370
    25
100
AcDbSpline
210
0.0
220
0.0
230
1.0
 70
     8
 71
     3
 72
    11
 73
     7
 74
     0
 42
0.00000001
 43
0.00000001
 40
0.0
 40
0.0
 40
0.0
 40
0.0
 40
0.1446702591042557
 40
0.3907520209323694
 40
0.5962314811354859
 40
0.9999999999999999
 40
0.9999999999999999
 40
0.9999999999999999
 40
0.9999999999999999
 10
640.9626454176442
 20
573.8651094082207
 30
0.0
 10
640.763527521129
 20
574.1326073682162
 30
0.0
 10
640.2257133155775
 20
574.8551150149898
 30
0.0
 10
639.3361353616255
 20
575.9049091270548
 30
0.0
 10
637.9933280755405
 20
577.3515549779435
 30
0.0
 10
636.9364940816072
 20
578.2793495332689
 30
0.0
 10
636.2360957034801
 20
578.8942292641589
 30
0.0
  0
LINE
  5
CE
330
1F
100
AcDbEntity
  8
0
  6
Continuous
 62
     7
370
    25
100
AcDbLine
 10
640.7513657306
 20
573.7459411875
 30
0.0
 11
640.9626454176
 21
573.8651094082
 31
0.0
  0
SPLINE
  5
CF
330
1F
100
AcDbEntity
  8
0
  6
Continuous
 62
     7
370
    25
100
AcDbSpline
210
0.0
220
0.0
230
1.0
 70
     8
 71
     3
 72
    11
 73
     7
 74
     0
 42
0.00000001
 43
0.00000001
 40
0.0
 40
0.0
 40
0.0
 40
0.0
 40
0.144670259104254
 40
0.3907520209323653
 40
0.5962314811354789
 40
0.9999999999999999
 40
0.9999999999999999
 40
0.9999999999999999
 40
0.9999999999999999
 10
615.7599861613035
 20
559.650036945
 30
0.0
 10
615.9591040578185
 20
559.3825389850045
 30
0.0
 10
616.4969182633702
 20
558.6600313382311
 30
0.0
 10
617.3864962173221
 20
557.610237226166
 30
0.0
 10
618.7293035034072
 20
556.1635913752774
 30
0.0
 10
619.7861374973405
 20
555.2357968199518
 30
0.0
 10
620.4865358754677
 20
554.6209170890619
 30
0.0
  0
LINE
  5
D0
330
1F
100
AcDbEntity
  8
0
  6
Continuous
 62
     7
370
    25
100
AcDbLine
 10
615.7599861613
 20
559.650036945
 30
0.0
 11
615.9712658483
 21
559.7692051657
 31
0.0
  0
LINE
  5
D1
330
1F
100
AcDbEntity
  8
0
  6
Continuous
 62
     7
370
    25
100
AcDbLine
 10
642.567115712
 20
566.0187406102
 30
0.0
 11
642.8093582353
 21
566.0061417656
 31
0.0
  0
SPLINE
  5
D2
330
1F
100
AcDbEntity
  8
0
  6
Continuous
 62
     7
370
    25
100
AcDbSpline
210
0.0
220
0.0
230
1.0
 70
     8
 71
     3
 72
    11
 73
     7
 74
     0
 42
0.00000001
 43
0.00000001
 40
0.0
 40
0.0
 40
0.0
 40
0.0
 40
0.1446702591042546
 40
0.3907520209323575
 40
0.5962314811354746
 40
1.0
 40
1.0
 40
1.0
 40
1.0
 10
640.817287538452
 20
559.3982697129585
 30
0.0
 10
640.949388619011
 20
559.7044598496865
 30
0.0
 10
641.3061914927696
 20
560.5314744375971
 30
0.0
 10
641.7705508855852
 20
561.8267686003986
 30
0.0
 10
642.3519792996917
 20
563.7129967479793
 30
0.0
 10
642.6270559571298
 20
565.0921391119714
 30
0.0
 10
642.809358235289
 20
566.0061417656439
 30
0.0
  0
LINE
  5
D3
330
1F
100
AcDbEntity
  8
0
  6
Continuous
 62
     7
370
    25
100
AcDbLine
 10
640.6084449885
 20
559.5216591789
 30
0.0
 11
640.8172875385
 21
559.398269713
 31
0.0
  0
SPLINE
  5
D4
330
1F
100
AcDbEntity
  8
0
  6
Continuous
 62
     7
370
    25
100
AcDbSpline
210
0.0
220
0.0
230
1.0
 70
     8
 71
     3
 72
     9
 73
     5
 74
     0
 42
0.00000001
 43
0.00000001
 40
0.0
 40
0.0
 40
0.0
 40
0.0
 40
0.5862283062032672
 40
1.0
 40
1.0
 40
1.0
 40
1.0
 10
613.9132733436587
 20
567.509004587577
 30
0.0
 10
613.8590207064027
 20
567.1806787325613
 30
0.0
 10
613.7664754698765
 20
566.6206139053572
 30
0.0
 10
613.6954218546789
 20
566.0562370448229
 30
0.0
 10
613.6660218799682
 20
565.8227138752999
 30
0.0
  0
SPLINE
  5
D5
330
1F
100
AcDbEntity
  8
0
  6
Continuous
 62
     7
370
    25
100
AcDbSpline
210
0.0
220
0.0
230
1.0
 70
     8
 71
     3
 72
     9
 73
     5
 74
     0
 42
0.00000001
 43
0.00000001
 40
0.0
 40
0.0
 40
0.0
 40
0.0
 40
0.5863847898283634
 40
1.0
 40
1.0
 40
1.0
 40
1.0
 10
614.7875848843105
 20
561.0497317006921
 30
0.0
 10
614.9728577544349
 20
560.7723576416345
 30
0.0
 10
615.2888155919134
 20
560.2993336753431
 30
0.0
 10
615.6221245192648
 20
559.8400172180278
 30
0.0
 10
615.7599861613035
 20
559.650036945
 30
0.0
  0
ARC
  5
D6
330
1F
100
AcDbEntity
  8
0
  6
Continuous
 62
     7
370
    25
100
AcDbCircle
 10
628.3613157895
 20
566.7575731766
 30
0.0
 40
14.7250000000001
100
AcDbArc
 50
183.6400367407
 51
202.8070678661
  0
SPLINE
  5
D7
330
1F
100
AcDbEntity
  8
0
  6
Continuous
 62
     7
370
    25
100
AcDbSpline
210
0.0
220
0.0
230
1.0
 70
     8
 71
     3
 72
     9
 73
     5
 74
     0
 42
0.00000001
 43
0.00000001
 40
0.0
 40
0.0
 40
0.0
 40
0.0
 40
0.5862283062032703
 40
1.0
 40
1.0
 40
1.0
 40
1.0
 10
621.788053257665
 20
579.6456606751254
 30
0.0
 10
621.476588407874
 20
579.5284819097035
 30
0.0
 10
620.9452854214862
 20
579.3285960219325
 30
0.0
 10
620.4209939153565
 20
579.1079418274571
 30
0.0
 10
620.2040569308219
 20
579.0166413676659
 30
0.0
  0
SPLINE
  5
D8
330
1F
100
AcDbEntity
  8
0
  6
Continuous
 62
     7
370
    25
100
AcDbSpline
210
0.0
220
0.0
230
1.0
 70
     8
 71
     3
 72
     9
 73
     5
 74
     0
 42
0.00000001
 43
0.00000001
 40
0.0
 40
0.0
 40
0.0
 40
0.0
 40
0.5863847898283651
 40
0.9999999999999999
 40
0.9999999999999999
 40
0.9999999999999999
 40
0.9999999999999999
 10
616.6313146179724
 20
575.6588482266567
 30
0.0
 10
616.48373807154
 20
575.359710184968
 30
0.0
 10
616.232066218872
 20
574.8495706880412
 30
0.0
 10
616.0009409621363
 20
574.331258460989
 30
0.0
 10
615.9053440404957
 20
574.1168766402624
 30
0.0
  0
ARC
  5
D9
330
1F
100
AcDbEntity
  8
0
  6
Continuous
 62
     7
370
    25
100
AcDbCircle
 10
628.3613157895
 20
566.7575731766
 30
0.0
 40
14.72500000000008
100
AcDbArc
 50
123.6400367407
 51
142.8070678661
  0
SPLINE
  5
DA
330
1F
100
AcDbEntity
  8
0
  6
Continuous
 62
     7
370
    25
100
AcDbSpline
210
0.0
220
0.0
230
1.0
 70
     8
 71
     3
 72
     9
 73
     5
 74
     0
 42
0.00000001
 43
0.00000001
 40
0.0
 40
0.0
 40
0.0
 40
0.0
 40
0.5862283062032715
 40
1.0
 40
1.0
 40
1.0
 40
1.0
 10
636.2360957034801
 20
578.8942292641589
 30
0.0
 10
635.9788834909451
 20
579.1053763537527
 30
0.0
 10
635.5401257410836
 20
579.4655552931856
 30
0.0
 10
635.0868878501515
 20
579.8092779592447
 30
0.0
 10
634.8993508403275
 20
579.9515006689762
 30
0.0
  0
SPLINE
  5
DB
330
1F
100
AcDbEntity
  8
0
  6
Continuous
 62
     7
370
    25
100
AcDbSpline
210
0.0
220
0.0
230
1.0
 70
     8
 71
     3
 72
     9
 73
     5
 74
     0
 42
0.00000001
 43
0.00000001
 40
0.0
 40
0.0
 40
0.0
 40
0.0
 40
0.586384789828363
 40
0.9999999999999999
 40
0.9999999999999999
 40
0.9999999999999999
 40
0.9999999999999999
 10
630.2050455231358
 20
581.366689702575
 30
0.0
 10
629.8721961065788
 20
581.3449257199441
 30
0.0
 10
629.3045664164324
 20
581.3078101893085
 30
0.0
 10
628.7401322323453
 20
581.2488144195717
 30
0.0
 10
628.5066736686662
 20
581.2244128718727
 30
0.0
  0
ARC
  5
DC
330
1F
100
AcDbEntity
  8
0
  6
Continuous
 62
     7
370
    25
100
AcDbCircle
 10
628.3613157895
 20
566.7575731766
 30
0.0
 40
14.72499999999994
100
AcDbArc
 50
63.6400367407
 51
82.8070678661
  0
SPLINE
  5
DD
330
1F
100
AcDbEntity
  8
0
  6
Continuous
 62
     7
370
    25
100
AcDbSpline
210
0.0
220
0.0
230
1.0
 70
     8
 71
     3
 72
     9
 73
     5
 74
     0
 42
0.00000001
 43
0.00000001
 40
0.0
 40
0.0
 40
0.0
 40
0.0
 40
0.5863847898283576
 40
1.0
 40
1.0
 40
1.0
 40
1.0
 10
640.0913169609752
 20
557.8562981265641
 30
0.0
 10
640.2388935074077
 20
558.1554361682528
 30
0.0
 10
640.4905653600757
 20
558.6655756651797
 30
0.0
 10
640.7216906168113
 20
559.1838878922318
 30
0.0
 10
640.817287538452
 20
559.3982697129585
 30
0.0
  0
ARC
  5
DE
330
1F
100
AcDbEntity
  8
0
  6
Continuous
 62
     7
370
    25
100
AcDbCircle
 10
628.3613157895
 20
566.7575731766
 30
0.0
 40
14.72499999999997
100
AcDbArc
 50
303.6400367407
 51
322.8070678661
  0
SPLINE
  5
DF
330
1F
100
AcDbEntity
  8
0
  6
Continuous
 62
     7
370
    25
100
AcDbSpline
210
0.0
220
0.0
230
1.0
 70
     8
 71
     3
 72
     9
 73
     5
 74
     0
 42
0.00000001
 43
0.00000001
 40
0.0
 40
0.0
 40
0.0
 40
0.0
 40
0.586228306203287
 40
1.0
 40
1.0
 40
1.0
 40
1.0
 10
642.809358235289
 20
566.0061417656439
 30
0.0
 10
642.863610872545
 20
566.3344676206597
 30
0.0
 10
642.9561561090712
 20
566.8945324478636
 30
0.0
 10
643.0272097242688
 20
567.4589093083979
 30
0.0
 10
643.0566096989795
 20
567.6924324779209
 30
0.0
  0
SPLINE
  5
E0
330
1F
100
AcDbEntity
  8
0
  6
Continuous
 62
     7
370
    25
100
AcDbSpline
210
0.0
220
0.0
230
1.0
 70
     8
 71
     3
 72
     9
 73
     5
 74
     0
 42
0.00000001
 43
0.00000001
 40
0.0
 40
0.0
 40
0.0
 40
0.0
 40
0.5863847898283612
 40
1.0
 40
1.0
 40
1.0
 40
1.0
 10
641.9350466946372
 20
572.4654146525288
 30
0.0
 10
641.7497738245128
 20
572.7427887115864
 30
0.0
 10
641.4338159870343
 20
573.2158126778778
 30
0.0
 10
641.1005070596829
 20
573.6751291351931
 30
0.0
 10
640.9626454176442
 20
573.8651094082207
 30
0.0
  0
ARC
  5
E1
330
1F
100
AcDbEntity
  8
0
  6
Continuous
 62
     7
370
    25
100
AcDbCircle
 10
628.3613157895
 20
566.7575731766
 30
0.0
 40
14.72499999999998
100
AcDbArc
 50
3.6400367407
 51
22.8070678661
  0
SPLINE
  5
E2
330
1F
100
AcDbEntity
  8
0
  6
Continuous
 62
     7
370
    25
100
AcDbSpline
210
0.0
220
0.0
230
1.0
 70
    24
 71
     3
 72
    12
 73
     8
 74
     0
 42
0.00000001
 43
0.00000001
 40
0.0
 40
0.0
 40
0.0
 40
0.0
 40
0.3013828945620946
 40
0.4108442493795587
 40
0.6247185195336505
 40
0.6986171054378636
 40
0.9999999999999999
 40
0.9999999999999999
 40
0.9999999999999999
 40
0.9999999999999999
 10
620.2623129283471
 20
554.494448472841
 30
0.0
 10
619.7972094765058
 20
554.9893255282354
 30
0.0
 10
619.1631818591346
 20
555.6639404318253
 30
0.0
 10
618.1944659106
 20
556.6946687444761
 30
0.0
 10
617.5773411056512
 20
557.3512988018854
 30
0.0
 10
616.6640908791301
 20
558.3230107536021
 30
0.0
 10
616.0849582214537
 20
558.9392165959346
 30
0.0
 10
615.619865522264
 20
559.4340822103461
 30
0.0
  0
ARC
  5
E3
330
1F
100
AcDbEntity
  8
0
  6
Continuous
 62
     7
370
    25
100
AcDbCircle
 10
615.9980313313
 20
559.3421476001
 30
0.0
 40
0.3891803587968825
100
AcDbArc
 50
127.7094634934
 51
166.3360839425
  0
SPLINE
  5
E4
330
1F
100
AcDbEntity
  8
0
  6
Continuous
 62
     7
370
    25
100
AcDbSpline
210
0.0
220
0.0
230
1.0
 70
    24
 71
     3
 72
    12
 73
     8
 74
     0
 42
0.00000001
 43
0.00000001
 40
0.0
 40
0.0
 40
0.0
 40
0.0
 40
0.3013828945620993
 40
0.4108442493795573
 40
0.6247185195336495
 40
0.6986171054378605
 40
0.9999999999999999
 40
0.9999999999999999
 40
0.9999999999999999
 40
0.9999999999999999
 10
643.0309947432779
 20
565.8751933054366
 30
0.0
 10
642.834970367477
 20
565.2249633730569
 30
0.0
 10
642.5677505318822
 20
564.3385718979177
 30
0.0
 10
642.1594716029942
 20
562.98427512111
 30
0.0
 10
641.8993756948637
 20
562.1215143340143
 30
0.0
 10
641.5144735727765
 20
560.8447604619768
 30
0.0
 10
641.2703899881944
 20
560.0351139471015
 30
0.0
 10
641.0743701442495
 20
559.3848990472829
 30
0.0
  0
ARC
  5
E5
330
1F
100
AcDbEntity
  8
0
  6
Continuous
 62
     7
370
    25
100
AcDbCircle
 10
640.9649049477
 20
559.7583675499
 30
0.0
 40
0.3891803587960498
100
AcDbArc
 50
247.7094634934
 51
286.3360839426
  0
ARC
  5
E6
330
1F
100
AcDbEntity
  8
0
  6
Continuous
 62
     7
370
    25
100
AcDbCircle
 10
642.7333505811
 20
565.6244557845
 30
0.0
 40
0.3891803587971433
100
AcDbArc
 50
40.1110206644
 51
78.7376411135
  0
ARC
  5
E7
330
1F
100
AcDbEntity
  8
0
  6
Continuous
 62
     7
370
    25
100
AcDbCircle
 10
613.9892809979
 20
567.8906905687
 30
0.0
 40
0.3891803588379326
100
AcDbArc
 50
220.1110206664
 51
258.7376411113
  0
SPLINE
  5
E8
330
1F
100
AcDbEntity
  8
0
  6
Continuous
 62
     7
370
    25
100
AcDbSpline
210
0.0
220
0.0
230
1.0
 70
    24
 71
     3
 72
    12
 73
     8
 74
     0
 42
0.00000001
 43
0.00000001
 40
0.0
 40
0.0
 40
0.0
 40
0.0
 40
0.3013828945621505
 40
0.4108442493795786
 40
0.6247185195336595
 40
0.6986171054378616
 40
0.9999999999999999
 40
0.9999999999999999
 40
0.9999999999999999
 40
0.9999999999999999
 10
613.6916368356698
 20
567.6399530477844
 30
0.0
 10
613.8876612114707
 20
568.2901829801641
 30
0.0
 10
614.1548810470656
 20
569.1765744553035
 30
0.0
 10
614.5631599759536
 20
570.5308712321109
 30
0.0
 10
614.823255884084
 20
571.3936320192067
 30
0.0
 10
615.2081580061713
 20
572.6703858912441
 30
0.0
 10
615.4522415907533
 20
573.4800324061193
 30
0.0
 10
615.6482614346982
 20
574.1302473059379
 30
0.0
  0
ARC
  5
E9
330
1F
100
AcDbEntity
  8
0
  6
Continuous
 62
     7
370
    25
100
AcDbCircle
 10
615.7577266312
 20
573.7567788034
 30
0.0
 40
0.3891803587963698
100
AcDbArc
 50
67.7094634934
 51
106.3360839426
  0
ARC
  5
EA
330
1F
100
AcDbEntity
  8
0
  6
Continuous
 62
     7
370
    25
100
AcDbCircle
 10
622.1566068407
 20
579.7706791063
 30
0.0
 40
0.3891803588394594
100
AcDbArc
 50
160.1110206665
 51
198.7376411113
  0
SPLINE
  5
EB
330
1F
100
AcDbEntity
  8
0
  6
Continuous
 62
     7
370
    25
100
AcDbSpline
210
0.0
220
0.0
230
1.0
 70
    24
 71
     3
 72
    12
 73
     8
 74
     0
 42
0.00000001
 43
0.00000001
 40
0.0
 40
0.0
 40
0.0
 40
0.0
 40
0.3013828945621499
 40
0.4108442493795587
 40
0.6247185195336379
 40
0.6986171054378638
 40
1.0
 40
1.0
 40
1.0
 40
1.0
 10
621.7906396967965
 20
579.9030777515537
 30
0.0
 10
622.4517675244389
 20
580.058430628539
 30
0.0
 10
623.3530149774048
 20
580.2702072000883
 30
0.0
 10
624.7300098548275
 20
580.5937756642452
 30
0.0
 10
625.6072305679068
 20
580.7999063939317
 30
0.0
 10
626.9053829165149
 20
581.1049483142524
 30
0.0
 10
627.7285991587735
 20
581.2983889867951
 30
0.0
 10
628.389711701908
 20
581.4537382722023
 30
0.0
  0
ARC
  5
EC
330
1F
100
AcDbEntity
  8
0
  6
Continuous
 62
     7
370
    25
100
AcDbCircle
 10
628.1210110894
 20
581.1722043799
 30
0.0
 40
0.3891803587964021
100
AcDbArc
 50
7.7094634934
 51
46.3360839426
  0
SPLINE
  5
ED
330
1F
100
AcDbEntity
  8
0
  6
Continuous
 62
     7
370
    25
100
AcDbSpline
210
0.0
220
0.0
230
1.0
 70
    24
 71
     3
 72
    12
 73
     8
 74
     0
 42
0.00000001
 43
0.00000001
 40
0.0
 40
0.0
 40
0.0
 40
0.0
 40
0.3013828945621527
 40
0.4108442493795541
 40
0.6247185195336461
 40
0.6986171054378585
 40
1.0
 40
1.0
 40
1.0
 40
1.0
 10
636.4603186506006
 20
579.0206978803797
 30
0.0
 10
636.9254221024421
 20
578.5258208249853
 30
0.0
 10
637.5594497198131
 20
577.8512059213954
 30
0.0
 10
638.5281656683478
 20
576.8204776087447
 30
0.0
 10
639.1452904732965
 20
576.1638475513354
 30
0.0
 10
640.0585406998176
 20
575.1921355996187
 30
0.0
 10
640.637673357494
 20
574.5759297572863
 30
0.0
 10
641.1027660566835
 20
574.0810641428748
 30
0.0
  0
ARC
  5
EE
330
1F
100
AcDbEntity
  8
0
  6
Continuous
 62
     7
370
    25
100
AcDbCircle
 10
640.7246002477
 20
574.1729987532
 30
0.0
 40
0.3891803587952385
100
AcDbArc
 50
307.7094634933
 51
346.3360839426
  0
ARC
  5
EF
330
1F
100
AcDbEntity
  8
0
  6
Continuous
 62
     7
370
    25
100
AcDbCircle
 10
636.5286416323
 20
578.6375617142
 30
0.0
 40
0.3891803587971433
100
AcDbArc
 50
100.1110206643
 51
138.7376411134
  0
LINE
  5
F0
330
1F
100
AcDbEntity
  8
0
  6
Continuous
 62
     7
370
    25
100
AcDbLine
 10
615.6198655223
 20
559.4340822103
 30
0.0
 11
614.4232412982
 21
560.7073083498
 31
0.0
  0
LINE
  5
F1
330
1F
100
AcDbEntity
  8
0
  6
Continuous
 62
     7
370
    25
100
AcDbLine
 10
614.7875848843
 20
561.0497317007
 30
0.0
 11
614.4232412982
 21
560.7073083498
 31
0.0
  0
LINE
  5
F2
330
1F
100
AcDbEntity
  8
0
  6
Continuous
 62
     7
370
    25
100
AcDbLine
 10
615.6482614347
 20
574.1302473059
 30
0.0
 11
616.1525955042
 21
575.8031673525
 31
0.0
  0
LINE
  5
F3
330
1F
100
AcDbEntity
  8
0
  6
Continuous
 62
     7
370
    25
100
AcDbLine
 10
616.1525955042
 20
575.8031673525
 30
0.0
 11
616.631314618
 21
575.6588482267
 31
0.0
  0
LINE
  5
F4
330
1F
100
AcDbEntity
  8
0
  6
Continuous
 62
     7
370
    25
100
AcDbLine
 10
641.0743701442
 20
559.3848990473
 30
0.0
 11
640.5700360748
 21
557.7119790007
 31
0.0
  0
LINE
  5
F5
330
1F
100
AcDbEntity
  8
0
  6
Continuous
 62
     7
370
    25
100
AcDbLine
 10
640.5700360748
 20
557.7119790007
 30
0.0
 11
640.091316961
 21
557.8562981266
 31
0.0
  0
LINE
  5
F6
330
1F
100
AcDbEntity
  8
0
  6
Continuous
 62
     7
370
    25
100
AcDbLine
 10
628.3897117019
 20
581.4537382722
 30
0.0
 11
630.0906699955
 21
581.8534321793
 31
0.0
  0
LINE
  5
F7
330
1F
100
AcDbEntity
  8
0
  6
Continuous
 62
     7
370
    25
100
AcDbLine
 10
630.0906699955
 20
581.8534321793
 30
0.0
 11
630.2050455231
 21
581.3666897026
 31
0.0
  0
LINE
  5
F8
330
1F
100
AcDbEntity
  8
0
  6
Continuous
 62
     7
370
    25
100
AcDbLine
 10
641.1027660567
 20
574.0810641429
 30
0.0
 11
642.2993902808
 21
572.8078380034
 31
0.0
  0
LINE
  5
F9
330
1F
100
AcDbEntity
  8
0
  6
Continuous
 62
     7
370
    25
100
AcDbLine
 10
642.2993902808
 20
572.8078380034
 30
0.0
 11
641.9350466946
 21
572.4654146525
 31
0.0
  0
LINE
  5
FA
330
1F
100
AcDbEntity
  8
0
  6
Continuous
 62
     7
370
    25
100
AcDbLine
 10
613.66602188
 20
565.8227138753
 30
0.0
 11
613.1873027662
 21
565.9670330012
 31
0.0
  0
LINE
  5
FB
330
1F
100
AcDbEntity
  8
0
  6
Continuous
 62
     7
370
    25
100
AcDbLine
 10
613.1873027662
 20
565.9670330012
 30
0.0
 11
613.6916368357
 21
567.6399530478
 31
0.0
  0
LINE
  5
FC
330
1F
100
AcDbEntity
  8
0
  6
Continuous
 62
     7
370
    25
100
AcDbLine
 10
620.4613157895
 20
554.282706441
 30
0.0
 11
620.2623129283
 21
554.4944484728
 31
0.0
  0
LINE
  5
FD
330
1F
100
AcDbEntity
  8
0
  6
Continuous
 62
     7
370
    25
100
AcDbLine
 10
620.2040569308
 20
579.0166413677
 30
0.0
 11
620.0896814032
 21
579.5033838444
 31
0.0
  0
LINE
  5
FE
330
1F
100
AcDbEntity
  8
0
  6
Continuous
 62
     7
370
    25
100
AcDbLine
 10
620.0896814032
 20
579.5033838444
 30
0.0
 11
621.7906396968
 21
579.9030777516
 31
0.0
  0
LINE
  5
FF
330
1F
100
AcDbEntity
  8
0
  6
Continuous
 62
     7
370
    25
100
AcDbLine
 10
636.6329501758
 20
554.0117625088
 30
0.0
 11
636.2613157895
 21
553.9244352648
 31
0.0
  0
LINE
  5
100
330
1F
100
AcDbEntity
  8
0
  6
Continuous
 62
     7
370
    25
100
AcDbLine
 10
636.6329501758
 20
554.0117625088
 30
0.0
 11
636.5185746481
 21
554.4985049856
 31
0.0
  0
LINE
  5
101
330
1F
100
AcDbEntity
  8
0
  6
Continuous
 62
     7
370
    25
100
AcDbLine
 10
635.2636944265
 20
580.2939240199
 30
0.0
 11
636.4603186506
 21
579.0206978804
 31
0.0
  0
LINE
  5
102
330
1F
100
AcDbEntity
  8
0
  6
Continuous
 62
     7
370
    25
100
AcDbLine
 10
634.8993508403
 20
579.951500669
 30
0.0
 11
635.2636944265
 21
580.2939240199
 31
0.0
  0
LINE
  5
103
330
1F
100
AcDbEntity
  8
0
  6
Continuous
 62
     7
370
    25
100
AcDbLine
 10
643.5353288128
 20
567.548113352
 30
0.0
 11
643.0309947433
 21
565.8751933054
 31
0.0
  0
LINE
  5
104
330
1F
100
AcDbEntity
  8
0
  6
Continuous
 62
     7
370
    25
100
AcDbLine
 10
643.056609699
 20
567.6924324779
 30
0.0
 11
643.5353288128
 21
567.548113352
 31
0.0
  0
ARC
  5
105
330
1F
100
AcDbEntity
  8
0
  6
Continuous
 62
     7
370
    25
100
AcDbCircle
 10
628.3613157895
 20
566.7575731766
 30
0.0
 40
15.50000000000007
100
AcDbArc
 50
190.309742062
 51
196.1373625449
  0
LINE
  5
106
330
1F
100
AcDbEntity
  8
0
  6
Continuous
 62
     7
370
    25
100
AcDbLine
 10
613.4720450354
 20
562.4494858502
 30
0.0
 11
612.9917459788
 21
562.3105152913
 31
0.0
  0
ARC
  5
107
330
1F
100
AcDbEntity
  8
0
  6
Continuous
 62
     7
370
    25
100
AcDbCircle
 10
628.3613157895
 20
566.7575731766
 30
0.0
 40
16.00000000000012
100
AcDbArc
 50
190.309742062
 51
196.1373625449
  0
LINE
  5
108
330
1F
100
AcDbEntity
  8
0
  6
Continuous
 62
     7
370
    25
100
AcDbLine
 10
613.1115691519
 20
563.9835458717
 30
0.0
 11
612.619641841
 21
563.8940611199
 31
0.0
  0
LINE
  5
109
330
1F
100
AcDbEntity
  8
0
  6
Continuous
 62
     7
370
    25
100
AcDbLine
 10
613.4720450354
 20
562.4494858502
 30
0.0
 11
614.7875848843
 21
561.0497317007
 31
0.0
  0
LINE
  5
10A
330
1F
100
AcDbEntity
  8
0
  6
Continuous
 62
     7
370
    25
100
AcDbLine
 10
614.4232412982
 20
560.7073083498
 30
0.0
 11
613.1077014492
 21
562.1070624994
 31
0.0
  0
LINE
  5
10B
330
1F
100
AcDbEntity
  8
0
  6
Continuous
 62
     7
370
    25
100
AcDbLine
 10
613.4720450354
 20
562.4494858502
 30
0.0
 11
613.1077014492
 21
562.1070624994
 31
0.0
  0
LINE
  5
10C
330
1F
100
AcDbEntity
  8
0
  6
Continuous
 62
     7
370
    25
100
AcDbLine
 10
613.66602188
 20
565.8227138753
 30
0.0
 11
613.1115691519
 21
563.9835458717
 31
0.0
  0
ARC
  5
10D
330
1F
100
AcDbEntity
  8
0
  6
Continuous
 62
     7
370
    25
100
AcDbCircle
 10
613.4720450354
 20
562.4494858502
 30
0.0
 40
0.5000000000001065
100
AcDbArc
 50
196.1373625449
 51
223.2235523034
  0
LINE
  5
10E
330
1F
100
AcDbEntity
  8
0
  6
Continuous
 62
     7
370
    25
100
AcDbLine
 10
613.1115691519
 20
563.9835458717
 30
0.0
 11
612.6328500381
 21
564.1278649975
 31
0.0
  0
LINE
  5
10F
330
1F
100
AcDbEntity
  8
0
  6
Continuous
 62
     7
370
    25
100
AcDbLine
 10
612.6328500381
 20
564.1278649975
 30
0.0
 11
613.1873027662
 21
565.9670330012
 31
0.0
  0
ARC
  5
110
330
1F
100
AcDbEntity
  8
0
  6
Continuous
 62
     7
370
    25
100
AcDbCircle
 10
613.1115691519
 20
563.9835458717
 30
0.0
 40
0.5000000000000252
100
AcDbArc
 50
163.2235523034
 51
190.309742062
  0
LINE
  5
111
330
1F
100
AcDbEntity
  8
0
  6
Continuous
 62
     7
370
    25
100
AcDbLine
 10
620.2040569308
 20
579.0166413677
 30
0.0
 11
618.3340643538
 21
578.5772275136
 31
0.0
  0
LINE
  5
112
330
1F
100
AcDbEntity
  8
0
  6
Continuous
 62
     7
370
    25
100
AcDbLine
 10
617.1857673461
 20
577.4980162303
 30
0.0
 11
616.631314618
 21
575.6588482267
 31
0.0
  0
ARC
  5
113
330
1F
100
AcDbEntity
  8
0
  6
Continuous
 62
     7
370
    25
100
AcDbCircle
 10
628.3613157895
 20
566.7575731766
 30
0.0
 40
15.5000000000001
100
AcDbArc
 50
130.309742062
 51
136.1373625449
  0
ARC
  5
114
330
1F
100
AcDbEntity
  8
0
  6
Continuous
 62
     7
370
    25
100
AcDbCircle
 10
617.1857673461
 20
577.4980162303
 30
0.0
 40
0.5000000000000329
100
AcDbArc
 50
136.1373625448
 51
163.2235523034
  0
LINE
  5
115
330
1F
100
AcDbEntity
  8
0
  6
Continuous
 62
     7
370
    25
100
AcDbLine
 10
617.1857673461
 20
577.4980162303
 30
0.0
 11
616.8252657834
 21
577.8444821352
 31
0.0
  0
LINE
  5
116
330
1F
100
AcDbEntity
  8
0
  6
Continuous
 62
     7
370
    25
100
AcDbLine
 10
616.7070482323
 20
577.6423353562
 30
0.0
 11
617.1857673461
 21
577.4980162303
 31
0.0
  0
LINE
  5
117
330
1F
100
AcDbEntity
  8
0
  6
Continuous
 62
     7
370
    25
100
AcDbLine
 10
616.1525955042
 20
575.8031673525
 30
0.0
 11
616.7070482323
 21
577.6423353562
 31
0.0
  0
ARC
  5
118
330
1F
100
AcDbEntity
  8
0
  6
Continuous
 62
     7
370
    25
100
AcDbCircle
 10
628.3613157895
 20
566.7575731766
 30
0.0
 40
16.00000000000009
100
AcDbArc
 50
130.309742062
 51
136.1373625449
  0
LINE
  5
119
330
1F
100
AcDbEntity
  8
0
  6
Continuous
 62
     7
370
    25
100
AcDbLine
 10
618.3340643538
 20
578.5772275136
 30
0.0
 11
618.0106046301
 21
578.9585066857
 31
0.0
  0
LINE
  5
11A
330
1F
100
AcDbEntity
  8
0
  6
Continuous
 62
     7
370
    25
100
AcDbLine
 10
618.3340643538
 20
578.5772275136
 30
0.0
 11
618.2196888262
 21
579.0639699903
 31
0.0
  0
LINE
  5
11B
330
1F
100
AcDbEntity
  8
0
  6
Continuous
 62
     7
370
    25
100
AcDbLine
 10
618.2196888262
 20
579.0639699903
 30
0.0
 11
620.0896814032
 21
579.5033838444
 31
0.0
  0
ARC
  5
11C
330
1F
100
AcDbEntity
  8
0
  6
Continuous
 62
     7
370
    25
100
AcDbCircle
 10
618.3340643538
 20
578.5772275136
 30
0.0
 40
0.4999999999999978
100
AcDbArc
 50
103.2235523034
 51
130.309742062
  0
LINE
  5
11D
330
1F
100
AcDbEntity
  8
0
  6
Continuous
 62
     7
370
    25
100
AcDbLine
 10
636.5185746481
 20
554.4985049856
 30
0.0
 11
638.3885672252
 21
554.9379188396
 31
0.0
  0
LINE
  5
11E
330
1F
100
AcDbEntity
  8
0
  6
Continuous
 62
     7
370
    25
100
AcDbLine
 10
639.5368642329
 20
556.0171301229
 30
0.0
 11
640.091316961
 21
557.8562981266
 31
0.0
  0
ARC
  5
11F
330
1F
100
AcDbEntity
  8
0
  6
Continuous
 62
     7
370
    25
100
AcDbCircle
 10
628.3613157895
 20
566.7575731766
 30
0.0
 40
15.50000000000006
100
AcDbArc
 50
310.309742062
 51
316.1373625449
  0
LINE
  5
120
330
1F
100
AcDbEntity
  8
0
  6
Continuous
 62
     7
370
    25
100
AcDbLine
 10
638.5029427528
 20
554.4511763629
 30
0.0
 11
636.6329501758
 21
554.0117625088
 31
0.0
  0
LINE
  5
121
330
1F
100
AcDbEntity
  8
0
  6
Continuous
 62
     7
370
    25
100
AcDbLine
 10
638.5029427528
 20
554.4511763629
 30
0.0
 11
638.3885672252
 21
554.9379188396
 31
0.0
  0
ARC
  5
122
330
1F
100
AcDbEntity
  8
0
  6
Continuous
 62
     7
370
    25
100
AcDbCircle
 10
628.3613157895
 20
566.7575731766
 30
0.0
 40
16.00000000000002
100
AcDbArc
 50
310.309742062
 51
316.1373625449
  0
LINE
  5
123
330
1F
100
AcDbEntity
  8
0
  6
Continuous
 62
     7
370
    25
100
AcDbLine
 10
638.7120269489
 20
554.5566396675
 30
0.0
 11
638.3885672252
 21
554.9379188396
 31
0.0
  0
LINE
  5
124
330
1F
100
AcDbEntity
  8
0
  6
Continuous
 62
     7
370
    25
100
AcDbLine
 10
639.8973657956
 20
555.670664218
 30
0.0
 11
639.5368642329
 21
556.0171301229
 31
0.0
  0
ARC
  5
125
330
1F
100
AcDbEntity
  8
0
  6
Continuous
 62
     7
370
    25
100
AcDbCircle
 10
638.3885672252
 20
554.9379188396
 30
0.0
 40
0.5000000000000199
100
AcDbArc
 50
283.2235523034
 51
310.309742062
  0
LINE
  5
126
330
1F
100
AcDbEntity
  8
0
  6
Continuous
 62
     7
370
    25
100
AcDbLine
 10
634.8993508403
 20
579.951500669
 30
0.0
 11
633.5838109914
 21
581.3512548185
 31
0.0
  0
LINE
  5
127
330
1F
100
AcDbEntity
  8
0
  6
Continuous
 62
     7
370
    25
100
AcDbLine
 10
632.0750381002
 20
581.8061035567
 30
0.0
 11
630.2050455231
 21
581.3666897026
 31
0.0
  0
ARC
  5
128
330
1F
100
AcDbEntity
  8
0
  6
Continuous
 62
     7
370
    25
100
AcDbCircle
 10
628.3613157895
 20
566.7575731766
 30
0.0
 40
15.49999999999998
100
AcDbArc
 50
70.309742062
 51
76.1373625448
  0
LINE
  5
129
330
1F
100
AcDbEntity
  8
0
  6
Continuous
 62
     7
370
    25
100
AcDbLine
 10
640.5700360748
 20
557.7119790007
 30
0.0
 11
640.0155833467
 21
555.872810997
 31
0.0
  0
LINE
  5
12A
330
1F
100
AcDbEntity
  8
0
  6
Continuous
 62
     7
370
    25
100
AcDbLine
 10
640.0155833467
 20
555.872810997
 30
0.0
 11
639.5368642329
 21
556.0171301229
 31
0.0
  0
LINE
  5
12B
330
1F
100
AcDbEntity
  8
0
  6
Continuous
 62
     7
370
    25
100
AcDbLine
 10
630.0906699955
 20
581.8534321793
 30
0.0
 11
631.9606625725
 21
582.2928460334
 31
0.0
  0
LINE
  5
12C
330
1F
100
AcDbEntity
  8
0
  6
Continuous
 62
     7
370
    25
100
AcDbLine
 10
631.9606625725
 20
582.2928460334
 30
0.0
 11
632.0750381002
 21
581.8061035567
 31
0.0
  0
ARC
  5
12D
330
1F
100
AcDbEntity
  8
0
  6
Continuous
 62
     7
370
    25
100
AcDbCircle
 10
639.5368642329
 20
556.0171301229
 30
0.0
 40
0.4999999999999342
100
AcDbArc
 50
316.1373625448
 51
343.2235523034
  0
LINE
  5
12E
330
1F
100
AcDbEntity
  8
0
  6
Continuous
 62
     7
370
    25
100
AcDbLine
 10
633.5838109914
 20
581.3512548185
 30
0.0
 11
633.9481545776
 21
581.6936781694
 31
0.0
  0
LINE
  5
12F
330
1F
100
AcDbEntity
  8
0
  6
Continuous
 62
     7
370
    25
100
AcDbLine
 10
633.9481545776
 20
581.6936781694
 30
0.0
 11
635.2636944265
 21
580.2939240199
 31
0.0
  0
ARC
  5
130
330
1F
100
AcDbEntity
  8
0
  6
Continuous
 62
     7
370
    25
100
AcDbCircle
 10
633.5838109914
 20
581.3512548185
 30
0.0
 40
0.5000000000000793
100
AcDbArc
 50
43.2235523034
 51
70.309742062
  0
LINE
  5
131
330
1F
100
AcDbEntity
  8
0
  6
Continuous
 62
     7
370
    25
100
AcDbLine
 10
633.7522785786
 20
581.8220187425
 30
0.0
 11
633.5838109914
 21
581.3512548185
 31
0.0
  0
ARC
  5
132
330
1F
100
AcDbEntity
  8
0
  6
Continuous
 62
     7
370
    25
100
AcDbCircle
 10
628.3613157895
 20
566.7575731766
 30
0.0
 40
15.99999999999998
100
AcDbArc
 50
70.309742062
 51
76.1373625449
  0
LINE
  5
133
330
1F
100
AcDbEntity
  8
0
  6
Continuous
 62
     7
370
    25
100
AcDbLine
 10
632.0750381002
 20
581.8061035567
 30
0.0
 11
632.1948355941
 21
582.2915400205
 31
0.0
  0
ARC
  5
134
330
1F
100
AcDbEntity
  8
0
  6
Continuous
 62
     7
370
    25
100
AcDbCircle
 10
632.0750381002
 20
581.8061035567
 30
0.0
 40
0.5000000000000459
100
AcDbArc
 50
76.1373625449
 51
103.2235523034
  0
LINE
  5
135
330
1F
100
AcDbEntity
  8
0
  6
Continuous
 62
     7
370
    25
100
AcDbLine
 10
643.056609699
 20
567.6924324779
 30
0.0
 11
643.6110624271
 21
569.5316004816
 31
0.0
  0
LINE
  5
136
330
1F
100
AcDbEntity
  8
0
  6
Continuous
 62
     7
370
    25
100
AcDbLine
 10
643.2505865436
 20
571.065660503
 30
0.0
 11
641.9350466946
 21
572.4654146525
 31
0.0
  0
ARC
  5
137
330
1F
100
AcDbEntity
  8
0
  6
Continuous
 62
     7
370
    25
100
AcDbCircle
 10
628.3613157895
 20
566.7575731766
 30
0.0
 40
15.49999999999996
100
AcDbArc
 50
10.309742062
 51
16.1373625449
  0
LINE
  5
138
330
1F
100
AcDbEntity
  8
0
  6
Continuous
 62
     7
370
    25
100
AcDbLine
 10
643.6110624271
 20
569.5316004816
 30
0.0
 11
644.0897815409
 21
569.3872813557
 31
0.0
  0
LINE
  5
139
330
1F
100
AcDbEntity
  8
0
  6
Continuous
 62
     7
370
    25
100
AcDbLine
 10
644.0897815409
 20
569.3872813557
 30
0.0
 11
643.5353288128
 21
567.548113352
 31
0.0
  0
ARC
  5
13A
330
1F
100
AcDbEntity
  8
0
  6
Continuous
 62
     7
370
    25
100
AcDbCircle
 10
643.6110624271
 20
569.5316004816
 30
0.0
 40
0.5000000000000252
100
AcDbArc
 50
343.2235523034
 51
10.309742062
  0
LINE
  5
13B
330
1F
100
AcDbEntity
  8
0
  6
Continuous
 62
     7
370
    25
100
AcDbLine
 10
644.102989738
 20
569.6210852333
 30
0.0
 11
643.6110624271
 21
569.5316004816
 31
0.0
  0
LINE
  5
13C
330
1F
100
AcDbEntity
  8
0
  6
Continuous
 62
     7
370
    25
100
AcDbLine
 10
643.7308856001
 20
571.2046310619
 30
0.0
 11
643.2505865436
 21
571.065660503
 31
0.0
  0
LINE
  5
13D
330
1F
100
AcDbEntity
  8
0
  6
Continuous
 62
     7
370
    25
100
AcDbLine
 10
643.6149301297
 20
571.4080838538
 30
0.0
 11
643.2505865436
 21
571.065660503
 31
0.0
  0
ARC
  5
13E
330
1F
100
AcDbEntity
  8
0
  6
Continuous
 62
     7
370
    25
100
AcDbCircle
 10
643.2505865436
 20
571.065660503
 30
0.0
 40
0.5000000000000748
100
AcDbArc
 50
16.1373625448
 51
43.2235523034
  0
LINE
  5
13F
330
1F
100
AcDbEntity
  8
0
  6
Continuous
 62
     7
370
    25
100
AcDbLine
 10
642.2993902808
 20
572.8078380034
 30
0.0
 11
643.6149301297
 21
571.4080838538
 31
0.0
  0
ARC
  5
140
330
1F
100
AcDbEntity
  8
0
  6
Continuous
 62
     7
370
    25
100
AcDbCircle
 10
628.3613157895
 20
566.7575731766
 30
0.0
 40
15.99999999999998
100
AcDbArc
 50
10.309742062
 51
16.1373625448
  0
ARC
  5
141
330
1F
100
AcDbEntity
  8
0
  6
Continuous
 62
     7
370
    25
100
AcDbCircle
 10
628.3613157895
 20
566.7575731766
 30
0.0
 40
9.574999999999934
100
AcDbArc
 50
325.5951096848
 51
214.4048903152
  0
ARC
  5
142
330
1F
100
AcDbEntity
  8
0
  6
Continuous
 62
     7
370
    25
100
AcDbCircle
 10
628.3613157895
 20
566.7575731766
 30
0.0
 40
8.249999999999982
100
AcDbArc
 50
343.2508741362
 51
196.7491258638
  0
ARC
  5
143
330
1F
100
AcDbEntity
  8
0
  6
Continuous
 62
     7
370
    25
100
AcDbCircle
 10
628.3613157895
 20
566.7575731766
 30
0.0
 40
8.049999999999986
100
AcDbArc
 50
348.9219835539
 51
191.0780164461
  0
LINE
  5
144
330
1F
100
AcDbEntity
  8
0
  6
Continuous
 62
     7
370
    25
100
AcDbLine
 10
575.2012780662
 20
565.5124940849
 30
0.0
 11
574.8943371104
 21
566.6725747931
 31
0.0
  0
LINE
  5
145
330
1F
100
AcDbEntity
  8
0
  6
Continuous
 62
     7
370
    25
100
AcDbLine
 10
576.4096954706
 20
565.8322242472
 30
0.0
 11
575.2012780662
 21
565.5124940849
 31
0.0
  0
SPLINE
  5
146
330
1F
100
AcDbEntity
  8
0
  6
Continuous
 62
     7
370
    25
100
AcDbSpline
210
0.0
220
0.0
230
1.0
 70
     8
 71
     3
 72
    12
 73
     8
 74
     0
 42
0.00000001
 43
0.00000001
 40
0.0
 40
0.0
 40
0.0
 40
0.0
 40
0.2133534395476174
 40
0.4267919313634542
 40
0.6383539739091988
 40
0.8490950351927484
 40
1.0
 40
1.0
 40
1.0
 40
1.0
 10
577.3265840106608
 20
565.2990119019241
 30
0.0
 10
577.2973955717108
 20
565.3776559288352
 30
0.0
 10
577.2390070579874
 20
565.5349753337007
 30
0.0
 10
577.0585901772426
 20
565.7187787385662
 30
0.0
 10
576.8341805810132
 20
565.8343072256245
 30
0.0
 10
576.6065215371117
 20
565.8699220053724
 30
0.0
 10
576.467644886704
 20
565.8433231992357
 30
0.0
 10
576.4096954706165
 20
565.832224247182
 30
0.0
  0
LINE
  5
147
330
1F
100
AcDbEntity
  8
0
  6
Continuous
 62
     7
370
    25
100
AcDbLine
 10
577.646314173
 20
564.0905944975
 30
0.0
 11
577.3265840107
 21
565.2990119019
 31
0.0
  0
LINE
  5
148
330
1F
100
AcDbEntity
  8
0
  6
Continuous
 62
     7
370
    25
100
AcDbLine
 10
578.8063948812
 20
564.3975354533
 30
0.0
 11
577.646314173
 21
564.0905944975
 31
0.0
  0
LINE
  5
149
330
1F
100
AcDbEntity
  8
0
  6
Continuous
 62
     7
370
    25
100
AcDbLine
 10
578.4866647189
 20
565.6059528578
 30
0.0
 11
578.8063948812
 21
564.3975354533
 31
0.0
  0
SPLINE
  5
14A
330
1F
100
AcDbEntity
  8
0
  6
Continuous
 62
     7
370
    25
100
AcDbSpline
210
0.0
220
0.0
230
1.0
 70
     8
 71
     3
 72
    12
 73
     8
 74
     0
 42
0.00000001
 43
0.00000001
 40
0.0
 40
0.0
 40
0.0
 40
0.0
 40
0.2133534395475718
 40
0.4267919313633937
 40
0.6383539739091387
 40
0.8490950351927584
 40
1.0
 40
1.0
 40
1.0
 40
1.0
 10
579.0198770641604
 20
566.5228413977976
 30
0.0
 10
578.9412330372492
 20
566.4936529588476
 30
0.0
 10
578.7839136323838
 20
566.4352644451243
 30
0.0
 10
578.6001102275184
 20
566.2548475643796
 30
0.0
 10
578.4845817404599
 20
566.0304379681501
 30
0.0
 10
578.4489669607123
 20
565.8027789242485
 30
0.0
 10
578.4755657668488
 20
565.6639022738408
 30
0.0
 10
578.4866647189024
 20
565.6059528577533
 30
0.0
  0
LINE
  5
14B
330
1F
100
AcDbEntity
  8
0
  6
Continuous
 62
     7
370
    25
100
AcDbLine
 10
580.2282944686
 20
566.8425715601
 30
0.0
 11
579.0198770642
 21
566.5228413978
 31
0.0
  0
LINE
  5
14C
330
1F
100
AcDbEntity
  8
0
  6
Continuous
 62
     7
370
    25
100
AcDbLine
 10
579.9213535127
 20
568.0026522684
 30
0.0
 11
580.2282944686
 21
566.8425715601
 31
0.0
  0
LINE
  5
14D
330
1F
100
AcDbEntity
  8
0
  6
Continuous
 62
     7
370
    25
100
AcDbLine
 10
578.7129361083
 20
567.682922106
 30
0.0
 11
579.9213535127
 21
568.0026522684
 31
0.0
  0
SPLINE
  5
14E
330
1F
100
AcDbEntity
  8
0
  6
Continuous
 62
     7
370
    25
100
AcDbSpline
210
0.0
220
0.0
230
1.0
 70
     8
 71
     3
 72
    12
 73
     8
 74
     0
 42
0.00000001
 43
0.00000001
 40
0.0
 40
0.0
 40
0.0
 40
0.0
 40
0.2133534395475737
 40
0.4267919313634795
 40
0.6383539739092322
 40
0.8490950351927958
 40
1.0
 40
1.0
 40
1.0
 40
1.0
 10
577.7960475682869
 20
568.2161344512973
 30
0.0
 10
577.8252360072369
 20
568.1374904243861
 30
0.0
 10
577.8836245209602
 20
567.9801710195206
 30
0.0
 10
578.064041401705
 20
567.7963676146551
 30
0.0
 10
578.2884509979344
 20
567.680839127597
 30
0.0
 10
578.516110041836
 20
567.6452243478491
 30
0.0
 10
578.6549866922437
 20
567.6718231539858
 30
0.0
 10
578.7129361083312
 20
567.6829221060394
 30
0.0
  0
LINE
  5
14F
330
1F
100
AcDbEntity
  8
0
  6
Continuous
 62
     7
370
    25
100
AcDbLine
 10
577.476317406
 20
569.4245518557
 30
0.0
 11
577.7960475683
 21
568.2161344513
 31
0.0
  0
LINE
  5
150
330
1F
100
AcDbEntity
  8
0
  6
Continuous
 62
     7
370
    25
100
AcDbLine
 10
576.3162366977
 20
569.1176108999
 30
0.0
 11
577.476317406
 21
569.4245518557
 31
0.0
  0
LINE
  5
151
330
1F
100
AcDbEntity
  8
0
  6
Continuous
 62
     7
370
    25
100
AcDbLine
 10
576.63596686
 20
567.9091934955
 30
0.0
 11
576.3162366977
 21
569.1176108999
 31
0.0
  0
SPLINE
  5
152
330
1F
100
AcDbEntity
  8
0
  6
Continuous
 62
     7
370
    25
100
AcDbSpline
210
0.0
220
0.0
230
1.0
 70
     8
 71
     3
 72
    12
 73
     8
 74
     0
 42
0.00000001
 43
0.00000001
 40
0.0
 40
0.0
 40
0.0
 40
0.0
 40
0.2133534395475453
 40
0.4267919313633859
 40
0.6383539739091149
 40
0.8490950351927251
 40
1.0
 40
1.0
 40
1.0
 40
1.0
 10
576.1027545147873
 20
566.9923049554237
 30
0.0
 10
576.1813985416985
 20
567.0214933943738
 30
0.0
 10
576.3387179465637
 20
567.0798819080971
 30
0.0
 10
576.5225213514293
 20
567.2602987888419
 30
0.0
 10
576.6380498384876
 20
567.4847083850713
 30
0.0
 10
576.6736646182354
 20
567.7123674289729
 30
0.0
 10
576.6470658120988
 20
567.8512440793805
 30
0.0
 10
576.6359668600452
 20
567.9091934954681
 30
0.0
  0
LINE
  5
153
330
1F
100
AcDbEntity
  8
0
  6
Continuous
 62
     7
370
    25
100
AcDbLine
 10
574.8943371104
 20
566.6725747931
 30
0.0
 11
576.1027545148
 21
566.9923049554
 31
0.0
  0
CIRCLE
  5
154
330
1F
100
AcDbEntity
  8
0
  6
Continuous
 62
     7
370
    25
100
AcDbCircle
 10
577.5613157895
 20
566.7575731766
 30
0.0
 40
4.197433366238792
  0
CIRCLE
  5
155
330
1F
100
AcDbEntity
  8
0
  6
Continuous
 62
     7
370
    25
100
AcDbCircle
 10
577.5613157895
 20
566.7575731766
 30
0.0
 40
4.499999999999949
  0
LINE
  5
156
330
1F
100
AcDbEntity
  8
0
  6
Continuous
 62
     7
370
    25
100
AcDbLine
 10
676.4943371104
 20
566.8425715601
 30
0.0
 11
676.8012780662
 21
568.0026522684
 31
0.0
  0
LINE
  5
157
330
1F
100
AcDbEntity
  8
0
  6
Continuous
 62
     7
370
    25
100
AcDbLine
 10
677.7027545148
 20
566.5228413978
 30
0.0
 11
676.4943371104
 21
566.8425715601
 31
0.0
  0
SPLINE
  5
158
330
1F
100
AcDbEntity
  8
0
  6
Continuous
 62
     7
370
    25
100
AcDbSpline
210
0.0
220
0.0
230
1.0
 70
     8
 71
     3
 72
    12
 73
     8
 74
     0
 42
0.00000001
 43
0.00000001
 40
0.0
 40
0.0
 40
0.0
 40
0.0
 40
0.2133534395476186
 40
0.4267919313634551
 40
0.6383539739091971
 40
0.8490950351927533
 40
1.0
 40
1.0
 40
1.0
 40
1.0
 10
678.2359668600452
 20
565.6059528577533
 30
0.0
 10
678.2494911929997
 20
565.6887413856739
 30
0.0
 10
678.2765452503156
 20
565.8543514447427
 30
0.0
 10
678.2106361521618
 20
566.1033292214184
 30
0.0
 10
678.0727254439042
 20
566.3147225390746
 30
0.0
 10
677.8924691264026
 20
566.4582659569224
 30
0.0
 10
677.7586101804628
 20
566.5038291340313
 30
0.0
 10
677.7027545147873
 20
566.5228413977976
 30
0.0
  0
LINE
  5
159
330
1F
100
AcDbEntity
  8
0
  6
Continuous
 62
     7
370
    25
100
AcDbLine
 10
677.9162366977
 20
564.3975354533
 30
0.0
 11
678.23596686
 21
565.6059528578
 31
0.0
  0
LINE
  5
15A
330
1F
100
AcDbEntity
  8
0
  6
Continuous
 62
     7
370
    25
100
AcDbLine
 10
679.076317406
 20
564.0905944975
 30
0.0
 11
677.9162366977
 21
564.3975354533
 31
0.0
  0
LINE
  5
15B
330
1F
100
AcDbEntity
  8
0
  6
Continuous
 62
     7
370
    25
100
AcDbLine
 10
679.3960475683
 20
565.2990119019
 30
0.0
 11
679.076317406
 21
564.0905944975
 31
0.0
  0
SPLINE
  5
15C
330
1F
100
AcDbEntity
  8
0
  6
Continuous
 62
     7
370
    25
100
AcDbSpline
210
0.0
220
0.0
230
1.0
 70
     8
 71
     3
 72
    12
 73
     8
 74
     0
 42
0.00000001
 43
0.00000001
 40
0.0
 40
0.0
 40
0.0
 40
0.0
 40
0.2133534395475685
 40
0.4267919313633945
 40
0.63835397390914
 40
0.8490950351927593
 40
1.0
 40
1.0
 40
1.0
 40
1.0
 10
680.3129361083312
 20
565.832224247182
 30
0.0
 10
680.2301475804105
 20
565.8457485801366
 30
0.0
 10
680.0645375213418
 20
565.8728026374527
 30
0.0
 10
679.8155597446661
 20
565.8068935392987
 30
0.0
 10
679.6041664270097
 20
565.6689828310411
 30
0.0
 10
679.4606230091622
 20
565.4887265135393
 30
0.0
 10
679.4150598320533
 20
565.3548675675995
 30
0.0
 10
679.3960475682869
 20
565.2990119019241
 30
0.0
  0
LINE
  5
15D
330
1F
100
AcDbEntity
  8
0
  6
Continuous
 62
     7
370
    25
100
AcDbLine
 10
681.5213535127
 20
565.5124940849
 30
0.0
 11
680.3129361083
 21
565.8322242472
 31
0.0
  0
LINE
  5
15E
330
1F
100
AcDbEntity
  8
0
  6
Continuous
 62
     7
370
    25
100
AcDbLine
 10
681.8282944686
 20
566.6725747931
 30
0.0
 11
681.5213535127
 21
565.5124940849
 31
0.0
  0
LINE
  5
15F
330
1F
100
AcDbEntity
  8
0
  6
Continuous
 62
     7
370
    25
100
AcDbLine
 10
680.6198770642
 20
566.9923049554
 30
0.0
 11
681.8282944686
 21
566.6725747931
 31
0.0
  0
SPLINE
  5
160
330
1F
100
AcDbEntity
  8
0
  6
Continuous
 62
     7
370
    25
100
AcDbSpline
210
0.0
220
0.0
230
1.0
 70
     8
 71
     3
 72
    12
 73
     8
 74
     0
 42
0.00000001
 43
0.00000001
 40
0.0
 40
0.0
 40
0.0
 40
0.0
 40
0.2133534395475731
 40
0.4267919313634814
 40
0.6383539739092352
 40
0.8490950351927954
 40
1.0
 40
1.0
 40
1.0
 40
1.0
 10
680.0866647189025
 20
567.9091934954681
 30
0.0
 10
680.0731403859479
 20
567.8264049675474
 30
0.0
 10
680.046086328632
 20
567.6607949084787
 30
0.0
 10
680.1119954267859
 20
567.4118171318029
 30
0.0
 10
680.2499061350436
 20
567.2004238141467
 30
0.0
 10
680.4301624525451
 20
567.0568803962989
 30
0.0
 10
680.5640213984849
 20
567.0113172191902
 30
0.0
 10
680.6198770641604
 20
566.9923049554237
 30
0.0
  0
LINE
  5
161
330
1F
100
AcDbEntity
  8
0
  6
Continuous
 62
     7
370
    25
100
AcDbLine
 10
680.4063948812
 20
569.1176108999
 30
0.0
 11
680.0866647189
 21
567.9091934955
 31
0.0
  0
LINE
  5
162
330
1F
100
AcDbEntity
  8
0
  6
Continuous
 62
     7
370
    25
100
AcDbLine
 10
679.246314173
 20
569.4245518557
 30
0.0
 11
680.4063948812
 21
569.1176108999
 31
0.0
  0
LINE
  5
163
330
1F
100
AcDbEntity
  8
0
  6
Continuous
 62
     7
370
    25
100
AcDbLine
 10
678.9265840107
 20
568.2161344513
 30
0.0
 11
679.246314173
 21
569.4245518557
 31
0.0
  0
SPLINE
  5
164
330
1F
100
AcDbEntity
  8
0
  6
Continuous
 62
     7
370
    25
100
AcDbSpline
210
0.0
220
0.0
230
1.0
 70
     8
 71
     3
 72
    12
 73
     8
 74
     0
 42
0.00000001
 43
0.00000001
 40
0.0
 40
0.0
 40
0.0
 40
0.0
 40
0.2133534395475427
 40
0.4267919313633824
 40
0.6383539739091147
 40
0.8490950351927241
 40
1.0
 40
1.0
 40
1.0
 40
1.0
 10
678.0096954706165
 20
567.6829221060394
 30
0.0
 10
678.0924839985372
 20
567.6693977730849
 30
0.0
 10
678.258094057606
 20
567.6423437157688
 30
0.0
 10
678.5070718342816
 20
567.7082528139227
 30
0.0
 10
678.718465151938
 20
567.8461635221803
 30
0.0
 10
678.8620085697856
 20
568.026419839682
 30
0.0
 10
678.9075717468944
 20
568.1602787856218
 30
0.0
 10
678.9265840106609
 20
568.2161344512973
 30
0.0
  0
LINE
  5
165
330
1F
100
AcDbEntity
  8
0
  6
Continuous
 62
     7
370
    25
100
AcDbLine
 10
676.8012780662
 20
568.0026522684
 30
0.0
 11
678.0096954706
 21
567.682922106
 31
0.0
  0
CIRCLE
  5
166
330
1F
100
AcDbEntity
  8
0
  6
Continuous
 62
     7
370
    25
100
AcDbCircle
 10
679.1613157895
 20
566.7575731766
 30
0.0
 40
4.197433366238822
  0
CIRCLE
  5
167
330
1F
100
AcDbEntity
  8
0
  6
Continuous
 62
     7
370
    25
100
AcDbCircle
 10
679.1613157895
 20
566.7575731766
 30
0.0
 40
4.499999999999979
  0
SPLINE
  5
168
330
1F
100
AcDbEntity
  8
0
  6
Continuous
 62
     7
370
    25
100
AcDbSpline
210
0.0
220
0.0
230
1.0
 70
     8
 71
     3
 72
    11
 73
     7
 74
     0
 42
0.00000001
 43
0.00000001
 40
0.0
 40
0.0
 40
0.0
 40
0.0
 40
0.2200386424382229
 40
0.663786990599813
 40
0.8890365590789623
 40
1.0
 40
1.0
 40
1.0
 40
1.0
 10
570.883725644882
 20
560.9826761584881
 30
0.0
 10
570.6795041818804
 20
561.2476947697469
 30
0.0
 10
570.0634326189968
 20
562.0471721000516
 30
0.0
 10
569.5398832679798
 20
563.3103413705794
 30
0.0
 10
569.2882540682186
 20
564.4769111839037
 30
0.0
 10
569.3089612629409
 20
564.9881909825631
 30
0.0
 10
569.3157954469671
 20
565.1569333100352
 30
0.0
  0
SPLINE
  5
169
330
1F
100
AcDbEntity
  8
0
  6
Continuous
 62
     7
370
    25
100
AcDbSpline
210
0.0
220
0.0
230
1.0
 70
     8
 71
     3
 72
     9
 73
     5
 74
     0
 42
0.00000001
 43
0.00000001
 40
0.0
 40
0.0
 40
0.0
 40
0.0
 40
0.9209630919903188
 40
1.0
 40
1.0
 40
1.0
 40
1.0
 10
569.2436832816346
 20
561.3029994341215
 30
0.0
 10
569.7581048195075
 20
561.246172375203
 30
0.0
 10
570.3166739330222
 20
561.1844684270069
 30
0.0
 10
570.8421904446916
 20
560.997456966119
 30
0.0
 10
570.883725644882
 20
560.9826761584881
 30
0.0
  0
SPLINE
  5
16A
330
1F
100
AcDbEntity
  8
0
  6
Continuous
 62
     7
370
    25
100
AcDbSpline
210
0.0
220
0.0
230
1.0
 70
     8
 71
     3
 72
    10
 73
     6
 74
     0
 42
0.00000001
 43
0.00000001
 40
0.0
 40
0.0
 40
0.0
 40
0.0
 40
0.2596150688488827
 40
0.6297606444810657
 40
1.0
 40
1.0
 40
1.0
 40
1.0
 10
522.0685223276975
 20
563.8945570031107
 30
0.0
 10
526.1463425464204
 20
563.5948028660123
 30
0.0
 10
536.0381053797856
 20
562.8676749708482
 30
0.0
 10
551.7676780624589
 20
562.041828100958
 30
0.0
 10
563.4178563237235
 20
561.5492964516923
 30
0.0
 10
569.2436832816346
 20
561.3029994341215
 30
0.0
  0
SPLINE
  5
16B
330
1F
100
AcDbEntity
  8
0
  6
Continuous
 62
     7
370
    25
100
AcDbSpline
210
0.0
220
0.0
230
1.0
 70
     8
 71
     3
 72
    11
 73
     7
 74
     0
 42
0.00000001
 43
0.00000001
 40
0.0
 40
0.0
 40
0.0
 40
0.0
 40
0.0614641195413869
 40
0.4999988937835363
 40
0.9375097801832789
 40
1.0
 40
1.0
 40
1.0
 40
1.0
 10
522.0685223276976
 20
569.6205893501126
 30
0.0
 10
522.0568531314952
 20
569.5041323776605
 30
0.0
 10
521.9619264452261
 20
568.5567771103292
 30
0.0
 10
521.8782236179597
 20
566.759532911881
 30
0.0
 10
521.9617935414796
 20
564.9603348876402
 30
0.0
 10
522.0566652465251
 20
564.0129600632071
 30
0.0
 10
522.0685223276975
 20
563.8945570031107
 30
0.0
  0
SPLINE
  5
16C
330
1F
100
AcDbEntity
  8
0
  6
Continuous
 62
     7
370
    25
100
AcDbSpline
210
0.0
220
0.0
230
1.0
 70
     8
 71
     3
 72
    11
 73
     7
 74
     0
 42
0.00000001
 43
0.00000001
 40
0.0
 40
0.0
 40
0.0
 40
0.0
 40
0.2594589277291878
 40
0.6296002946237412
 40
0.8147836738016273
 40
0.9999999999999999
 40
0.9999999999999999
 40
0.9999999999999999
 40
0.9999999999999999
 10
569.2436832816346
 20
572.2121469190998
 30
0.0
 10
565.1606826322896
 20
572.046648332679
 30
0.0
 10
555.2529163654852
 20
571.6450512102273
 30
0.0
 10
542.4377794065241
 20
570.9667983942039
 30
0.0
 10
530.7935071402646
 20
570.2893775019918
 30
0.0
 10
524.9770230571319
 20
569.8435319533794
 30
0.0
 10
522.0685223276976
 20
569.6205893501126
 30
0.0
  0
SPLINE
  5
16D
330
1F
100
AcDbEntity
  8
0
  6
Continuous
 62
     7
370
    25
100
AcDbSpline
210
0.0
220
0.0
230
1.0
 70
     8
 71
     3
 72
     9
 73
     5
 74
     0
 42
0.00000001
 43
0.00000001
 40
0.0
 40
0.0
 40
0.0
 40
0.0
 40
0.0790369080192272
 40
1.0
 40
1.0
 40
1.0
 40
1.0
 10
570.8837256448812
 20
572.532470194733
 30
0.0
 10
570.8421904446858
 20
572.5176893871004
 30
0.0
 10
570.3166739330165
 20
572.3306779262127
 30
0.0
 10
569.7581048195019
 20
572.2689739780174
 30
0.0
 10
569.2436832816346
 20
572.2121469190998
 30
0.0
  0
SPLINE
  5
16E
330
1F
100
AcDbEntity
  8
0
  6
Continuous
 62
     7
370
    25
100
AcDbSpline
210
0.0
220
0.0
230
1.0
 70
     8
 71
     3
 72
    11
 73
     7
 74
     0
 42
0.00000001
 43
0.00000001
 40
0.0
 40
0.0
 40
0.0
 40
0.0
 40
0.0728838064943129
 40
0.4140719411596067
 40
0.9209668754550682
 40
1.0
 40
1.0
 40
1.0
 40
1.0
 10
569.3157954469707
 20
568.3582130431712
 30
0.0
 10
569.3080802978332
 20
568.4686594774104
 30
0.0
 10
569.2642485204684
 20
569.0961345177412
 30
0.0
 10
569.6087402319065
 20
570.4791265482063
 30
0.0
 10
570.2484295813929
 20
571.7490580659838
 30
0.0
 10
570.8082183308258
 20
572.4393587321567
 30
0.0
 10
570.8837256448812
 20
572.532470194733
 30
0.0
  0
SPLINE
  5
16F
330
1F
100
AcDbEntity
  8
0
  6
Continuous
 62
     7
370
    25
100
AcDbSpline
210
0.0
220
0.0
230
1.0
 70
     8
 71
     3
 72
    10
 73
     6
 74
     0
 42
0.00000001
 43
0.00000001
 40
0.0
 40
0.0
 40
0.0
 40
0.0
 40
0.3880207377811398
 40
0.9790637766506772
 40
1.0
 40
1.0
 40
1.0
 40
1.0
 10
569.3157954469671
 20
565.1569333100352
 30
0.0
 10
569.3891099777264
 20
565.5677731718911
 30
0.0
 10
569.5740990630495
 20
566.6044147417394
 30
0.0
 10
569.4783921372187
 20
567.6981840633106
 30
0.0
 10
569.3211739859709
 20
568.3363799320301
 30
0.0
 10
569.3157954469707
 20
568.3582130431712
 30
0.0
  0
ARC
  5
170
330
1F
100
AcDbEntity
  8
0
  6
Continuous
 62
     7
370
    25
100
AcDbCircle
 10
577.5613157895
 20
566.7575731766
 30
0.0
 40
8.399443654264472
100
AcDbArc
 50
190.985757993
 51
169.0142420071
  0
SPLINE
  5
171
330
1F
100
AcDbEntity
  8
0
  6
Continuous
 62
     7
370
    25
100
AcDbSpline
210
0.0
220
0.0
230
1.0
 70
     8
 71
     3
 72
     9
 73
     5
 74
     0
 42
0.00000001
 43
0.00000001
 40
0.0
 40
0.0
 40
0.0
 40
0.0
 40
0.6817923421274987
 40
1.0
 40
1.0
 40
1.0
 40
1.0
 10
570.8837256448812
 20
572.532470194733
 30
0.0
 10
571.0259892055243
 20
572.7223805498382
 30
0.0
 10
571.2346503356847
 20
573.0009262937118
 30
0.0
 10
571.464076169565
 20
573.2338306666547
 30
0.0
 10
571.5370812268195
 20
573.3079426216772
 30
0.0
  0
ARC
  5
172
330
1F
100
AcDbEntity
  8
0
  6
Continuous
 62
     7
370
    25
100
AcDbCircle
 10
577.5613157895
 20
566.7575731766
 30
0.0
 40
8.899367501836458
100
AcDbArc
 50
227.3959191961
 51
132.6040808039
  0
LINE
  5
173
330
1F
100
AcDbEntity
  8
0
  6
Continuous
 62
     7
370
    25
100
AcDbLine
 10
571.5370812268
 20
560.2072037315
 30
0.0
 11
570.8837256449
 21
560.9826761585
 31
0.0
  0
SPLINE
  5
174
330
1F
100
AcDbEntity
  8
0
  6
Continuous
 62
     7
370
    25
100
AcDbSpline
210
0.0
220
0.0
230
1.0
 70
     8
 71
     3
 72
    10
 73
     6
 74
     0
 42
0.00000001
 43
0.00000001
 40
0.0
 40
0.0
 40
0.0
 40
0.0
 40
0.3702896688583031
 40
0.7405318123903287
 40
0.9999999999999999
 40
0.9999999999999999
 40
0.9999999999999999
 40
0.9999999999999999
 10
522.0570028645192
 20
570.0634489309458
 30
0.0
 10
527.8770667107375
 20
570.3836399454722
 30
0.0
 10
539.5164474192412
 20
571.0239808791778
 30
0.0
 10
555.235315826016
 20
571.893215211041
 30
0.0
 10
565.1324896420258
 20
572.4419562126501
 30
0.0
 10
569.2105579624898
 20
572.668061496482
 30
0.0
  0
ARC
  5
175
330
1F
100
AcDbEntity
  8
0
  6
Continuous
 62
     7
370
    25
100
AcDbCircle
 10
561.9954687554
 20
571.9146751298
 30
0.0
 40
7.25431618301584
100
AcDbArc
 50
2.3501399448
 51
5.9611177314
  0
ARC
  5
176
330
1F
100
AcDbEntity
  8
0
  6
Continuous
 62
     7
370
    25
100
AcDbCircle
 10
526.3175254058
 20
569.952692107
 30
0.0
 40
4.261961918983095
100
AcDbArc
 50
178.5108705387
 51
184.4691613064
  0
SPLINE
  5
177
330
1F
100
AcDbEntity
  8
0
  6
Continuous
 62
     7
370
    25
100
AcDbSpline
210
0.0
220
0.0
230
1.0
 70
     8
 71
     3
 72
    10
 73
     6
 74
     0
 42
0.00000001
 43
0.00000001
 40
0.0
 40
0.0
 40
0.0
 40
0.0
 40
0.3702717503651149
 40
0.7405122151371732
 40
1.0
 40
1.0
 40
1.0
 40
1.0
 10
569.2105579624898
 20
560.8470848567395
 30
0.0
 10
563.3908859008206
 20
561.1696133424075
 30
0.0
 10
551.7520335025239
 20
561.8146430621505
 30
0.0
 10
536.0328939185692
 20
562.6834575496293
 30
0.0
 10
526.1353964948705
 20
563.2275124603962
 30
0.0
 10
522.0570028645225
 20
563.4516974222754
 30
0.0
  0
ARC
  5
178
330
1F
100
AcDbEntity
  8
0
  6
Continuous
 62
     7
370
    25
100
AcDbCircle
 10
526.3175254086
 20
563.5624542462
 30
0.0
 40
4.261961921756607
100
AcDbArc
 50
175.530838696
 51
181.4891294598
  0
ARC
  5
179
330
1F
100
AcDbEntity
  8
0
  6
Continuous
 62
     7
370
    25
100
AcDbCircle
 10
561.9954687553
 20
561.6004712234
 30
0.0
 40
7.254316183191295
100
AcDbArc
 50
354.0388822686
 51
357.6498600552
  0
SPLINE
  5
17A
330
1F
100
AcDbEntity
  8
0
  6
Continuous
 62
     7
370
    25
100
AcDbSpline
210
0.0
220
0.0
230
1.0
 70
     8
 71
     3
 72
    12
 73
     8
 74
     0
 42
0.00000001
 43
0.00000001
 40
0.0
 40
0.0
 40
0.0
 40
0.0
 40
0.1224290494151403
 40
0.342352244977026
 40
0.561422881690942
 40
0.7807229538533453
 40
1.0
 40
1.0
 40
1.0
 40
1.0
 10
520.1327948948499
 20
564.0052313727671
 30
0.0
 10
520.1417989707139
 20
564.0028726883261
 30
0.0
 10
520.1669773544451
 20
563.9962770240012
 30
0.0
 10
520.3829650380897
 20
563.9792690562621
 30
0.0
 10
520.8188631678188
 20
563.9537580821075
 30
0.0
 10
521.402788781249
 20
563.9242058995483
 30
0.0
 10
521.8466189128171
 20
563.9044396226692
 30
0.0
 10
522.0685223276975
 20
563.8945570031107
 30
0.0
  0
SPLINE
  5
17B
330
1F
100
AcDbEntity
  8
0
  6
Continuous
 62
     7
370
    25
100
AcDbSpline
210
0.0
220
0.0
230
1.0
 70
     8
 71
     3
 72
    11
 73
     7
 74
     0
 42
0.00000001
 43
0.00000001
 40
0.0
 40
0.0
 40
0.0
 40
0.0
 40
0.0800485240044343
 40
0.500000585353891
 40
0.9209248322279646
 40
1.0
 40
1.0
 40
1.0
 40
1.0
 10
520.1327948948499
 20
564.0052313727671
 30
0.0
 10
520.1330811392639
 20
564.1514757978676
 30
0.0
 10
520.1348690844684
 20
565.0649504567007
 30
0.0
 10
520.1361047812987
 20
566.7593600444592
 30
0.0
 10
520.1348670832035
 20
568.4519868963138
 30
0.0
 10
520.1330778612357
 20
569.3654502719576
 30
0.0
 10
520.1327948948499
 20
569.5099149804489
 30
0.0
  0
SPLINE
  5
17C
330
1F
100
AcDbEntity
  8
0
  6
Continuous
 62
     7
370
    25
100
AcDbSpline
210
0.0
220
0.0
230
1.0
 70
     8
 71
     3
 72
    12
 73
     8
 74
     0
 42
0.00000001
 43
0.00000001
 40
0.0
 40
0.0
 40
0.0
 40
0.0
 40
0.1130367476169227
 40
0.3328594693547929
 40
0.5544127937944835
 40
0.7774207483513262
 40
0.9999999999999999
 40
0.9999999999999999
 40
0.9999999999999999
 40
0.9999999999999999
 10
522.0685223276976
 20
569.6205893501126
 30
0.0
 10
521.9544514877106
 20
569.6155741044112
 30
0.0
 10
521.6185469251027
 20
569.6008057033554
 30
0.0
 10
521.084479068708
 20
569.575213499246
 30
0.0
 10
520.5679534308208
 20
569.547338236375
 30
0.0
 10
520.2110587136664
 20
569.5238963627845
 30
0.0
 10
520.1588660961479
 20
569.5145724510248
 30
0.0
 10
520.1327948948499
 20
569.5099149804489
 30
0.0
  0
SPLINE
  5
17D
330
1F
100
AcDbEntity
  8
0
  6
Continuous
 62
     7
370
    25
100
AcDbSpline
210
0.0
220
0.0
230
1.0
 70
     8
 71
     3
 72
     9
 73
     5
 74
     0
 42
0.00000001
 43
0.00000001
 40
0.0
 40
0.0
 40
0.0
 40
0.0
 40
0.5000106123815423
 40
1.0
 40
1.0
 40
1.0
 40
1.0
 10
572.0366890756625
 20
559.7753720422978
 30
0.0
 10
571.6069677088417
 20
560.063212580391
 30
0.0
 10
570.7475432162811
 20
560.6388814381427
 30
0.0
 10
569.7228791310029
 20
560.7776846992294
 30
0.0
 10
569.2105579624898
 20
560.8470848567395
 30
0.0
  0
SPLINE
  5
17E
330
1F
100
AcDbEntity
  8
0
  6
Continuous
 62
     7
370
    25
100
AcDbSpline
210
0.0
220
0.0
230
1.0
 70
     8
 71
     3
 72
     9
 73
     5
 74
     0
 42
0.00000001
 43
0.00000001
 40
0.0
 40
0.0
 40
0.0
 40
0.0
 40
0.9838702326459098
 40
1.0
 40
1.0
 40
1.0
 40
1.0
 10
571.5370812268195
 20
560.2072037315439
 30
0.0
 10
571.6984220417543
 20
560.0623713185254
 30
0.0
 10
571.8624079106029
 20
559.915164493669
 30
0.0
 10
572.0339225838846
 20
559.7775910696217
 30
0.0
 10
572.0366890756625
 20
559.7753720422978
 30
0.0
  0
SPLINE
  5
17F
330
1F
100
AcDbEntity
  8
0
  6
Continuous
 62
     7
370
    25
100
AcDbSpline
210
0.0
220
0.0
230
1.0
 70
     8
 71
     3
 72
     9
 73
     5
 74
     0
 42
0.00000001
 43
0.00000001
 40
0.0
 40
0.0
 40
0.0
 40
0.0
 40
0.5055561057107117
 40
1.0
 40
1.0
 40
1.0
 40
1.0
 10
569.2105579624898
 20
572.668061496482
 30
0.0
 10
569.7286174798229
 20
572.738717530752
 30
0.0
 10
570.7533494758983
 20
572.8784765673294
 30
0.0
 10
571.6120900446598
 20
573.4548098421252
 30
0.0
 10
572.0366890756625
 20
573.7397743109236
 30
0.0
  0
SPLINE
  5
180
330
1F
100
AcDbEntity
  8
0
  6
Continuous
 62
     7
370
    25
100
AcDbSpline
210
0.0
220
0.0
230
1.0
 70
     8
 71
     3
 72
     9
 73
     5
 74
     0
 42
0.00000001
 43
0.00000001
 40
0.0
 40
0.0
 40
0.0
 40
0.0
 40
0.0161297673533699
 40
1.0
 40
1.0
 40
1.0
 40
1.0
 10
572.0366890756625
 20
573.7397743109236
 30
0.0
 10
572.0339225838848
 20
573.7375552835997
 30
0.0
 10
571.8624079105986
 20
573.5999818595498
 30
0.0
 10
571.6984220417522
 20
573.4527750346946
 30
0.0
 10
571.5370812268195
 20
573.3079426216772
 30
0.0
  0
SPLINE
  5
181
330
1F
100
AcDbEntity
  8
0
  6
Continuous
 62
     7
370
    25
100
AcDbSpline
210
0.0
220
0.0
230
1.0
 70
     8
 71
     3
 72
    12
 73
     8
 74
     0
 42
0.00000001
 43
0.00000001
 40
0.0
 40
0.0
 40
0.0
 40
0.0
 40
0.2230315344150094
 40
0.446133755834011
 40
0.6675099896777017
 40
0.8870667292264943
 40
1.0
 40
1.0
 40
1.0
 40
1.0
 10
520.6051491599344
 20
570.0090780514973
 30
0.0
 10
520.6246829460604
 20
570.0071878042025
 30
0.0
 10
520.6637567092968
 20
570.0034067105233
 30
0.0
 10
520.931345891353
 20
570.0103495467938
 30
0.0
 10
521.318874975178
 20
570.0259383692837
 30
0.0
 10
521.7195970876412
 20
570.045275649348
 30
0.0
 10
521.971456509899
 20
570.0588412505246
 30
0.0
 10
522.0570028645192
 20
570.0634489309458
 30
0.0
  0
ARC
  5
182
330
1F
100
AcDbEntity
  8
0
  6
Continuous
 62
     7
370
    25
100
AcDbCircle
 10
520.6328947825
 20
569.5097483951
 30
0.0
 40
0.5000999153468282
100
AcDbArc
 50
93.1804119247
 51
179.9809145383
  0
SPLINE
  5
183
330
1F
100
AcDbEntity
  8
0
  6
Continuous
 62
     7
370
    25
100
AcDbSpline
210
0.0
220
0.0
230
1.0
 70
     8
 71
     3
 72
    12
 73
     8
 74
     0
 42
0.00000001
 43
0.00000001
 40
0.0
 40
0.0
 40
0.0
 40
0.0
 40
0.219044434010904
 40
0.4380981679380253
 40
0.6571027493691795
 40
0.8772791087290147
 40
1.0
 40
1.0
 40
1.0
 40
1.0
 10
522.0570028645225
 20
563.4516974222754
 30
0.0
 10
521.8905851237516
 20
563.4605262352252
 30
0.0
 10
521.5577425766526
 20
563.4781842359675
 30
0.0
 10
521.1195841340094
 20
563.4977027253765
 30
0.0
 10
520.7926183072498
 20
563.5090085090087
 30
0.0
 10
520.6307744302355
 20
563.5108323770854
 30
0.0
 10
520.6119030978234
 20
563.5073239477606
 30
0.0
 10
520.6051491599345
 20
563.5060683017241
 30
0.0
  0
ARC
  5
184
330
1F
100
AcDbEntity
  8
0
  6
Continuous
 62
     7
370
    25
100
AcDbCircle
 10
520.6328947825
 20
564.0053979581
 30
0.0
 40
0.500099915346948
100
AcDbArc
 50
180.0190854623
 51
266.8195880753
  0
LINE
  5
185
330
1F
100
AcDbEntity
  8
0
  6
Continuous
 62
     7
370
    25
100
AcDbLine
 10
569.2105579625
 20
572.6680614965
 30
0.0
 11
569.1835717808
 21
572.7393517718
 31
0.0
  0
LINE
  5
186
330
1F
100
AcDbEntity
  8
0
  6
Continuous
 62
     7
370
    25
100
AcDbLine
 10
520.6004587993
 20
570.0135165046
 30
0.0
 11
520.6051491599
 21
570.0090780515
 31
0.0
  0
ELLIPSE
  5
187
330
1F
100
AcDbEntity
  8
0
  6
Continuous
 62
     7
370
    25
100
AcDbEllipse
 10
522.100230342
 20
570.0968089546
 30
0.0
 11
1.499999304622747
 21
0.08287263343868288
 31
0.0
210
0.0
220
0.0
230
1.0
 40
0.0174284859
 41
2.255125316695578
 42
3.158083049606356
  0
LINE
  5
188
330
1F
100
AcDbEntity
  8
0
  6
Continuous
 62
     7
370
    25
100
AcDbLine
 10
524.615845011
 20
570.3055685426
 30
0.0
 11
521.1508818016
 21
570.0646772636
 31
0.0
  0
LINE
  5
189
330
1F
100
AcDbEntity
  8
0
  6
Continuous
 62
     7
370
    25
100
AcDbLine
 10
524.615845011
 20
570.3054701514
 30
0.0
 11
524.615845011
 21
570.3055685426
 31
0.0
  0
ELLIPSE
  5
18A
330
1F
100
AcDbEntity
  8
0
  6
Continuous
 62
     7
370
    25
100
AcDbEllipse
 10
534.065331432
 20
570.6351162028
 30
0.0
 11
14.4999932780205
 21
0.8011021232407529
 31
0.0
210
0.0
220
0.0
230
1.0
 40
0.0174284859
 41
1.543516838852443
 42
2.279642175407787
  0
ELLIPSE
  5
18B
330
1F
100
AcDbEntity
  8
0
  6
Continuous
 62
     7
370
    25
100
AcDbEllipse
 10
535.3863413475
 20
571.5853997521
 30
0.0
 11
35.70262504606001
 21
1.972514619921981
 31
0.0
210
0.0
220
0.0
230
1.0
 40
0.0174284859
 41
4.685109492442198
 42
5.167309992307865
  0
ELLIPSE
  5
18C
330
1F
100
AcDbEntity
  8
0
  6
Continuous
 62
     7
370
    25
100
AcDbEllipse
 10
554.4065688196
 20
571.9577958118
 30
0.0
 11
7.499996523113964
 21
0.4143631671935282
 31
0.0
210
0.0
220
0.0
230
1.0
 40
0.0174284859
 41
1.83482668100791
 42
2.025717338718346
  0
LINE
  5
18D
330
1F
100
AcDbEntity
  8
0
  6
Continuous
 62
     7
370
    25
100
AcDbLine
 10
552.4619164185
 20
571.8254513606
 30
0.0
 11
552.4422981611
 21
571.9758419052
 31
0.0
  0
SPLINE
  5
18E
330
1F
100
AcDbEntity
  8
0
  6
Continuous
 62
     7
370
    25
100
AcDbSpline
210
0.0
220
0.0
230
1.0
 70
     8
 71
     3
 72
    10
 73
     6
 74
     0
 42
0.00000001
 43
0.00000001
 40
0.0
 40
0.0
 40
0.0
 40
0.0
 40
0.0186368637458853
 40
0.3939469944633829
 40
1.0
 40
1.0
 40
1.0
 40
1.0
 10
552.6456877042202
 20
571.8259377278858
 30
0.0
 10
552.6432314969715
 20
571.8258499774065
 30
0.0
 10
552.5913120604941
 20
571.8239951032134
 30
0.0
 10
552.4873132120166
 20
571.8213151218355
 30
0.0
 10
552.4716125546672
 20
571.823872203233
 30
0.0
 10
552.4619164185236
 20
571.8254513606407
 30
0.0
  0
LINE
  5
18F
330
1F
100
AcDbEntity
  8
0
  6
Continuous
 62
     7
370
    25
100
AcDbLine
 10
569.1835717808
 20
572.7393517718
 30
0.0
 11
552.6456877042
 21
571.8259377279
 31
0.0
  0
LINE
  5
190
330
1F
100
AcDbEntity
  8
0
  6
Continuous
 62
     7
370
    25
100
AcDbLine
 10
552.6436219723
 20
561.6730049765
 30
0.0
 11
569.1775303957
 21
560.7598105143
 31
0.0
  0
SPLINE
  5
191
330
1F
100
AcDbEntity
  8
0
  6
Continuous
 62
     7
370
    25
100
AcDbSpline
210
0.0
220
0.0
230
1.0
 70
     8
 71
     3
 72
    11
 73
     7
 74
     0
 42
0.00000001
 43
0.00000001
 40
0.0
 40
0.0
 40
0.0
 40
0.0
 40
0.4177469294495062
 40
0.8392770662410494
 40
0.9817832068818854
 40
1.0
 40
1.0
 40
1.0
 40
1.0
 10
552.4599165316519
 20
561.674354421794
 30
0.0
 10
552.4645535596837
 20
561.6754376129777
 30
0.0
 10
552.4738696096849
 20
561.6776138049607
 30
0.0
 10
552.5493660754352
 20
561.6764116280692
 30
0.0
 10
552.6196262760071
 20
561.6739411007293
 30
0.0
 10
552.6411791126649
 20
561.6731002777724
 30
0.0
 10
552.6436219722949
 20
561.673004976514
 30
0.0
  0
LINE
  5
192
330
1F
100
AcDbEntity
  8
0
  6
Continuous
 62
     7
370
    25
100
AcDbLine
 10
552.4422981611
 20
561.539304448
 30
0.0
 11
552.4599165317
 21
561.6743544218
 31
0.0
  0
ELLIPSE
  5
193
330
1F
100
AcDbEntity
  8
0
  6
Continuous
 62
     7
370
    25
100
AcDbEllipse
 10
554.4065688196
 20
561.5573505414
 30
0.0
 11
7.499996523113964
 21
-0.4143631671934145
 31
0.0
210
0.0
220
0.0
230
1.0
 40
0.0174284859
 41
4.257467968461606
 42
4.448358626171897
  0
ELLIPSE
  5
194
330
1F
100
AcDbEntity
  8
0
  6
Continuous
 62
     7
370
    25
100
AcDbEllipse
 10
535.3863413475
 20
561.9297466011
 30
0.0
 11
35.70262504606012
 21
-1.972514619921981
 31
0.0
210
0.0
220
0.0
230
1.0
 40
0.0174284859
 41
1.115875314871869
 42
1.598075814737368
  0
ELLIPSE
  5
195
330
1F
100
AcDbEntity
  8
0
  6
Continuous
 62
     7
370
    25
100
AcDbEllipse
 10
534.065331432
 20
562.8800301504
 30
0.0
 11
14.4999932780205
 21
-0.8011021232405254
 31
0.0
210
0.0
220
0.0
230
1.0
 40
0.0174284859
 41
4.003543131771224
 42
4.7396684683272
  0
LINE
  5
196
330
1F
100
AcDbEntity
  8
0
  6
Continuous
 62
     7
370
    25
100
AcDbLine
 10
524.615845011
 20
563.2095778106
 30
0.0
 11
524.615845011
 21
563.2096762019
 31
0.0
  0
LINE
  5
197
330
1F
100
AcDbEntity
  8
0
  6
Continuous
 62
     7
370
    25
100
AcDbLine
 10
521.1508818016
 20
563.4504690896
 30
0.0
 11
524.615845011
 21
563.2095778106
 31
0.0
  0
ELLIPSE
  5
198
330
1F
100
AcDbEntity
  8
0
  6
Continuous
 62
     7
370
    25
100
AcDbEllipse
 10
522.100230342
 20
563.4183373987
 30
0.0
 11
1.499999304622747
 21
-0.08287263343868288
 31
0.0
210
0.0
220
0.0
230
1.0
 40
0.0174284859
 41
3.637407889694729
 42
4.028059990480752
  0
LINE
  5
199
330
1F
100
AcDbEntity
  8
0
  6
Continuous
 62
     7
370
    25
100
AcDbLine
 10
520.6051491599
 20
563.5060683017
 30
0.0
 11
520.6004587993
 21
563.5016298487
 31
0.0
  0
LINE
  5
19A
330
1F
100
AcDbEntity
  8
0
  6
Continuous
 62
     7
370
    25
100
AcDbLine
 10
569.1775303957
 20
560.7598105143
 30
0.0
 11
569.2105579625
 21
560.8470848567
 31
0.0
  0
SPLINE
  5
19B
330
1F
100
AcDbEntity
  8
0
  6
Continuous
 62
     7
370
    25
100
AcDbSpline
210
0.0
220
0.0
230
1.0
 70
     8
 71
     3
 72
     9
 73
     5
 74
     0
 42
0.00000001
 43
0.00000001
 40
0.0
 40
0.0
 40
0.0
 40
0.0
 40
0.5001021276704758
 40
1.0
 40
1.0
 40
1.0
 40
1.0
 10
572.003470209607
 20
573.8054657578837
 30
0.0
 10
571.5745224338997
 20
573.5189401237952
 30
0.0
 10
570.7168020764492
 20
572.9460058804975
 30
0.0
 10
569.6945789478341
 20
572.8082270940433
 30
0.0
 10
569.1835717807934
 20
572.7393517718426
 30
0.0
  0
LINE
  5
19C
330
1F
100
AcDbEntity
  8
0
  6
Continuous
 62
     7
370
    25
100
AcDbLine
 10
572.0034702096
 20
573.8054657579
 30
0.0
 11
572.0366890757
 21
573.7397743109
 31
0.0
  0
SPLINE
  5
19D
330
1F
100
AcDbEntity
  8
0
  6
Continuous
 62
     7
370
    25
100
AcDbSpline
210
0.0
220
0.0
230
1.0
 70
     8
 71
     3
 72
     9
 73
     5
 74
     0
 42
0.00000001
 43
0.00000001
 40
0.0
 40
0.0
 40
0.0
 40
0.0
 40
0.4007227371565434
 40
1.0
 40
1.0
 40
1.0
 40
1.0
 10
569.1775303957415
 20
560.7598105142994
 30
0.0
 10
569.586216519151
 20
560.7114032522337
 30
0.0
 10
570.6060890781907
 20
560.5906033634899
 30
0.0
 10
571.4751651220167
 20
560.0304960901362
 30
0.0
 10
571.9959826347634
 20
559.6948365364622
 30
0.0
  0
LINE
  5
19E
330
1F
100
AcDbEntity
  8
0
  6
Continuous
 62
     7
370
    25
100
AcDbLine
 10
572.0366890757
 20
559.7753720423
 30
0.0
 11
571.9959826348
 21
559.6948365365
 31
0.0
  0
ARC
  5
19F
330
1F
100
AcDbEntity
  8
0
  6
Continuous
 62
     7
370
    25
100
AcDbCircle
 10
577.5613157895
 20
566.7575731766
 30
0.0
 40
8.97565804422225
100
AcDbArc
 50
65.1648853947
 51
128.2586979829
  0
LWPOLYLINE
  5
1A0
330
1F
100
AcDbEntity
  8
0
  6
Continuous
 62
     7
370
    25
100
AcDbPolyline
 90
        3
 70
   128
 43
0.0
 10
581.4966292137
 20
575.0082328999
 10
581.3920476496
 20
574.9419804887
 10
581.3311671069
 20
574.9031645223
  0
ARC
  5
1A1
330
1F
100
AcDbEntity
  8
0
  6
Continuous
 62
     7
370
    25
100
AcDbCircle
 10
577.5613157895
 20
566.7575731766
 30
0.0
 40
9.14112015109221
100
AcDbArc
 50
295.4997164176
 51
64.5002794289
  0
LWPOLYLINE
  5
1A2
330
1F
100
AcDbEntity
  8
0
  6
Continuous
 62
     7
370
    25
100
AcDbPolyline
 90
        3
 70
   128
 43
0.0
 10
581.3474600173
 20
558.6015757602
 10
581.3920476496
 20
558.5731658646
 10
581.496629214
 20
558.5069134531
  0
ARC
  5
1A3
330
1F
100
AcDbEntity
  8
0
  6
Continuous
 62
     7
370
    25
100
AcDbCircle
 10
577.5613157895
 20
566.7575731766
 30
0.0
 40
8.99195095466071
100
AcDbArc
 50
231.762407147
 51
294.9014811666
  0
LINE
  5
1A4
330
1F
100
AcDbEntity
  8
0
  6
Continuous
 62
     7
370
    25
100
AcDbLine
 10
520.1281045342
 20
564.0007929197
 30
0.0
 11
520.1327948948
 21
564.0052313728
 31
0.0
  0
LINE
  5
1A5
330
1F
100
AcDbEntity
  8
0
  6
Continuous
 62
     7
370
    25
100
AcDbLine
 10
520.1281045342
 20
569.5143534335
 30
0.0
 11
520.1281045342
 21
564.0007929197
 31
0.0
  0
LINE
  5
1A6
330
1F
100
AcDbEntity
  8
0
  6
Continuous
 62
     7
370
    25
100
AcDbLine
 10
520.1327948948
 20
569.5099149804
 30
0.0
 11
520.1281045342
 21
569.5143534335
 31
0.0
  0
ARC
  5
1A7
330
1F
100
AcDbEntity
  8
0
  6
Continuous
 62
     7
370
    25
100
AcDbCircle
 10
520.6282044218
 20
564.0009595051
 30
0.0
 40
0.5000999153471877
100
AcDbArc
 50
180.0190854617
 51
266.8195880753
  0
ARC
  5
1A8
330
1F
100
AcDbEntity
  8
0
  6
Continuous
 62
     7
370
    25
100
AcDbCircle
 10
520.6282044218
 20
569.5141868482
 30
0.0
 40
0.5000999153468408
100
AcDbArc
 50
93.1804119247
 51
179.9809145383
  0
LINE
  5
1A9
330
1F
100
AcDbEntity
  8
0
  6
Continuous
 62
     7
370
    25
100
AcDbLine
 10
521.1508818016
 20
563.4504690896
 30
0.0
 11
521.1437740708
 21
563.4508361263
 31
0.0
  0
LINE
  5
1AA
330
1F
100
AcDbEntity
  8
0
  6
Continuous
 62
     7
370
    25
100
AcDbLine
 10
521.1508818016
 20
570.0646772636
 30
0.0
 11
521.1437740708
 21
570.064310227
 31
0.0
  0
SPLINE
  5
1AB
330
1F
100
AcDbEntity
  8
0
  6
Continuous
 62
     7
370
    25
100
AcDbSpline
210
0.0
220
0.0
230
1.0
 70
     8
 71
     3
 72
    12
 73
     8
 74
     0
 42
0.00000001
 43
0.00000001
 40
0.0
 40
0.0
 40
0.0
 40
0.0
 40
0.134541944089386
 40
0.4125227334043412
 40
0.6966514762099345
 40
0.8475579366075747
 40
0.9999999999999999
 40
0.9999999999999999
 40
0.9999999999999999
 40
0.9999999999999999
 10
581.3319457132978
 20
574.9039711394311
 30
0.0
 10
580.9025882898679
 20
575.0947965860234
 30
0.0
 10
579.5861237544432
 20
575.6798917053499
 30
0.0
 10
577.2124958104209
 20
576.3048403541408
 30
0.0
 10
574.6875493783472
 20
576.6061959896333
 30
0.0
 10
572.5426116595701
 20
576.7117826592379
 30
0.0
 10
571.4062639528844
 20
576.7174156269343
 30
0.0
 10
570.8352139046623
 20
576.7202463683138
 30
0.0
  0
ARC
  5
1AC
330
1F
100
AcDbEntity
  8
0
  6
Continuous
 62
     7
370
    25
100
AcDbCircle
 10
575.3277448977
 20
576.1004223237
 30
0.0
 40
4.535087272522044
100
AcDbArc
 50
149.0284626407
 51
172.1446266983
  0
SPLINE
  5
1AD
330
1F
100
AcDbEntity
  8
0
  6
Continuous
 62
     7
370
    25
100
AcDbSpline
210
0.0
220
0.0
230
1.0
 70
     8
 71
     3
 72
    12
 73
     8
 74
     0
 42
0.00000001
 43
0.00000001
 40
0.0
 40
0.0
 40
0.0
 40
0.0
 40
0.1662426524176553
 40
0.3368059756191311
 40
0.6054181071254576
 40
0.8801435087136177
 40
1.0
 40
1.0
 40
1.0
 40
1.0
 10
571.4392565421633
 20
578.4342335582817
 30
0.0
 10
572.0769380626995
 20
578.2787483827987
 30
0.0
 10
573.3688745395
 20
577.9637369494435
 30
0.0
 10
575.5530609218495
 20
577.3007718444449
 30
0.0
 10
577.9150352654092
 20
576.4485769276395
 30
0.0
 10
579.8805728273016
 20
575.6059482490275
 30
0.0
 10
580.9943478120973
 20
575.0680901563323
 30
0.0
 10
581.3326632902549
 20
574.9047127055051
 30
0.0
  0
LINE
  5
1AE
330
1F
100
AcDbEntity
  8
0
  6
Continuous
 62
     7
370
    25
100
AcDbLine
 10
581.3326632903
 20
574.9047127055
 30
0.0
 11
581.3319457133
 21
574.9039711394
 31
0.0
  0
LINE
  5
1AF
330
1F
100
AcDbEntity
  8
0
  6
Continuous
 62
     7
370
    25
100
AcDbLine
 10
571.4392565422
 20
578.4342335583
 30
0.0
 11
571.4551146191
 21
578.5037070899
 31
0.0
  0
ARC
  5
1B0
330
1F
100
AcDbEntity
  8
0
  6
Continuous
 62
     7
370
    25
100
AcDbCircle
 10
560.7333363826
 20
531.5320722776
 30
0.0
 40
48.17977797259059
100
AcDbArc
 50
64.4718479123
 51
77.1419190681
  0
LWPOLYLINE
  5
1B1
330
1F
100
AcDbEntity
  8
0
  6
Continuous
 62
     7
370
    25
100
AcDbPolyline
 90
        3
 70
   128
 43
0.0
 10
581.3326632903
 20
574.9047127055
 10
581.3920511406
 20
574.9422364091
 10
581.4966292134
 20
575.008234439
  0
LINE
  5
1B2
330
1F
100
AcDbEntity
  8
0
  6
Continuous
 62
     7
370
    25
100
AcDbLine
 10
572.0034702096
 20
573.8054657579
 30
0.0
 11
569.8055982894
 21
576.5925826322
 31
0.0
  0
ARC
  5
1B3
330
1F
100
AcDbEntity
  8
0
  6
Continuous
 62
     7
370
    25
100
AcDbCircle
 10
577.5613157895
 20
566.7575731766
 30
0.0
 40
12.52511736202727
100
AcDbArc
 50
127.8583068702
 51
128.2586979829
  0
LINE
  5
1B4
330
1F
100
AcDbEntity
  8
0
  6
Continuous
 62
     7
370
    25
100
AcDbLine
 10
570.8352139047
 20
576.7202463683
 30
0.0
 11
569.8745155558
 21
576.6465401146
 31
0.0
  0
LINE
  5
1B5
330
1F
100
AcDbEntity
  8
0
  6
Continuous
 62
     7
370
    25
100
AcDbLine
 10
581.3311671069
 20
574.9031645223
 30
0.0
 11
581.3319457133
 21
574.9039711394
 31
0.0
  0
ARC
  5
1B6
330
1F
100
AcDbEntity
  8
0
  6
Continuous
 62
     7
370
    25
100
AcDbCircle
 10
559.6436440758
 20
572.0341725648
 30
0.0
 40
6.834138728222178
100
AcDbArc
 50
31.8771071303
 51
46.9488007428
  0
SPLINE
  5
1B7
330
1F
100
AcDbEntity
  8
0
  6
Continuous
 62
     7
370
    25
100
AcDbSpline
210
0.0
220
0.0
230
1.0
 70
     8
 71
     3
 72
    17
 73
    13
 74
     0
 42
0.00000001
 43
0.00000001
 40
0.0
 40
0.0
 40
0.0
 40
0.0
 40
0.2859834379244686
 40
0.5215922644122243
 40
0.7592399016809398
 40
0.8521492405060501
 40
0.9266708633836013
 40
0.9605058393195371
 40
0.9835417153308582
 40
0.9930790992390822
 40
0.9972256067114857
 40
1.0
 40
1.0
 40
1.0
 40
1.0
 10
565.4470768669144
 20
575.6432749455959
 30
0.0
 10
564.218298683167
 20
575.1114068215754
 30
0.0
 10
561.9771857013362
 20
574.1413565935278
 30
0.0
 10
558.6382370144344
 20
573.0991259227432
 30
0.0
 10
556.1355816477276
 20
572.4813073618166
 30
0.0
 10
554.3652753636914
 20
572.1273320525984
 30
0.0
 10
553.5001545283541
 20
571.9726310179856
 30
0.0
 10
552.9745670990786
 20
571.8841310271539
 30
0.0
 10
552.7409049854215
 20
571.8450192643312
 30
0.0
 10
552.6632548259321
 20
571.8306994975695
 30
0.0
 10
552.647173171732
 20
571.8269657452518
 30
0.0
 10
552.646112783756
 20
571.826231904057
 30
0.0
 10
552.6456877042202
 20
571.8259377278858
 30
0.0
  0
SPLINE
  5
1B8
330
1F
100
AcDbEntity
  8
0
  6
Continuous
 62
     7
370
    25
100
AcDbSpline
210
0.0
220
0.0
230
1.0
 70
     8
 71
     3
 72
    10
 73
     6
 74
     0
 42
0.00000001
 43
0.00000001
 40
0.0
 40
0.0
 40
0.0
 40
0.0
 40
0.5975855365574314
 40
0.979056356318194
 40
1.0
 40
1.0
 40
1.0
 40
1.0
 10
552.5356623845324
 20
571.8350646252252
 30
0.0
 10
552.5331432451791
 20
571.8313253274988
 30
0.0
 10
552.5290160043984
 20
571.8251990359753
 30
0.0
 10
552.6033871309538
 20
571.8248224771188
 30
0.0
 10
552.6435950830582
 20
571.8258825561193
 30
0.0
 10
552.6456877042202
 20
571.8259377278858
 30
0.0
  0
SPLINE
  5
1B9
330
1F
100
AcDbEntity
  8
0
  6
Continuous
 62
     7
370
    25
100
AcDbSpline
210
0.0
220
0.0
230
1.0
 70
     8
 71
     3
 72
    15
 73
    11
 74
     0
 42
0.00000001
 43
0.00000001
 40
0.0
 40
0.0
 40
0.0
 40
0.0
 40
0.01289814015984
 40
0.05194435415656
 40
0.1318327952014351
 40
0.2279057212361163
 40
0.4677439605522697
 40
0.7076088995728966
 40
0.8538517081976971
 40
1.0
 40
1.0
 40
1.0
 40
1.0
 10
552.5356623845324
 20
571.8350646252252
 30
0.0
 10
552.5691309880567
 20
571.8429095225129
 30
0.0
 10
552.7039182498672
 20
571.8745030792564
 30
0.0
 10
553.1431886298337
 20
571.9768938225652
 30
0.0
 10
553.9546442498184
 20
572.1792153180542
 30
0.0
 10
555.6079105816073
 20
572.646864217284
 30
0.0
 10
557.9542697123715
 20
573.4784509953195
 30
0.0
 10
560.4978655541986
 20
574.6720415903944
 30
0.0
 10
562.6166429738399
 20
575.8789636350847
 30
0.0
 10
563.7449892154201
 20
576.6451893015869
 30
0.0
 10
564.3089799645489
 20
577.0281782917812
 30
0.0
  0
LINE
  5
1BA
330
1F
100
AcDbEntity
  8
0
  6
Continuous
 62
     7
370
    25
100
AcDbLine
 10
566.887745229
 20
576.1674186276
 30
0.0
 11
568.9878277451
 21
576.2834095763
 31
0.0
  0
LINE
  5
1BB
330
1F
100
AcDbEntity
  8
0
  6
Continuous
 62
     7
370
    25
100
AcDbLine
 10
569.1835717808
 20
572.7393517718
 30
0.0
 11
568.9878277451
 21
576.2834095763
 31
0.0
  0
LINE
  5
1BC
330
1F
100
AcDbEntity
  8
0
  6
Continuous
 62
     7
370
    25
100
AcDbLine
 10
566.887745229
 20
576.1674186276
 30
0.0
 11
565.4470768669
 21
575.6432749456
 31
0.0
  0
LWPOLYLINE
  5
1BD
330
1F
100
AcDbEntity
  8
0
  6
Continuous
 62
     7
370
    25
100
AcDbPolyline
 90
        4
 70
   128
 43
0.0
 10
552.5161355705
 20
571.9861602015
 10
552.5183802061
 20
571.9688020546
 10
552.5273552401
 20
571.8993693085
 10
552.5356623845
 20
571.8350646252
  0
LINE
  5
1BE
330
1F
100
AcDbEntity
  8
0
  6
Continuous
 62
     7
370
    25
100
AcDbLine
 10
554.3042598542
 20
572.4156877048
 30
0.0
 11
552.5161355705
 21
571.9861602015
 31
0.0
  0
ARC
  5
1BF
330
1F
100
AcDbEntity
  8
0
  6
Continuous
 62
     7
370
    25
100
AcDbCircle
 10
546.1187014557
 20
602.8413812986
 30
0.0
 40
31.50755777528333
100
AcDbArc
 50
285.0579972479
 51
305.1719294169
  0
LINE
  5
1C0
330
1F
100
AcDbEntity
  8
0
  6
Continuous
 62
     7
370
    25
100
AcDbLine
 10
564.3089799645
 20
577.0281782918
 30
0.0
 11
564.2680600783
 21
577.0862463048
 31
0.0
  0
SPLINE
  5
1C1
330
1F
100
AcDbEntity
  8
0
  6
Continuous
 62
     7
370
    25
100
AcDbSpline
210
0.0
220
0.0
230
1.0
 70
     8
 71
     3
 72
     9
 73
     5
 74
     0
 42
0.00000001
 43
0.00000001
 40
0.0
 40
0.0
 40
0.0
 40
0.0
 40
0.4998978730609617
 40
1.0
 40
1.0
 40
1.0
 40
1.0
 10
568.9878277450881
 20
576.2834095762867
 30
0.0
 10
569.1360226609838
 20
576.303375914289
 30
0.0
 10
569.4324730439158
 20
576.3433167483636
 30
0.0
 10
569.6812062726925
 20
576.5094826909342
 30
0.0
 10
569.8055982894441
 20
576.5925826322385
 30
0.0
  0
ARC
  5
1C2
330
1F
100
AcDbEntity
  8
0
  6
Continuous
 62
     7
370
    25
100
AcDbCircle
 10
552.4343270696
 20
572.3247660651
 30
0.0
 40
0.5000763403906836
100
AcDbArc
 50
273.1626296401
 51
281.6913635617
  0
SPLINE
  5
1C3
330
1F
100
AcDbEntity
  8
0
  6
Continuous
 62
     7
370
    25
100
AcDbSpline
210
0.0
220
0.0
230
1.0
 70
     8
 71
     3
 72
    13
 73
     9
 74
     0
 42
0.00000001
 43
0.00000001
 40
0.0
 40
0.0
 40
0.0
 40
0.0
 40
0.0460329529079903
 40
0.2492425848193756
 40
0.477522557027294
 40
0.7051721168687919
 40
0.8526808263814702
 40
1.0
 40
1.0
 40
1.0
 40
1.0
 10
581.348694263945
 20
558.6003014165082
 30
0.0
 10
581.2203596119068
 20
558.5377924480715
 30
0.0
 10
580.5254995524211
 20
558.1993414931943
 30
0.0
 10
579.1658363178445
 20
557.5813640691654
 30
0.0
 10
577.1578637010261
 20
556.7708917424522
 30
0.0
 10
575.1433534391231
 20
556.0782669411874
 30
0.0
 10
573.2810701578776
 20
555.5280331394894
 30
0.0
 10
572.1887005946392
 20
555.2605170283836
 30
0.0
 10
571.642866938632
 20
555.1268449618232
 30
0.0
  0
LINE
  5
1C4
330
1F
100
AcDbEntity
  8
0
  6
Continuous
 62
     7
370
    25
100
AcDbLine
 10
571.1894068607
 20
557.074447491
 30
0.0
 11
571.6428669386
 21
555.1268449618
 31
0.0
  0
SPLINE
  5
1C5
330
1F
100
AcDbEntity
  8
0
  6
Continuous
 62
     7
370
    25
100
AcDbSpline
210
0.0
220
0.0
230
1.0
 70
     8
 71
     3
 72
    13
 73
     9
 74
     0
 42
0.00000001
 43
0.00000001
 40
0.0
 40
0.0
 40
0.0
 40
0.0
 40
0.2574896950994332
 40
0.4890886589320985
 40
0.7206004760683428
 40
0.944750633496127
 40
0.9460032291293307
 40
1.0
 40
1.0
 40
1.0
 40
1.0
 10
571.189406860745
 20
557.0744474910372
 30
0.0
 10
572.1081324367327
 20
557.0463845269225
 30
0.0
 10
573.853205223871
 20
556.9930803452571
 30
0.0
 10
576.3477704697841
 20
557.1576444640954
 30
0.0
 10
578.6634202757859
 20
557.5710184591045
 30
0.0
 10
580.1405288773876
 20
558.0705756456699
 30
0.0
 10
581.0117903219304
 20
558.4448185005981
 30
0.0
 10
581.181836730753
 20
558.5237989190834
 30
0.0
 10
581.3480279028081
 20
558.6009887192583
 30
0.0
  0
LINE
  5
1C6
330
1F
100
AcDbEntity
  8
0
  6
Continuous
 62
     7
370
    25
100
AcDbLine
 10
581.3480279028
 20
558.6009887193
 30
0.0
 11
581.3486942639
 21
558.6003014165
 31
0.0
  0
ARC
  5
1C7
330
1F
100
AcDbEntity
  8
0
  6
Continuous
 62
     7
370
    25
100
AcDbCircle
 10
560.7333363826
 20
601.9830740756
 30
0.0
 40
48.10950076354644
100
AcDbArc
 50
282.8580809319
 51
283.1066633214
  0
LWPOLYLINE
  5
1C8
330
1F
100
AcDbEntity
  8
0
  6
Continuous
 62
     7
370
    25
100
AcDbPolyline
 90
        3
 70
   128
 43
0.0
 10
581.3486942639
 20
558.6003014165
 10
581.3920511406
 20
558.5729099441
 10
581.4966292137
 20
558.5069119141
  0
ARC
  5
1C9
330
1F
100
AcDbEntity
  8
0
  6
Continuous
 62
     7
370
    25
100
AcDbCircle
 10
560.7333363826
 20
601.9830740756
 30
0.0
 40
48.17977797259061
100
AcDbArc
 50
282.8580809319
 51
295.5281512988
  0
LINE
  5
1CA
330
1F
100
AcDbEntity
  8
0
  6
Continuous
 62
     7
370
    25
100
AcDbLine
 10
571.4394753471
 20
555.07995422
 30
0.0
 11
571.4551146191
 21
555.0114392634
 31
0.0
  0
LINE
  5
1CB
330
1F
100
AcDbEntity
  8
0
  6
Continuous
 62
     7
370
    25
100
AcDbLine
 10
569.1775303957
 20
560.7598105143
 30
0.0
 11
569.0341685668
 21
558.1641625448
 31
0.0
  0
LINE
  5
1CC
330
1F
100
AcDbEntity
  8
0
  6
Continuous
 62
     7
370
    25
100
AcDbLine
 10
569.0341685668
 20
558.1641625448
 30
0.0
 11
565.084087545
 21
558.3823318985
 31
0.0
  0
SPLINE
  5
1CD
330
1F
100
AcDbEntity
  8
0
  6
Continuous
 62
     7
370
    25
100
AcDbSpline
210
0.0
220
0.0
230
1.0
 70
     8
 71
     3
 72
    17
 73
    13
 74
     0
 42
0.00000001
 43
0.00000001
 40
0.0
 40
0.0
 40
0.0
 40
0.0
 40
0.0068264277560503
 40
0.0088450004853822
 40
0.0223994102884379
 40
0.0309598270239227
 40
0.0563228448230658
 40
0.1198844474831635
 40
0.1957493698893817
 40
0.5558716060100612
 40
0.7769840750939092
 40
0.9999999999999999
 40
0.9999999999999999
 40
0.9999999999999999
 40
0.9999999999999999
 10
552.6436219722949
 20
561.673004976514
 30
0.0
 10
552.647242117464
 20
561.6719667934692
 30
0.0
 10
552.6519327385213
 20
561.6706216199959
 30
0.0
 10
552.695465451153
 20
561.6630316319175
 30
0.0
 10
552.7699973751123
 20
561.6512801251866
 30
0.0
 10
552.9368296133961
 20
561.6255612296055
 30
0.0
 10
553.3184058596477
 20
561.5670466569848
 30
0.0
 10
554.0013053859534
 20
561.4578496010241
 30
0.0
 10
556.1063211869855
 20
561.0906781853873
 30
0.0
 10
558.9144474553882
 20
560.4575112830316
 30
0.0
 10
562.3140131406458
 20
559.4450654065562
 30
0.0
 10
564.158094940608
 20
558.7375871101888
 30
0.0
 10
565.0840875449682
 20
558.3823318985193
 30
0.0
  0
LINE
  5
1CE
330
1F
100
AcDbEntity
  8
0
  6
Continuous
 62
     7
370
    25
100
AcDbLine
 10
565.084087545
 20
558.3823318985
 30
0.0
 11
563.9546121275
 21
556.7321601089
 31
0.0
  0
SPLINE
  5
1CF
330
1F
100
AcDbEntity
  8
0
  6
Continuous
 62
     7
370
    25
100
AcDbSpline
210
0.0
220
0.0
230
1.0
 70
     8
 71
     3
 72
    15
 73
    11
 74
     0
 42
0.00000001
 43
0.00000001
 40
0.0
 40
0.0
 40
0.0
 40
0.0
 40
0.225519839162539
 40
0.4515645943751972
 40
0.6337799820516995
 40
0.8158790324473558
 40
0.8946729146060259
 40
0.9638048440471942
 40
0.9940832206369754
 40
1.0
 40
1.0
 40
1.0
 40
1.0
 10
563.9546121274763
 20
556.7321601088805
 30
0.0
 10
563.1091635866222
 20
557.2771677782218
 30
0.0
 10
561.4162986536144
 20
558.3684516672645
 30
0.0
 10
558.939982459935
 20
559.5855550568572
 30
0.0
 10
556.6115715452238
 20
560.5164548652923
 30
0.0
 10
554.8710920554014
 20
561.0722454101058
 30
0.0
 10
553.6134231990318
 20
561.4087982370701
 30
0.0
 10
552.9692903011194
 20
561.5641453433948
 30
0.0
 10
552.6413450110373
 20
561.6396987416621
 30
0.0
 10
552.5488075674132
 20
561.6612194497121
 30
0.0
 10
552.5336805808778
 20
561.6647374144209
 30
0.0
  0
SPLINE
  5
1D0
330
1F
100
AcDbEntity
  8
0
  6
Continuous
 62
     7
370
    25
100
AcDbSpline
210
0.0
220
0.0
230
1.0
 70
     8
 71
     3
 72
    11
 73
     7
 74
     0
 42
0.00000001
 43
0.00000001
 40
0.0
 40
0.0
 40
0.0
 40
0.0
 40
0.0195561212296573
 40
0.1681891996745121
 40
0.589887654079213
 40
1.0
 40
1.0
 40
1.0
 40
1.0
 10
552.6436219722949
 20
561.673004976514
 30
0.0
 10
552.6416632591469
 20
561.6730630902297
 30
0.0
 10
552.6248176693239
 20
561.6735628876701
 30
0.0
 10
552.5729171055651
 20
561.6744093050838
 30
0.0
 10
552.5236324734992
 20
561.6723200065619
 30
0.0
 10
552.5303624585757
 20
561.6672413653782
 30
0.0
 10
552.5336805808778
 20
561.6647374144209
 30
0.0
  0
LINE
  5
1D1
330
1F
100
AcDbEntity
  8
0
  6
Continuous
 62
     7
370
    25
100
AcDbLine
 10
571.9959826348
 20
559.6948365365
 30
0.0
 11
570.3870256415
 21
557.6529750355
 31
0.0
  0
LINE
  5
1D2
330
1F
100
AcDbEntity
  8
0
  6
Continuous
 62
     7
370
    25
100
AcDbLine
 10
581.3480279028
 20
558.6009887193
 30
0.0
 11
581.3474600173
 21
558.6015757602
 31
0.0
  0
ARC
  5
1D3
330
1F
100
AcDbEntity
  8
0
  6
Continuous
 62
     7
370
    25
100
AcDbCircle
 10
577.5613157895
 20
566.7575731766
 30
0.0
 40
11.59155496206734
100
AcDbArc
 50
231.762407147
 51
236.6533814372
  0
LWPOLYLINE
  5
1D4
330
1F
100
AcDbEntity
  8
0
  6
Continuous
 62
     7
370
    25
100
AcDbPolyline
 90
        4
 70
   128
 43
0.0
 10
552.5336805809
 20
561.6647374144
 10
552.5314383346
 20
561.6473791594
 10
552.5224658517
 20
561.5779462978
 10
552.5161355705
 20
561.5289861517
  0
ARC
  5
1D5
330
1F
100
AcDbEntity
  8
0
  6
Continuous
 62
     7
370
    25
100
AcDbCircle
 10
546.1187014557
 20
530.6737650546
 30
0.0
 40
31.57783498432758
100
AcDbArc
 50
54.8280705831
 51
55.6099480104
  0
LINE
  5
1D6
330
1F
100
AcDbEntity
  8
0
  6
Continuous
 62
     7
370
    25
100
AcDbLine
 10
564.3085419932
 20
556.4863465512
 30
0.0
 11
564.2680600783
 21
556.4289000484
 31
0.0
  0
ARC
  5
1D7
330
1F
100
AcDbEntity
  8
0
  6
Continuous
 62
     7
370
    25
100
AcDbCircle
 10
546.1187014557
 20
530.6737650546
 30
0.0
 40
31.5075577752834
100
AcDbArc
 50
54.8280705831
 51
74.9420027521
  0
LINE
  5
1D8
330
1F
100
AcDbEntity
  8
0
  6
Continuous
 62
     7
370
    25
100
AcDbLine
 10
552.5161355705
 20
561.5289861517
 30
0.0
 11
554.3042598542
 21
561.0994586484
 31
0.0
  0
LINE
  5
1D9
330
1F
100
AcDbEntity
  8
0
  6
Continuous
 62
     7
370
    25
100
AcDbLine
 10
552.4422981611
 20
571.9758419052
 30
0.0
 11
552.5161355705
 21
571.9861602015
 31
0.0
  0
SPLINE
  5
1DA
330
1F
100
AcDbEntity
  8
0
  6
Continuous
 62
     7
370
    25
100
AcDbSpline
210
0.0
220
0.0
230
1.0
 70
     8
 71
     3
 72
    10
 73
     6
 74
     0
 42
0.00000001
 43
0.00000001
 40
0.0
 40
0.0
 40
0.0
 40
0.0
 40
0.0490769085761636
 40
0.5995805843665418
 40
0.9999999999999999
 40
0.9999999999999999
 40
0.9999999999999999
 40
0.9999999999999999
 10
570.387025641505
 20
557.652975035486
 30
0.0
 10
570.368078103136
 20
557.6675977710872
 30
0.0
 10
570.1365929412294
 20
557.8462461132765
 30
0.0
 10
569.690719166412
 20
558.0802981066975
 30
0.0
 10
569.2287125895277
 20
558.1393124797152
 30
0.0
 10
569.034168566774
 20
558.1641625448475
 30
0.0
  0
ARC
  5
1DB
330
1F
100
AcDbEntity
  8
0
  6
Continuous
 62
     7
370
    25
100
AcDbCircle
 10
552.4323271799
 20
561.1750397174
 30
0.0
 40
0.5000763405103491
100
AcDbArc
 50
78.3065203379
 51
86.8373700346
  0
SPLINE
  5
1DC
330
1F
100
AcDbEntity
  8
0
  6
Continuous
 62
     7
370
    25
100
AcDbSpline
210
0.0
220
0.0
230
1.0
 70
     8
 71
     3
 72
     9
 73
     5
 74
     0
 42
0.00000001
 43
0.00000001
 40
0.0
 40
0.0
 40
0.0
 40
0.0
 40
0.8458911907780635
 40
1.0
 40
1.0
 40
1.0
 40
1.0
 10
552.5161355704673
 20
561.5289861517347
 30
0.0
 10
552.4952949743563
 20
561.532800958727
 30
0.0
 10
552.4706575312213
 20
561.5373107668842
 30
0.0
 10
552.4460850040451
 20
561.5390382306354
 30
0.0
 10
552.4422981611424
 20
561.5393044480169
 30
0.0
  0
LINE
  5
1DD
330
1F
100
AcDbEntity
  8
0
  6
Continuous
 62
     7
370
    25
100
AcDbLine
 10
534.4468779635
 20
562.6055603013
 30
0.0
 11
534.4473359833
 21
562.6055352148
 31
0.0
  0
LINE
  5
1DE
330
1F
100
AcDbEntity
  8
0
  6
Continuous
 62
     7
370
    25
100
AcDbLine
 10
564.3089799645
 20
577.0281782918
 30
0.0
 11
566.1477208139
 21
578.0251445274
 31
0.0
  0
LINE
  5
1DF
330
1F
100
AcDbEntity
  8
0
  6
Continuous
 62
     7
370
    25
100
AcDbLine
 10
566.887745229
 20
576.1674186276
 30
0.0
 11
566.1477208139
 21
578.0251445274
 31
0.0
  0
LINE
  5
1E0
330
1F
100
AcDbEntity
  8
0
  6
Continuous
 62
     7
370
    25
100
AcDbLine
 10
569.8745155558
 20
576.6465401146
 30
0.0
 11
569.9963493024
 21
578.6425206235
 31
0.0
  0
LINE
  5
1E1
330
1F
100
AcDbEntity
  8
0
  6
Continuous
 62
     7
370
    25
100
AcDbLine
 10
569.9963493024
 20
578.6425206235
 30
0.0
 11
571.4392565422
 21
578.4342335583
 31
0.0
  0
ARC
  5
1E2
330
1F
100
AcDbEntity
  8
0
  6
Continuous
 62
     7
370
    25
100
AcDbCircle
 10
569.4523005842
 20
569.7294676524
 30
0.0
 40
6.929946387144257
100
AcDbArc
 50
86.5070253286
 51
111.7198462835
  0
ARC
  5
1E3
330
1F
100
AcDbEntity
  8
0
  6
Continuous
 62
     7
370
    25
100
AcDbCircle
 10
546.1187014557
 20
530.6737650546
 30
0.0
 40
33.57753037464038
100
AcDbArc
 50
54.8280705831
 51
55.6099480104
  0
LINE
  5
1E4
330
1F
100
AcDbEntity
  8
0
  6
Continuous
 62
     7
370
    25
100
AcDbLine
 10
565.4604303443
 20
558.1209519716
 30
0.0
 11
564.3085419932
 21
556.4863465512
 31
0.0
  0
ARC
  5
1E5
330
1F
100
AcDbEntity
  8
0
  6
Continuous
 62
     7
370
    25
100
AcDbCircle
 10
569.4523005842
 20
569.7294676524
 30
0.0
 40
8.929641777457114
100
AcDbArc
 50
86.5070253286
 51
111.7198462835
  0
ARC
  5
1E6
330
1F
100
AcDbEntity
  8
0
  6
Continuous
 62
     7
370
    25
100
AcDbCircle
 10
569.4523005842
 20
563.7856787008
 30
0.0
 40
6.92994638714431
100
AcDbArc
 50
234.8280705831
 51
282.8580809319
  0
LINE
  5
1E7
330
1F
100
AcDbEntity
  8
0
  6
Continuous
 62
     7
370
    25
100
AcDbLine
 10
570.9944693422
 20
557.0295057863
 30
0.0
 11
571.4394753471
 21
555.07995422
 31
0.0
  0
ARC
  5
1E8
330
1F
100
AcDbEntity
  8
0
  6
Continuous
 62
     7
370
    25
100
AcDbCircle
 10
569.4523005842
 20
563.7856787008
 30
0.0
 40
8.929641777457183
100
AcDbArc
 50
234.8280705831
 51
282.8580809319
  0
ARC
  5
1E9
330
1F
100
AcDbEntity
  8
0
  6
Continuous
 62
     7
370
    25
100
AcDbCircle
 10
560.7333363826
 20
601.9830740756
 30
0.0
 40
46.10980537323358
100
AcDbArc
 50
282.8580809319
 51
283.1066633214
  0
ARC
  5
1EA
330
1F
100
AcDbEntity
  8
0
  6
Continuous
 62
     7
370
    25
100
AcDbCircle
 10
569.4523005842
 20
569.7294676524
 30
0.0
 40
8.999918986501177
100
AcDbArc
 50
77.1419190681
 51
125.1719294169
  0
ARC
  5
1EB
330
1F
100
AcDbEntity
  8
0
  6
Continuous
 62
     7
370
    25
100
AcDbCircle
 10
569.4523005842
 20
563.7856787008
 30
0.0
 40
8.999918986501244
100
AcDbArc
 50
234.8280705831
 51
282.8580809319
  0
SPLINE
  5
1EC
330
1F
100
AcDbEntity
  8
0
  6
Continuous
 62
     7
370
    25
100
AcDbSpline
210
0.0
220
0.0
230
1.0
 70
     8
 71
     3
 72
    11
 73
     7
 74
     0
 42
0.00000001
 43
0.00000001
 40
0.0
 40
0.0
 40
0.0
 40
0.0
 40
0.2200386424382228
 40
0.6637869905998133
 40
0.8890365590789624
 40
1.0
 40
1.0
 40
1.0
 40
1.0
 10
685.8389059340657
 20
572.7778914835617
 30
0.0
 10
686.0431273970673
 20
572.5128728723029
 30
0.0
 10
686.6591989599509
 20
571.7133955419981
 30
0.0
 10
687.1827483109679
 20
570.4502262714702
 30
0.0
 10
687.4343775107291
 20
569.2836564581462
 30
0.0
 10
687.4136703160068
 20
568.7723766594868
 30
0.0
 10
687.4068361319806
 20
568.6036343320144
 30
0.0
  0
SPLINE
  5
1ED
330
1F
100
AcDbEntity
  8
0
  6
Continuous
 62
     7
370
    25
100
AcDbSpline
210
0.0
220
0.0
230
1.0
 70
     8
 71
     3
 72
     9
 73
     5
 74
     0
 42
0.00000001
 43
0.00000001
 40
0.0
 40
0.0
 40
0.0
 40
0.0
 40
0.9209630919903188
 40
1.0
 40
1.0
 40
1.0
 40
1.0
 10
687.4789482973131
 20
572.4575682079283
 30
0.0
 10
686.9645267594402
 20
572.5143952668468
 30
0.0
 10
686.4059576459254
 20
572.5760992150429
 30
0.0
 10
685.8804411342561
 20
572.7631106759308
 30
0.0
 10
685.8389059340657
 20
572.7778914835617
 30
0.0
  0
SPLINE
  5
1EE
330
1F
100
AcDbEntity
  8
0
  6
Continuous
 62
     7
370
    25
100
AcDbSpline
210
0.0
220
0.0
230
1.0
 70
     8
 71
     3
 72
    10
 73
     6
 74
     0
 42
0.00000001
 43
0.00000001
 40
0.0
 40
0.0
 40
0.0
 40
0.0
 40
0.2596150688488825
 40
0.6297606444810656
 40
1.0
 40
1.0
 40
1.0
 40
1.0
 10
734.6541092512501
 20
569.8660106389391
 30
0.0
 10
730.5762890325273
 20
570.1657647760376
 30
0.0
 10
720.6845261991621
 20
570.8928926712016
 30
0.0
 10
704.9549535164888
 20
571.7187395410917
 30
0.0
 10
693.3047752552242
 20
572.2112711903575
 30
0.0
 10
687.4789482973131
 20
572.4575682079283
 30
0.0
  0
SPLINE
  5
1EF
330
1F
100
AcDbEntity
  8
0
  6
Continuous
 62
     7
370
    25
100
AcDbSpline
210
0.0
220
0.0
230
1.0
 70
     8
 71
     3
 72
    11
 73
     7
 74
     0
 42
0.00000001
 43
0.00000001
 40
0.0
 40
0.0
 40
0.0
 40
0.0
 40
0.0614641195413868
 40
0.4999988937835362
 40
0.9375097801832789
 40
1.0
 40
1.0
 40
1.0
 40
1.0
 10
734.6541092512501
 20
564.1399782919372
 30
0.0
 10
734.6657784474526
 20
564.2564352643892
 30
0.0
 10
734.7607051337214
 20
565.2037905317205
 30
0.0
 10
734.844407960988
 20
567.0010347301686
 30
0.0
 10
734.760838037468
 20
568.8002327544095
 30
0.0
 10
734.6659663324226
 20
569.7476075788426
 30
0.0
 10
734.6541092512501
 20
569.8660106389391
 30
0.0
  0
SPLINE
  5
1F0
330
1F
100
AcDbEntity
  8
0
  6
Continuous
 62
     7
370
    25
100
AcDbSpline
210
0.0
220
0.0
230
1.0
 70
     8
 71
     3
 72
    11
 73
     7
 74
     0
 42
0.00000001
 43
0.00000001
 40
0.0
 40
0.0
 40
0.0
 40
0.0
 40
0.2594589277291878
 40
0.629600294623741
 40
0.8147836738016273
 40
0.9999999999999999
 40
0.9999999999999999
 40
0.9999999999999999
 40
0.9999999999999999
 10
687.4789482973131
 20
561.5484207229499
 30
0.0
 10
691.561948946658
 20
561.7139193093709
 30
0.0
 10
701.4697152134625
 20
562.1155164318226
 30
0.0
 10
714.2848521724236
 20
562.7937692478458
 30
0.0
 10
725.9291244386831
 20
563.471190140058
 30
0.0
 10
731.7456085218158
 20
563.9170356886702
 30
0.0
 10
734.6541092512501
 20
564.1399782919372
 30
0.0
  0
SPLINE
  5
1F1
330
1F
100
AcDbEntity
  8
0
  6
Continuous
 62
     7
370
    25
100
AcDbSpline
210
0.0
220
0.0
230
1.0
 70
     8
 71
     3
 72
     9
 73
     5
 74
     0
 42
0.00000001
 43
0.00000001
 40
0.0
 40
0.0
 40
0.0
 40
0.0
 40
0.0790369080192268
 40
0.9999999999999999
 40
0.9999999999999999
 40
0.9999999999999999
 40
0.9999999999999999
 10
685.8389059340665
 20
561.2280974473167
 30
0.0
 10
685.8804411342619
 20
561.2428782549495
 30
0.0
 10
686.4059576459312
 20
561.4298897158369
 30
0.0
 10
686.9645267594458
 20
561.4915936640325
 30
0.0
 10
687.4789482973131
 20
561.5484207229499
 30
0.0
  0
SPLINE
  5
1F2
330
1F
100
AcDbEntity
  8
0
  6
Continuous
 62
     7
370
    25
100
AcDbSpline
210
0.0
220
0.0
230
1.0
 70
     8
 71
     3
 72
    11
 73
     7
 74
     0
 42
0.00000001
 43
0.00000001
 40
0.0
 40
0.0
 40
0.0
 40
0.0
 40
0.072883806494313
 40
0.4140719411596063
 40
0.9209668754550683
 40
1.0
 40
1.0
 40
1.0
 40
1.0
 10
687.406836131977
 20
565.4023545988784
 30
0.0
 10
687.4145512811147
 20
565.2919081646395
 30
0.0
 10
687.4583830584793
 20
564.6644331243085
 30
0.0
 10
687.1138913470412
 20
563.2814410938435
 30
0.0
 10
686.4742019975548
 20
562.0115095760658
 30
0.0
 10
685.914413248122
 20
561.3212089098929
 30
0.0
 10
685.8389059340665
 20
561.2280974473167
 30
0.0
  0
SPLINE
  5
1F3
330
1F
100
AcDbEntity
  8
0
  6
Continuous
 62
     7
370
    25
100
AcDbSpline
210
0.0
220
0.0
230
1.0
 70
     8
 71
     3
 72
    10
 73
     6
 74
     0
 42
0.00000001
 43
0.00000001
 40
0.0
 40
0.0
 40
0.0
 40
0.0
 40
0.38802073778114
 40
0.9790637766506777
 40
1.0
 40
1.0
 40
1.0
 40
1.0
 10
687.4068361319806
 20
568.6036343320144
 30
0.0
 10
687.3335216012213
 20
568.1927944701587
 30
0.0
 10
687.1485325158981
 20
567.1561529003104
 30
0.0
 10
687.2442394417292
 20
566.0623835787391
 30
0.0
 10
687.4014575929768
 20
565.4241877100196
 30
0.0
 10
687.406836131977
 20
565.4023545988784
 30
0.0
  0
ARC
  5
1F4
330
1F
100
AcDbEntity
  8
0
  6
Continuous
 62
     7
370
    25
100
AcDbCircle
 10
679.1613157895
 20
567.0029944654
 30
0.0
 40
8.39944365426445
100
AcDbArc
 50
10.985757993
 51
349.0142420071
  0
SPLINE
  5
1F5
330
1F
100
AcDbEntity
  8
0
  6
Continuous
 62
     7
370
    25
100
AcDbSpline
210
0.0
220
0.0
230
1.0
 70
     8
 71
     3
 72
     9
 73
     5
 74
     0
 42
0.00000001
 43
0.00000001
 40
0.0
 40
0.0
 40
0.0
 40
0.0
 40
0.6817923421274983
 40
1.0
 40
1.0
 40
1.0
 40
1.0
 10
685.8389059340665
 20
561.2280974473167
 30
0.0
 10
685.6966423734234
 20
561.0381870922115
 30
0.0
 10
685.4879812432629
 20
560.759641348338
 30
0.0
 10
685.2585554093827
 20
560.526736975395
 30
0.0
 10
685.1855503521282
 20
560.4526250203725
 30
0.0
  0
ARC
  5
1F6
330
1F
100
AcDbEntity
  8
0
  6
Continuous
 62
     7
370
    25
100
AcDbCircle
 10
679.1613157895
 20
567.0029944654
 30
0.0
 40
8.899367501836373
100
AcDbArc
 50
47.3959191961
 51
312.6040808039
  0
LINE
  5
1F7
330
1F
100
AcDbEntity
  8
0
  6
Continuous
 62
     7
370
    25
100
AcDbLine
 10
685.1855503521
 20
573.5533639105
 30
0.0
 11
685.8389059341
 21
572.7778914836
 31
0.0
  0
SPLINE
  5
1F8
330
1F
100
AcDbEntity
  8
0
  6
Continuous
 62
     7
370
    25
100
AcDbSpline
210
0.0
220
0.0
230
1.0
 70
     8
 71
     3
 72
    10
 73
     6
 74
     0
 42
0.00000001
 43
0.00000001
 40
0.0
 40
0.0
 40
0.0
 40
0.0
 40
0.3702896688583033
 40
0.7405318123903286
 40
0.9999999999999999
 40
0.9999999999999999
 40
0.9999999999999999
 40
0.9999999999999999
 10
734.6656287144285
 20
563.6971187111039
 30
0.0
 10
728.8455648682102
 20
563.3769276965777
 30
0.0
 10
717.2061841597065
 20
562.736586762872
 30
0.0
 10
701.4873157529317
 20
561.8673524310088
 30
0.0
 10
691.5901419369219
 20
561.3186114293997
 30
0.0
 10
687.5120736164579
 20
561.0925061455679
 30
0.0
  0
ARC
  5
1F9
330
1F
100
AcDbEntity
  8
0
  6
Continuous
 62
     7
370
    25
100
AcDbCircle
 10
694.7271628235
 20
561.8458925122
 30
0.0
 40
7.25431618301721
100
AcDbArc
 50
182.3501399448
 51
185.9611177314
  0
ARC
  5
1FA
330
1F
100
AcDbEntity
  8
0
  6
Continuous
 62
     7
370
    25
100
AcDbCircle
 10
730.4051061731
 20
563.8078755351
 30
0.0
 40
4.261961918982413
100
AcDbArc
 50
358.5108705387
 51
4.4691613064
  0
SPLINE
  5
1FB
330
1F
100
AcDbEntity
  8
0
  6
Continuous
 62
     7
370
    25
100
AcDbSpline
210
0.0
220
0.0
230
1.0
 70
     8
 71
     3
 72
    10
 73
     6
 74
     0
 42
0.00000001
 43
0.00000001
 40
0.0
 40
0.0
 40
0.0
 40
0.0
 40
0.3702717503651153
 40
0.7405122151371735
 40
1.0
 40
1.0
 40
1.0
 40
1.0
 10
687.5120736164579
 20
572.9134827853102
 30
0.0
 10
693.331745678127
 20
572.5909542996424
 30
0.0
 10
704.9705980764238
 20
571.9459245798993
 30
0.0
 10
720.6897376603785
 20
571.0771100924203
 30
0.0
 10
730.5872350840772
 20
570.5330551816535
 30
0.0
 10
734.6656287144252
 20
570.3088702197743
 30
0.0
  0
ARC
  5
1FC
330
1F
100
AcDbEntity
  8
0
  6
Continuous
 62
     7
370
    25
100
AcDbCircle
 10
730.4051061704
 20
570.1981133958
 30
0.0
 40
4.261961921739204
100
AcDbArc
 50
355.530838696
 51
1.4891294598
  0
ARC
  5
1FD
330
1F
100
AcDbEntity
  8
0
  6
Continuous
 62
     7
370
    25
100
AcDbCircle
 10
694.7271628236
 20
572.1600964186
 30
0.0
 40
7.254316183155644
100
AcDbArc
 50
174.0388822686
 51
177.6498600552
  0
SPLINE
  5
1FE
330
1F
100
AcDbEntity
  8
0
  6
Continuous
 62
     7
370
    25
100
AcDbSpline
210
0.0
220
0.0
230
1.0
 70
     8
 71
     3
 72
    12
 73
     8
 74
     0
 42
0.00000001
 43
0.00000001
 40
0.0
 40
0.0
 40
0.0
 40
0.0
 40
0.1224290494151407
 40
0.342352244977022
 40
0.5614228816909428
 40
0.7807229538533372
 40
0.9999999999999999
 40
0.9999999999999999
 40
0.9999999999999999
 40
0.9999999999999999
 10
736.5898366840978
 20
569.7553362692828
 30
0.0
 10
736.5808326082338
 20
569.7576949537238
 30
0.0
 10
736.5556542245025
 20
569.7642906180484
 30
0.0
 10
736.3396665408582
 20
569.7812985857878
 30
0.0
 10
735.9037684111289
 20
569.8068095599423
 30
0.0
 10
735.3198427976987
 20
569.8363617425015
 30
0.0
 10
734.8760126661306
 20
569.8561280193804
 30
0.0
 10
734.6541092512501
 20
569.8660106389391
 30
0.0
  0
SPLINE
  5
1FF
330
1F
100
AcDbEntity
  8
0
  6
Continuous
 62
     7
370
    25
100
AcDbSpline
210
0.0
220
0.0
230
1.0
 70
     8
 71
     3
 72
    11
 73
     7
 74
     0
 42
0.00000001
 43
0.00000001
 40
0.0
 40
0.0
 40
0.0
 40
0.0
 40
0.0800485240044343
 40
0.500000585353891
 40
0.9209248322279646
 40
1.0
 40
1.0
 40
1.0
 40
1.0
 10
736.5898366840978
 20
569.7553362692828
 30
0.0
 10
736.5895504396838
 20
569.6090918441822
 30
0.0
 10
736.5877624944792
 20
568.6956171853491
 30
0.0
 10
736.586526797649
 20
567.0012075975906
 30
0.0
 10
736.5877644957442
 20
565.308580745736
 30
0.0
 10
736.589553717712
 20
564.3951173700921
 30
0.0
 10
736.5898366840978
 20
564.250652661601
 30
0.0
  0
SPLINE
  5
200
330
1F
100
AcDbEntity
  8
0
  6
Continuous
 62
     7
370
    25
100
AcDbSpline
210
0.0
220
0.0
230
1.0
 70
     8
 71
     3
 72
    12
 73
     8
 74
     0
 42
0.00000001
 43
0.00000001
 40
0.0
 40
0.0
 40
0.0
 40
0.0
 40
0.113036747616923
 40
0.3328594693547939
 40
0.5544127937944852
 40
0.7774207483513239
 40
1.0
 40
1.0
 40
1.0
 40
1.0
 10
734.6541092512501
 20
564.1399782919372
 30
0.0
 10
734.7681800912371
 20
564.1449935376386
 30
0.0
 10
735.104084653845
 20
564.1597619386945
 30
0.0
 10
735.6381525102397
 20
564.1853541428037
 30
0.0
 10
736.1546781481269
 20
564.2132294056747
 30
0.0
 10
736.5115728652813
 20
564.2366712792652
 30
0.0
 10
736.5637654827998
 20
564.2459951910249
 30
0.0
 10
736.5898366840978
 20
564.250652661601
 30
0.0
  0
SPLINE
  5
201
330
1F
100
AcDbEntity
  8
0
  6
Continuous
 62
     7
370
    25
100
AcDbSpline
210
0.0
220
0.0
230
1.0
 70
     8
 71
     3
 72
     9
 73
     5
 74
     0
 42
0.00000001
 43
0.00000001
 40
0.0
 40
0.0
 40
0.0
 40
0.0
 40
0.5000106123815413
 40
1.0
 40
1.0
 40
1.0
 40
1.0
 10
684.6859425032852
 20
573.985195599752
 30
0.0
 10
685.115663870106
 20
573.6973550616586
 30
0.0
 10
685.9750883626666
 20
573.1216862039072
 30
0.0
 10
686.9997524479448
 20
572.9828829428204
 30
0.0
 10
687.5120736164579
 20
572.9134827853102
 30
0.0
  0
SPLINE
  5
202
330
1F
100
AcDbEntity
  8
0
  6
Continuous
 62
     7
370
    25
100
AcDbSpline
210
0.0
220
0.0
230
1.0
 70
     8
 71
     3
 72
     9
 73
     5
 74
     0
 42
0.00000001
 43
0.00000001
 40
0.0
 40
0.0
 40
0.0
 40
0.0
 40
0.9838702326459098
 40
1.0
 40
1.0
 40
1.0
 40
1.0
 10
685.1855503521282
 20
573.5533639105057
 30
0.0
 10
685.0242095371934
 20
573.6981963235244
 30
0.0
 10
684.8602236683448
 20
573.8454031483808
 30
0.0
 10
684.688708995063
 20
573.982976572428
 30
0.0
 10
684.6859425032852
 20
573.985195599752
 30
0.0
  0
SPLINE
  5
203
330
1F
100
AcDbEntity
  8
0
  6
Continuous
 62
     7
370
    25
100
AcDbSpline
210
0.0
220
0.0
230
1.0
 70
     8
 71
     3
 72
     9
 73
     5
 74
     0
 42
0.00000001
 43
0.00000001
 40
0.0
 40
0.0
 40
0.0
 40
0.0
 40
0.5055561057107117
 40
1.0
 40
1.0
 40
1.0
 40
1.0
 10
687.5120736164579
 20
561.0925061455679
 30
0.0
 10
686.9940140991248
 20
561.0218501112978
 30
0.0
 10
685.9692821030494
 20
560.8820910747204
 30
0.0
 10
685.1105415342879
 20
560.3057577999247
 30
0.0
 10
684.6859425032852
 20
560.0207933311261
 30
0.0
  0
SPLINE
  5
204
330
1F
100
AcDbEntity
  8
0
  6
Continuous
 62
     7
370
    25
100
AcDbSpline
210
0.0
220
0.0
230
1.0
 70
     8
 71
     3
 72
     9
 73
     5
 74
     0
 42
0.00000001
 43
0.00000001
 40
0.0
 40
0.0
 40
0.0
 40
0.0
 40
0.0161297673533699
 40
1.0
 40
1.0
 40
1.0
 40
1.0
 10
684.6859425032852
 20
560.0207933311261
 30
0.0
 10
684.6887089950629
 20
560.02301235845
 30
0.0
 10
684.8602236683491
 20
560.1605857825001
 30
0.0
 10
685.0242095371955
 20
560.3077926073552
 30
0.0
 10
685.1855503521282
 20
560.4526250203725
 30
0.0
  0
SPLINE
  5
205
330
1F
100
AcDbEntity
  8
0
  6
Continuous
 62
     7
370
    25
100
AcDbSpline
210
0.0
220
0.0
230
1.0
 70
     8
 71
     3
 72
    12
 73
     8
 74
     0
 42
0.00000001
 43
0.00000001
 40
0.0
 40
0.0
 40
0.0
 40
0.0
 40
0.2230315344150082
 40
0.4461337558340107
 40
0.6675099896777116
 40
0.8870667292264938
 40
1.0
 40
1.0
 40
1.0
 40
1.0
 10
736.1174824190133
 20
563.7514895905524
 30
0.0
 10
736.0979486328873
 20
563.7533798378471
 30
0.0
 10
736.0588748696509
 20
563.7571609315265
 30
0.0
 10
735.7912856875947
 20
563.7502180952558
 30
0.0
 10
735.4037566037697
 20
563.734629272766
 30
0.0
 10
735.0030344913066
 20
563.7152919927017
 30
0.0
 10
734.7511750690487
 20
563.7017263915253
 30
0.0
 10
734.6656287144285
 20
563.6971187111039
 30
0.0
  0
ARC
  5
206
330
1F
100
AcDbEntity
  8
0
  6
Continuous
 62
     7
370
    25
100
AcDbCircle
 10
736.0897367965
 20
564.250819247
 30
0.0
 40
0.5000999153468282
100
AcDbArc
 50
273.1804119247
 51
359.9809145383
  0
SPLINE
  5
207
330
1F
100
AcDbEntity
  8
0
  6
Continuous
 62
     7
370
    25
100
AcDbSpline
210
0.0
220
0.0
230
1.0
 70
     8
 71
     3
 72
    12
 73
     8
 74
     0
 42
0.00000001
 43
0.00000001
 40
0.0
 40
0.0
 40
0.0
 40
0.0
 40
0.2190444340109026
 40
0.4380981679380224
 40
0.6571027493691832
 40
0.877279108729017
 40
1.0
 40
1.0
 40
1.0
 40
1.0
 10
734.6656287144252
 20
570.3088702197743
 30
0.0
 10
734.8320464551961
 20
570.3000414068247
 30
0.0
 10
735.1648890022951
 20
570.2823834060823
 30
0.0
 10
735.6030474449383
 20
570.2628649166734
 30
0.0
 10
735.9300132716979
 20
570.251559133041
 30
0.0
 10
736.0918571487122
 20
570.2497352649643
 30
0.0
 10
736.1107284811242
 20
570.253243694289
 30
0.0
 10
736.1174824190132
 20
570.2544993403257
 30
0.0
  0
ARC
  5
208
330
1F
100
AcDbEntity
  8
0
  6
Continuous
 62
     7
370
    25
100
AcDbCircle
 10
736.0897367965
 20
569.7551696839
 30
0.0
 40
0.5000999153471427
100
AcDbArc
 50
0.0190854624
 51
86.8195880753
  0
LINE
  5
209
330
1F
100
AcDbEntity
  8
0
  6
Continuous
 62
     7
370
    25
100
AcDbLine
 10
687.5120736165
 20
561.0925061456
 30
0.0
 11
687.5390597982
 21
561.0212158702
 31
0.0
  0
LINE
  5
20A
330
1F
100
AcDbEntity
  8
0
  6
Continuous
 62
     7
370
    25
100
AcDbLine
 10
736.1221727797
 20
563.7470511375
 30
0.0
 11
736.117482419
 21
563.7514895906
 31
0.0
  0
ELLIPSE
  5
20B
330
1F
100
AcDbEntity
  8
0
  6
Continuous
 62
     7
370
    25
100
AcDbEllipse
 10
734.6224012369
 20
563.6637586875
 30
0.0
 11
1.499999304622861
 21
0.0828726334386829
 31
0.0
210
0.0
220
0.0
230
1.0
 40
0.0174284859
 41
5.396717970284461
 42
6.299675703195696
  0
LINE
  5
20C
330
1F
100
AcDbEntity
  8
0
  6
Continuous
 62
     7
370
    25
100
AcDbLine
 10
732.1067865679
 20
563.4549990995
 30
0.0
 11
735.5717497774
 21
563.6958903785
 31
0.0
  0
LINE
  5
20D
330
1F
100
AcDbEntity
  8
0
  6
Continuous
 62
     7
370
    25
100
AcDbLine
 10
732.1067865679
 20
563.4550974907
 30
0.0
 11
732.1067865679
 21
563.4549990995
 31
0.0
  0
ELLIPSE
  5
20E
330
1F
100
AcDbEntity
  8
0
  6
Continuous
 62
     7
370
    25
100
AcDbEllipse
 10
722.657300147
 20
563.1254514392
 30
0.0
 11
14.49999327802038
 21
0.801102123240753
 31
0.0
210
0.0
220
0.0
230
1.0
 40
0.0174284859
 41
4.685109492442216
 42
5.42123482899822
  0
ELLIPSE
  5
20F
330
1F
100
AcDbEntity
  8
0
  6
Continuous
 62
     7
370
    25
100
AcDbEllipse
 10
721.3362902314
 20
562.1751678899
 30
0.0
 11
35.70262504606023
 21
1.972514619921981
 31
0.0
210
0.0
220
0.0
230
1.0
 40
0.0174284859
 41
1.543516838852407
 42
2.025717338718081
  0
ELLIPSE
  5
210
330
1F
100
AcDbEntity
  8
0
  6
Continuous
 62
     7
370
    25
100
AcDbEllipse
 10
702.3160627594
 20
561.8027718302
 30
0.0
 11
7.499996523114078
 21
0.4143631671934145
 31
0.0
210
0.0
220
0.0
230
1.0
 40
0.0174284859
 41
4.976419334597816
 42
5.167309992308083
  0
LINE
  5
211
330
1F
100
AcDbEntity
  8
0
  6
Continuous
 62
     7
370
    25
100
AcDbLine
 10
704.2607151604
 20
561.9351162814
 30
0.0
 11
704.2803334178
 21
561.7847257368
 31
0.0
  0
SPLINE
  5
212
330
1F
100
AcDbEntity
  8
0
  6
Continuous
 62
     7
370
    25
100
AcDbSpline
210
0.0
220
0.0
230
1.0
 70
     8
 71
     3
 72
    10
 73
     6
 74
     0
 42
0.00000001
 43
0.00000001
 40
0.0
 40
0.0
 40
0.0
 40
0.0
 40
0.0186368637458853
 40
0.3939469944633829
 40
1.0
 40
1.0
 40
1.0
 40
1.0
 10
704.0769438747275
 20
561.9346299141639
 30
0.0
 10
704.0794000819762
 20
561.9347176646432
 30
0.0
 10
704.1313195184536
 20
561.9365725388365
 30
0.0
 10
704.2353183669311
 20
561.9392525202143
 30
0.0
 10
704.2510190242805
 20
561.9366954388167
 30
0.0
 10
704.2607151604241
 20
561.935116281409
 30
0.0
  0
LINE
  5
213
330
1F
100
AcDbEntity
  8
0
  6
Continuous
 62
     7
370
    25
100
AcDbLine
 10
687.5390597982
 20
561.0212158702
 30
0.0
 11
704.0769438747
 21
561.9346299142
 31
0.0
  0
LINE
  5
214
330
1F
100
AcDbEntity
  8
0
  6
Continuous
 62
     7
370
    25
100
AcDbLine
 10
704.0790096067
 20
572.0875626655
 30
0.0
 11
687.5451011832
 21
573.0007571278
 31
0.0
  0
SPLINE
  5
215
330
1F
100
AcDbEntity
  8
0
  6
Continuous
 62
     7
370
    25
100
AcDbSpline
210
0.0
220
0.0
230
1.0
 70
     8
 71
     3
 72
    11
 73
     7
 74
     0
 42
0.00000001
 43
0.00000001
 40
0.0
 40
0.0
 40
0.0
 40
0.0
 40
0.417746929449515
 40
0.8392770662410639
 40
0.9817832068818853
 40
1.0
 40
1.0
 40
1.0
 40
1.0
 10
704.2627150472958
 20
572.0862132202558
 30
0.0
 10
704.258078019264
 20
572.0851300290722
 30
0.0
 10
704.2487619692627
 20
572.0829538370891
 30
0.0
 10
704.1732655035125
 20
572.0841560139804
 30
0.0
 10
704.1030053029405
 20
572.0866265413204
 30
0.0
 10
704.0814524662828
 20
572.0874673642772
 30
0.0
 10
704.0790096066528
 20
572.0875626655359
 30
0.0
  0
LINE
  5
216
330
1F
100
AcDbEntity
  8
0
  6
Continuous
 62
     7
370
    25
100
AcDbLine
 10
704.2803334178
 20
572.221263194
 30
0.0
 11
704.2627150473
 21
572.0862132203
 31
0.0
  0
ELLIPSE
  5
217
330
1F
100
AcDbEntity
  8
0
  6
Continuous
 62
     7
370
    25
100
AcDbEllipse
 10
702.3160627594
 20
572.2032171007
 30
0.0
 11
7.499996523114078
 21
-0.4143631671934145
 31
0.0
210
0.0
220
0.0
230
1.0
 40
0.0174284859
 41
1.115875314871314
 42
1.306765972581833
  0
ELLIPSE
  5
218
330
1F
100
AcDbEntity
  8
0
  6
Continuous
 62
     7
370
    25
100
AcDbEllipse
 10
721.3362902314
 20
571.8308210409
 30
0.0
 11
35.70262504606023
 21
-1.972514619921981
 31
0.0
210
0.0
220
0.0
230
1.0
 40
0.0174284859
 41
4.257467968461818
 42
4.739668468327165
  0
ELLIPSE
  5
219
330
1F
100
AcDbEntity
  8
0
  6
Continuous
 62
     7
370
    25
100
AcDbEllipse
 10
722.657300147
 20
570.8805374916
 30
0.0
 11
14.49999327802038
 21
-0.8011021232406392
 31
0.0
210
0.0
220
0.0
230
1.0
 40
0.0174284859
 41
0.861950478181597
 42
1.598075814737383
  0
LINE
  5
21A
330
1F
100
AcDbEntity
  8
0
  6
Continuous
 62
     7
370
    25
100
AcDbLine
 10
732.1067865679
 20
570.5509898314
 30
0.0
 11
732.1067865679
 21
570.5508914402
 31
0.0
  0
LINE
  5
21B
330
1F
100
AcDbEntity
  8
0
  6
Continuous
 62
     7
370
    25
100
AcDbLine
 10
735.5717497774
 20
570.3100985524
 30
0.0
 11
732.1067865679
 21
570.5509898314
 31
0.0
  0
ELLIPSE
  5
21C
330
1F
100
AcDbEntity
  8
0
  6
Continuous
 62
     7
370
    25
100
AcDbEllipse
 10
734.6224012369
 20
570.3422302434
 30
0.0
 11
1.499999304622747
 21
-0.08287263343868288
 31
0.0
210
0.0
220
0.0
230
1.0
 40
0.0174284859
 41
0.4958152361042433
 42
0.8864673368935004
  0
LINE
  5
21D
330
1F
100
AcDbEntity
  8
0
  6
Continuous
 62
     7
370
    25
100
AcDbLine
 10
736.117482419
 20
570.2544993403
 30
0.0
 11
736.1221727797
 21
570.2589377934
 31
0.0
  0
LINE
  5
21E
330
1F
100
AcDbEntity
  8
0
  6
Continuous
 62
     7
370
    25
100
AcDbLine
 10
687.5451011832
 20
573.0007571278
 30
0.0
 11
687.5120736165
 21
572.9134827853
 31
0.0
  0
SPLINE
  5
21F
330
1F
100
AcDbEntity
  8
0
  6
Continuous
 62
     7
370
    25
100
AcDbSpline
210
0.0
220
0.0
230
1.0
 70
     8
 71
     3
 72
     9
 73
     5
 74
     0
 42
0.00000001
 43
0.00000001
 40
0.0
 40
0.0
 40
0.0
 40
0.0
 40
0.5001021276704746
 40
0.9999999999999999
 40
0.9999999999999999
 40
0.9999999999999999
 40
0.9999999999999999
 10
684.7191613693407
 20
559.955101884166
 30
0.0
 10
685.148109145048
 20
560.2416275182544
 30
0.0
 10
686.0058295024985
 20
560.8145617615523
 30
0.0
 10
687.0280526311136
 20
560.9523405480064
 30
0.0
 10
687.5390597981543
 20
561.021215870207
 30
0.0
  0
LINE
  5
220
330
1F
100
AcDbEntity
  8
0
  6
Continuous
 62
     7
370
    25
100
AcDbLine
 10
684.7191613693
 20
559.9551018842
 30
0.0
 11
684.6859425033
 21
560.0207933311
 31
0.0
  0
SPLINE
  5
221
330
1F
100
AcDbEntity
  8
0
  6
Continuous
 62
     7
370
    25
100
AcDbSpline
210
0.0
220
0.0
230
1.0
 70
     8
 71
     3
 72
     9
 73
     5
 74
     0
 42
0.00000001
 43
0.00000001
 40
0.0
 40
0.0
 40
0.0
 40
0.0
 40
0.4007227371565442
 40
1.0
 40
1.0
 40
1.0
 40
1.0
 10
687.545101183206
 20
573.0007571277505
 30
0.0
 10
687.1364150597967
 20
573.0491643898162
 30
0.0
 10
686.116542500757
 20
573.16996427856
 30
0.0
 10
685.247466456931
 20
573.7300715519136
 30
0.0
 10
684.7266489441843
 20
574.0657311055877
 30
0.0
  0
LINE
  5
222
330
1F
100
AcDbEntity
  8
0
  6
Continuous
 62
     7
370
    25
100
AcDbLine
 10
684.6859425033
 20
573.9851955998
 30
0.0
 11
684.7266489442
 21
574.0657311056
 31
0.0
  0
ARC
  5
223
330
1F
100
AcDbEntity
  8
0
  6
Continuous
 62
     7
370
    25
100
AcDbCircle
 10
679.1613157895
 20
567.0029944654
 30
0.0
 40
8.975658044222147
100
AcDbArc
 50
245.1648853947
 51
308.2586979829
  0
LWPOLYLINE
  5
224
330
1F
100
AcDbEntity
  8
0
  6
Continuous
 62
     7
370
    25
100
AcDbPolyline
 90
        3
 70
   128
 43
0.0
 10
675.2260023652
 20
558.7523347421
 10
675.3305839294
 20
558.8185871534
 10
675.3914644721
 20
558.8574031197
  0
ARC
  5
225
330
1F
100
AcDbEntity
  8
0
  6
Continuous
 62
     7
370
    25
100
AcDbCircle
 10
679.1613157895
 20
567.0029944654
 30
0.0
 40
9.141120151092153
100
AcDbArc
 50
115.4997164176
 51
244.5002794289
  0
LWPOLYLINE
  5
226
330
1F
100
AcDbEntity
  8
0
  6
Continuous
 62
     7
370
    25
100
AcDbPolyline
 90
        3
 70
   128
 43
0.0
 10
675.3751715617
 20
575.1589918819
 10
675.3305839294
 20
575.1874017775
 10
675.2260023649
 20
575.2536541889
  0
ARC
  5
227
330
1F
100
AcDbEntity
  8
0
  6
Continuous
 62
     7
370
    25
100
AcDbCircle
 10
679.1613157895
 20
567.0029944654
 30
0.0
 40
8.99195095466071
100
AcDbArc
 50
51.762407147
 51
114.9014811666
  0
LINE
  5
228
330
1F
100
AcDbEntity
  8
0
  6
Continuous
 62
     7
370
    25
100
AcDbLine
 10
736.5945270448
 20
569.7597747223
 30
0.0
 11
736.5898366841
 21
569.7553362693
 31
0.0
  0
LINE
  5
229
330
1F
100
AcDbEntity
  8
0
  6
Continuous
 62
     7
370
    25
100
AcDbLine
 10
736.5945270448
 20
564.2462142085
 30
0.0
 11
736.5945270448
 21
569.7597747223
 31
0.0
  0
LINE
  5
22A
330
1F
100
AcDbEntity
  8
0
  6
Continuous
 62
     7
370
    25
100
AcDbLine
 10
736.5898366841
 20
564.2506526616
 30
0.0
 11
736.5945270448
 21
564.2462142085
 31
0.0
  0
ARC
  5
22B
330
1F
100
AcDbEntity
  8
0
  6
Continuous
 62
     7
370
    25
100
AcDbCircle
 10
736.0944271572
 20
569.759608137
 30
0.0
 40
0.5000999153474146
100
AcDbArc
 50
0.0190854618
 51
86.8195880753
  0
ARC
  5
22C
330
1F
100
AcDbEntity
  8
0
  6
Continuous
 62
     7
370
    25
100
AcDbCircle
 10
736.0944271572
 20
564.2463807939
 30
0.0
 40
0.5000999153469543
100
AcDbArc
 50
273.1804119247
 51
359.9809145383
  0
LINE
  5
22D
330
1F
100
AcDbEntity
  8
0
  6
Continuous
 62
     7
370
    25
100
AcDbLine
 10
735.5717497774
 20
570.3100985524
 30
0.0
 11
735.5788575081
 21
570.3097315158
 31
0.0
  0
LINE
  5
22E
330
1F
100
AcDbEntity
  8
0
  6
Continuous
 62
     7
370
    25
100
AcDbLine
 10
735.5717497774
 20
563.6958903785
 30
0.0
 11
735.5788575081
 21
563.6962574151
 31
0.0
  0
SPLINE
  5
22F
330
1F
100
AcDbEntity
  8
0
  6
Continuous
 62
     7
370
    25
100
AcDbSpline
210
0.0
220
0.0
230
1.0
 70
     8
 71
     3
 72
    12
 73
     8
 74
     0
 42
0.00000001
 43
0.00000001
 40
0.0
 40
0.0
 40
0.0
 40
0.0
 40
0.1662426524176554
 40
0.3368059756191313
 40
0.6054181071254575
 40
0.8801435087136176
 40
1.0
 40
1.0
 40
1.0
 40
1.0
 10
685.2833750367844
 20
555.3263340837681
 30
0.0
 10
684.6456935162482
 20
555.4818192592511
 30
0.0
 10
683.3537570394477
 20
555.7968306926062
 30
0.0
 10
681.1695706570982
 20
556.4597957976049
 30
0.0
 10
678.8075963135385
 20
557.3119907144102
 30
0.0
 10
676.8420587516459
 20
558.1546193930222
 30
0.0
 10
675.7282837668504
 20
558.6924774857175
 30
0.0
 10
675.3899682886928
 20
558.8558549365448
 30
0.0
  0
LINE
  5
230
330
1F
100
AcDbEntity
  8
0
  6
Continuous
 62
     7
370
    25
100
AcDbLine
 10
685.2833750368
 20
555.3263340838
 30
0.0
 11
685.2675169598
 21
555.2568605522
 31
0.0
  0
ARC
  5
231
330
1F
100
AcDbEntity
  8
0
  6
Continuous
 62
     7
370
    25
100
AcDbCircle
 10
695.9892951963
 20
602.2284953645
 30
0.0
 40
48.17977797259051
100
AcDbArc
 50
244.4718479123
 51
257.1419190681
  0
LWPOLYLINE
  5
232
330
1F
100
AcDbEntity
  8
0
  6
Continuous
 62
     7
370
    25
100
AcDbPolyline
 90
        3
 70
   128
 43
0.0
 10
675.3899682887
 20
558.8558549365
 10
675.3305804383
 20
558.818331233
 10
675.2260023655
 20
558.7523332031
  0
SPLINE
  5
233
330
1F
100
AcDbEntity
  8
0
  6
Continuous
 62
     7
370
    25
100
AcDbSpline
210
0.0
220
0.0
230
1.0
 70
     8
 71
     3
 72
    12
 73
     8
 74
     0
 42
0.00000001
 43
0.00000001
 40
0.0
 40
0.0
 40
0.0
 40
0.0
 40
0.1345419440893861
 40
0.4125227334043415
 40
0.6966514762099344
 40
0.8475579366075746
 40
1.0
 40
1.0
 40
1.0
 40
1.0
 10
675.3906858656499
 20
558.8565965026187
 30
0.0
 10
675.8200432890798
 20
558.6657710560263
 30
0.0
 10
677.1365078245044
 20
558.0806759366999
 30
0.0
 10
679.5101357685268
 20
557.455727287909
 30
0.0
 10
682.0350822006005
 20
557.1543716524166
 30
0.0
 10
684.1800199193776
 20
557.048784982812
 30
0.0
 10
685.3163676260633
 20
557.0431520151153
 30
0.0
 10
685.8874176742854
 20
557.0403212737359
 30
0.0
  0
ARC
  5
234
330
1F
100
AcDbEntity
  8
0
  6
Continuous
 62
     7
370
    25
100
AcDbCircle
 10
681.3948866813
 20
557.6601453183
 30
0.0
 40
4.535087272523857
100
AcDbArc
 50
329.0284626407
 51
352.1446266983
  0
LINE
  5
235
330
1F
100
AcDbEntity
  8
0
  6
Continuous
 62
     7
370
    25
100
AcDbLine
 10
675.3899682887
 20
558.8558549365
 30
0.0
 11
675.3906858656
 21
558.8565965026
 31
0.0
  0
LINE
  5
236
330
1F
100
AcDbEntity
  8
0
  6
Continuous
 62
     7
370
    25
100
AcDbLine
 10
684.7191613693
 20
559.9551018842
 30
0.0
 11
686.9170332895
 21
557.1679850098
 31
0.0
  0
ARC
  5
237
330
1F
100
AcDbEntity
  8
0
  6
Continuous
 62
     7
370
    25
100
AcDbCircle
 10
679.1613157895
 20
567.0029944654
 30
0.0
 40
12.52511736202731
100
AcDbArc
 50
307.8583068702
 51
308.2586979829
  0
LINE
  5
238
330
1F
100
AcDbEntity
  8
0
  6
Continuous
 62
     7
370
    25
100
AcDbLine
 10
685.8874176743
 20
557.0403212737
 30
0.0
 11
686.8481160232
 21
557.1140275275
 31
0.0
  0
LINE
  5
239
330
1F
100
AcDbEntity
  8
0
  6
Continuous
 62
     7
370
    25
100
AcDbLine
 10
675.3914644721
 20
558.8574031197
 30
0.0
 11
675.3906858656
 21
558.8565965026
 31
0.0
  0
LINE
  5
23A
330
1F
100
AcDbEntity
  8
0
  6
Continuous
 62
     7
370
    25
100
AcDbLine
 10
689.8348863499
 20
557.5931490145
 30
0.0
 11
687.7348038339
 21
557.4771580658
 31
0.0
  0
LINE
  5
23B
330
1F
100
AcDbEntity
  8
0
  6
Continuous
 62
     7
370
    25
100
AcDbLine
 10
687.5390597982
 20
561.0212158702
 30
0.0
 11
687.7348038339
 21
557.4771580658
 31
0.0
  0
SPLINE
  5
23C
330
1F
100
AcDbEntity
  8
0
  6
Continuous
 62
     7
370
    25
100
AcDbSpline
210
0.0
220
0.0
230
1.0
 70
     8
 71
     3
 72
    17
 73
    13
 74
     0
 42
0.00000001
 43
0.00000001
 40
0.0
 40
0.0
 40
0.0
 40
0.0
 40
0.2859834379244686
 40
0.5215922644122235
 40
0.7592399016809398
 40
0.8521492405060501
 40
0.9266708633836005
 40
0.9605058393195371
 40
0.9835417153308582
 40
0.9930790992390822
 40
0.9972256067114857
 40
1.0
 40
1.0
 40
1.0
 40
1.0
 10
691.2755547120333
 20
558.1172926964539
 30
0.0
 10
692.5043328957807
 20
558.6491608204743
 30
0.0
 10
694.7454458776115
 20
559.6192110485218
 30
0.0
 10
698.0843945645133
 20
560.6614417193067
 30
0.0
 10
700.5870499312202
 20
561.2792602802332
 30
0.0
 10
702.3573562152563
 20
561.6332355894515
 30
0.0
 10
703.2224770505936
 20
561.7879366240642
 30
0.0
 10
703.7480644798691
 20
561.876436614896
 30
0.0
 10
703.9817265935262
 20
561.9155483777187
 30
0.0
 10
704.0593767530156
 20
561.9298681444803
 30
0.0
 10
704.0754584072157
 20
561.933601896798
 30
0.0
 10
704.0765187951916
 20
561.9343357379929
 30
0.0
 10
704.0769438747275
 20
561.9346299141639
 30
0.0
  0
LINE
  5
23D
330
1F
100
AcDbEntity
  8
0
  6
Continuous
 62
     7
370
    25
100
AcDbLine
 10
689.8348863499
 20
557.5931490145
 30
0.0
 11
691.275554712
 21
558.1172926965
 31
0.0
  0
ARC
  5
23E
330
1F
100
AcDbEntity
  8
0
  6
Continuous
 62
     7
370
    25
100
AcDbCircle
 10
697.0789875032
 20
561.7263950773
 30
0.0
 40
6.834138728221984
100
AcDbArc
 50
211.8771071303
 51
226.9488007428
  0
SPLINE
  5
23F
330
1F
100
AcDbEntity
  8
0
  6
Continuous
 62
     7
370
    25
100
AcDbSpline
210
0.0
220
0.0
230
1.0
 70
     8
 71
     3
 72
    10
 73
     6
 74
     0
 42
0.00000001
 43
0.00000001
 40
0.0
 40
0.0
 40
0.0
 40
0.0
 40
0.5975855365574314
 40
0.979056356318194
 40
1.0
 40
1.0
 40
1.0
 40
1.0
 10
704.1869691944153
 20
561.9255030168247
 30
0.0
 10
704.1894883337686
 20
561.929242314551
 30
0.0
 10
704.1936155745493
 20
561.9353686060745
 30
0.0
 10
704.1192444479939
 20
561.935745164931
 30
0.0
 10
704.0790364958895
 20
561.9346850859305
 30
0.0
 10
704.0769438747275
 20
561.9346299141639
 30
0.0
  0
SPLINE
  5
240
330
1F
100
AcDbEntity
  8
0
  6
Continuous
 62
     7
370
    25
100
AcDbSpline
210
0.0
220
0.0
230
1.0
 70
     8
 71
     3
 72
    15
 73
    11
 74
     0
 42
0.00000001
 43
0.00000001
 40
0.0
 40
0.0
 40
0.0
 40
0.0
 40
0.01289814015984
 40
0.05194435415656
 40
0.1318327952014351
 40
0.2279057212361163
 40
0.4677439605522696
 40
0.7076088995728966
 40
0.853851708197697
 40
0.9999999999999999
 40
0.9999999999999999
 40
0.9999999999999999
 40
0.9999999999999999
 10
704.1869691944153
 20
561.9255030168247
 30
0.0
 10
704.153500590891
 20
561.917658119537
 30
0.0
 10
704.0187133290805
 20
561.8860645627933
 30
0.0
 10
703.5794429491139
 20
561.7836738194844
 30
0.0
 10
702.7679873291293
 20
561.5813523239956
 30
0.0
 10
701.1147209973404
 20
561.1137034247657
 30
0.0
 10
698.7683618665762
 20
560.2821166467303
 30
0.0
 10
696.2247660247491
 20
559.0885260516553
 30
0.0
 10
694.1059886051078
 20
557.8816040069651
 30
0.0
 10
692.9776423635276
 20
557.1153783404628
 30
0.0
 10
692.4136516143988
 20
556.7323893502686
 30
0.0
  0
LWPOLYLINE
  5
241
330
1F
100
AcDbEntity
  8
0
  6
Continuous
 62
     7
370
    25
100
AcDbPolyline
 90
        4
 70
   128
 43
0.0
 10
704.2064960085
 20
561.7744074406
 10
704.2042513728
 20
561.7917655874
 10
704.1952763389
 20
561.8611983336
 10
704.1869691944
 20
561.9255030168
  0
LINE
  5
242
330
1F
100
AcDbEntity
  8
0
  6
Continuous
 62
     7
370
    25
100
AcDbLine
 10
702.4183717247
 20
561.3448799373
 30
0.0
 11
704.2064960085
 21
561.7744074406
 31
0.0
  0
ARC
  5
243
330
1F
100
AcDbEntity
  8
0
  6
Continuous
 62
     7
370
    25
100
AcDbCircle
 10
710.6039301233
 20
530.9191863434
 30
0.0
 40
31.50755777528333
100
AcDbArc
 50
105.0579972479
 51
125.1719294169
  0
LINE
  5
244
330
1F
100
AcDbEntity
  8
0
  6
Continuous
 62
     7
370
    25
100
AcDbLine
 10
692.4136516144
 20
556.7323893503
 30
0.0
 11
692.4545715006
 21
556.6743213372
 31
0.0
  0
SPLINE
  5
245
330
1F
100
AcDbEntity
  8
0
  6
Continuous
 62
     7
370
    25
100
AcDbSpline
210
0.0
220
0.0
230
1.0
 70
     8
 71
     3
 72
     9
 73
     5
 74
     0
 42
0.00000001
 43
0.00000001
 40
0.0
 40
0.0
 40
0.0
 40
0.0
 40
0.4998978730609584
 40
1.0
 40
1.0
 40
1.0
 40
1.0
 10
687.7348038338596
 20
557.4771580657631
 30
0.0
 10
687.5866089179639
 20
557.4571917277609
 30
0.0
 10
687.2901585350319
 20
557.4172508936862
 30
0.0
 10
687.0414253062552
 20
557.2510849511157
 30
0.0
 10
686.9170332895036
 20
557.1679850098112
 30
0.0
  0
ARC
  5
246
330
1F
100
AcDbEntity
  8
0
  6
Continuous
 62
     7
370
    25
100
AcDbCircle
 10
704.2883045093
 20
561.435801577
 30
0.0
 40
0.5000763403821998
100
AcDbArc
 50
93.16262964
 51
101.6913635617
  0
SPLINE
  5
247
330
1F
100
AcDbEntity
  8
0
  6
Continuous
 62
     7
370
    25
100
AcDbSpline
210
0.0
220
0.0
230
1.0
 70
     8
 71
     3
 72
    13
 73
     9
 74
     0
 42
0.00000001
 43
0.00000001
 40
0.0
 40
0.0
 40
0.0
 40
0.0
 40
0.0460329529079903
 40
0.2492425848193756
 40
0.477522557027294
 40
0.7051721168687919
 40
0.8526808263814702
 40
1.0
 40
1.0
 40
1.0
 40
1.0
 10
675.3739373150026
 20
575.1602662255415
 30
0.0
 10
675.5022719670409
 20
575.2227751939781
 30
0.0
 10
676.1971320265266
 20
575.5612261488556
 30
0.0
 10
677.5567952611032
 20
576.1792035728845
 30
0.0
 10
679.5647678779216
 20
576.9896758995976
 30
0.0
 10
681.5792781398246
 20
577.6823007008622
 30
0.0
 10
683.4415614210701
 20
578.2325345025604
 30
0.0
 10
684.5339309843085
 20
578.5000506136663
 30
0.0
 10
685.0797646403157
 20
578.6337226802266
 30
0.0
  0
LINE
  5
248
330
1F
100
AcDbEntity
  8
0
  6
Continuous
 62
     7
370
    25
100
AcDbLine
 10
685.5332247182
 20
576.686120151
 30
0.0
 11
685.0797646403
 21
578.6337226802
 31
0.0
  0
SPLINE
  5
249
330
1F
100
AcDbEntity
  8
0
  6
Continuous
 62
     7
370
    25
100
AcDbSpline
210
0.0
220
0.0
230
1.0
 70
     8
 71
     3
 72
    13
 73
     9
 74
     0
 42
0.00000001
 43
0.00000001
 40
0.0
 40
0.0
 40
0.0
 40
0.0
 40
0.2574896950994332
 40
0.4890886589320986
 40
0.7206004760683428
 40
0.944750633496127
 40
0.9460032291293307
 40
1.0
 40
1.0
 40
1.0
 40
1.0
 10
685.5332247182027
 20
576.6861201510126
 30
0.0
 10
684.614499142215
 20
576.7141831151273
 30
0.0
 10
682.8694263550767
 20
576.7674872967928
 30
0.0
 10
680.3748611091636
 20
576.6029231779545
 30
0.0
 10
678.0592113031618
 20
576.1895491829451
 30
0.0
 10
676.5821027015601
 20
575.6899919963798
 30
0.0
 10
675.7108412570173
 20
575.3157491414515
 30
0.0
 10
675.5407948481947
 20
575.2367687229663
 30
0.0
 10
675.3746036761396
 20
575.1595789227914
 30
0.0
  0
LINE
  5
24A
330
1F
100
AcDbEntity
  8
0
  6
Continuous
 62
     7
370
    25
100
AcDbLine
 10
675.3746036761
 20
575.1595789228
 30
0.0
 11
675.373937315
 21
575.1602662255
 31
0.0
  0
ARC
  5
24B
330
1F
100
AcDbEntity
  8
0
  6
Continuous
 62
     7
370
    25
100
AcDbCircle
 10
695.9892951963
 20
531.7774935664
 30
0.0
 40
48.10950076354634
100
AcDbArc
 50
102.8580809319
 51
103.1066633214
  0
LWPOLYLINE
  5
24C
330
1F
100
AcDbEntity
  8
0
  6
Continuous
 62
     7
370
    25
100
AcDbPolyline
 90
        3
 70
   128
 43
0.0
 10
675.373937315
 20
575.1602662255
 10
675.3305804383
 20
575.1876576979
 10
675.2260023652
 20
575.253655728
  0
ARC
  5
24D
330
1F
100
AcDbEntity
  8
0
  6
Continuous
 62
     7
370
    25
100
AcDbCircle
 10
695.9892951963
 20
531.7774935664
 30
0.0
 40
48.17977797259061
100
AcDbArc
 50
102.8580809319
 51
115.5281512988
  0
LINE
  5
24E
330
1F
100
AcDbEntity
  8
0
  6
Continuous
 62
     7
370
    25
100
AcDbLine
 10
685.2831562318
 20
578.680613422
 30
0.0
 11
685.2675169598
 21
578.7491283787
 31
0.0
  0
LINE
  5
24F
330
1F
100
AcDbEntity
  8
0
  6
Continuous
 62
     7
370
    25
100
AcDbLine
 10
687.5451011832
 20
573.0007571278
 30
0.0
 11
687.6884630122
 21
575.5964050972
 31
0.0
  0
LINE
  5
250
330
1F
100
AcDbEntity
  8
0
  6
Continuous
 62
     7
370
    25
100
AcDbLine
 10
687.6884630122
 20
575.5964050972
 30
0.0
 11
691.638544034
 21
575.3782357435
 31
0.0
  0
SPLINE
  5
251
330
1F
100
AcDbEntity
  8
0
  6
Continuous
 62
     7
370
    25
100
AcDbSpline
210
0.0
220
0.0
230
1.0
 70
     8
 71
     3
 72
    17
 73
    13
 74
     0
 42
0.00000001
 43
0.00000001
 40
0.0
 40
0.0
 40
0.0
 40
0.0
 40
0.0068264277560503
 40
0.0088450004853822
 40
0.0223994102884379
 40
0.0309598270239227
 40
0.0563228448230658
 40
0.1198844474831635
 40
0.1957493698893817
 40
0.5558716060100612
 40
0.7769840750939092
 40
0.9999999999999999
 40
0.9999999999999999
 40
0.9999999999999999
 40
0.9999999999999999
 10
704.0790096066528
 20
572.0875626655359
 30
0.0
 10
704.0753894614837
 20
572.0886008485807
 30
0.0
 10
704.0706988404264
 20
572.0899460220538
 30
0.0
 10
704.0271661277947
 20
572.0975360101322
 30
0.0
 10
703.9526342038354
 20
572.1092875168632
 30
0.0
 10
703.7858019655516
 20
572.1350064124443
 30
0.0
 10
703.4042257193
 20
572.193520985065
 30
0.0
 10
702.7213261929943
 20
572.3027180410257
 30
0.0
 10
700.6163103919622
 20
572.6698894566624
 30
0.0
 10
697.8081841235595
 20
573.3030563590181
 30
0.0
 10
694.4086184383019
 20
574.3155022354937
 30
0.0
 10
692.5645366383397
 20
575.022980531861
 30
0.0
 10
691.6385440339795
 20
575.3782357435306
 30
0.0
  0
LINE
  5
252
330
1F
100
AcDbEntity
  8
0
  6
Continuous
 62
     7
370
    25
100
AcDbLine
 10
691.638544034
 20
575.3782357435
 30
0.0
 11
692.7680194515
 21
577.0284075332
 31
0.0
  0
SPLINE
  5
253
330
1F
100
AcDbEntity
  8
0
  6
Continuous
 62
     7
370
    25
100
AcDbSpline
210
0.0
220
0.0
230
1.0
 70
     8
 71
     3
 72
    15
 73
    11
 74
     0
 42
0.00000001
 43
0.00000001
 40
0.0
 40
0.0
 40
0.0
 40
0.0
 40
0.2255198391625381
 40
0.4515645943751972
 40
0.6337799820516985
 40
0.8158790324473556
 40
0.8946729146060259
 40
0.9638048440471941
 40
0.9940832206369753
 40
0.9999999999999999
 40
0.9999999999999999
 40
0.9999999999999999
 40
0.9999999999999999
 10
692.7680194514714
 20
577.0284075331693
 30
0.0
 10
693.6134679923255
 20
576.4833998638279
 30
0.0
 10
695.3063329253333
 20
575.3921159747853
 30
0.0
 10
697.7826491190127
 20
574.1750125851927
 30
0.0
 10
700.1110600337239
 20
573.2441127767574
 30
0.0
 10
701.8515395235463
 20
572.688322231944
 30
0.0
 10
703.109208379916
 20
572.3517694049796
 30
0.0
 10
703.7533412778283
 20
572.196422298655
 30
0.0
 10
704.0812865679104
 20
572.1208689003877
 30
0.0
 10
704.1738240115345
 20
572.0993481923376
 30
0.0
 10
704.1889509980699
 20
572.0958302276289
 30
0.0
  0
SPLINE
  5
254
330
1F
100
AcDbEntity
  8
0
  6
Continuous
 62
     7
370
    25
100
AcDbSpline
210
0.0
220
0.0
230
1.0
 70
     8
 71
     3
 72
    11
 73
     7
 74
     0
 42
0.00000001
 43
0.00000001
 40
0.0
 40
0.0
 40
0.0
 40
0.0
 40
0.0195561212296573
 40
0.1681891996745121
 40
0.589887654079213
 40
1.0
 40
1.0
 40
1.0
 40
1.0
 10
704.0790096066528
 20
572.0875626655359
 30
0.0
 10
704.0809683198008
 20
572.0875045518201
 30
0.0
 10
704.0978139096238
 20
572.0870047543796
 30
0.0
 10
704.1497144733826
 20
572.0861583369659
 30
0.0
 10
704.1989991054485
 20
572.088247635488
 30
0.0
 10
704.192269120372
 20
572.0933262766714
 30
0.0
 10
704.1889509980699
 20
572.0958302276289
 30
0.0
  0
LINE
  5
255
330
1F
100
AcDbEntity
  8
0
  6
Continuous
 62
     7
370
    25
100
AcDbLine
 10
684.7266489442
 20
574.0657311056
 30
0.0
 11
686.3356059374
 21
576.1075926066
 31
0.0
  0
LINE
  5
256
330
1F
100
AcDbEntity
  8
0
  6
Continuous
 62
     7
370
    25
100
AcDbLine
 10
675.3746036761
 20
575.1595789228
 30
0.0
 11
675.3751715617
 21
575.1589918819
 31
0.0
  0
ARC
  5
257
330
1F
100
AcDbEntity
  8
0
  6
Continuous
 62
     7
370
    25
100
AcDbCircle
 10
679.1613157895
 20
567.0029944654
 30
0.0
 40
11.59155496206734
100
AcDbArc
 50
51.762407147
 51
56.6533814372
  0
LWPOLYLINE
  5
258
330
1F
100
AcDbEntity
  8
0
  6
Continuous
 62
     7
370
    25
100
AcDbPolyline
 90
        4
 70
   128
 43
0.0
 10
704.1889509981
 20
572.0958302276
 10
704.1911932444
 20
572.1131884826
 10
704.2001657273
 20
572.1826213442
 10
704.2064960085
 20
572.2315814903
  0
ARC
  5
259
330
1F
100
AcDbEntity
  8
0
  6
Continuous
 62
     7
370
    25
100
AcDbCircle
 10
710.6039301233
 20
603.0868025875
 30
0.0
 40
31.57783498432752
100
AcDbArc
 50
234.8280705831
 51
235.6099480104
  0
LINE
  5
25A
330
1F
100
AcDbEntity
  8
0
  6
Continuous
 62
     7
370
    25
100
AcDbLine
 10
692.4140895858
 20
577.2742210909
 30
0.0
 11
692.4545715006
 21
577.3316675937
 31
0.0
  0
ARC
  5
25B
330
1F
100
AcDbEntity
  8
0
  6
Continuous
 62
     7
370
    25
100
AcDbCircle
 10
710.6039301233
 20
603.0868025875
 30
0.0
 40
31.50755777528333
100
AcDbArc
 50
234.8280705831
 51
254.9420027521
  0
LINE
  5
25C
330
1F
100
AcDbEntity
  8
0
  6
Continuous
 62
     7
370
    25
100
AcDbLine
 10
704.2064960085
 20
572.2315814903
 30
0.0
 11
702.4183717247
 21
572.6611089936
 31
0.0
  0
LINE
  5
25D
330
1F
100
AcDbEntity
  8
0
  6
Continuous
 62
     7
370
    25
100
AcDbLine
 10
704.2803334178
 20
561.7847257368
 30
0.0
 11
704.2064960085
 21
561.7744074406
 31
0.0
  0
SPLINE
  5
25E
330
1F
100
AcDbEntity
  8
0
  6
Continuous
 62
     7
370
    25
100
AcDbSpline
210
0.0
220
0.0
230
1.0
 70
     8
 71
     3
 72
    10
 73
     6
 74
     0
 42
0.00000001
 43
0.00000001
 40
0.0
 40
0.0
 40
0.0
 40
0.0
 40
0.0490769085761672
 40
0.5995805843665434
 40
1.0
 40
1.0
 40
1.0
 40
1.0
 10
686.3356059374427
 20
576.1075926065639
 30
0.0
 10
686.3545534758117
 20
576.0929698709625
 30
0.0
 10
686.5860386377185
 20
575.9143215287733
 30
0.0
 10
687.0319124125356
 20
575.6802695353522
 30
0.0
 10
687.4939189894202
 20
575.6212551623346
 30
0.0
 10
687.6884630121737
 20
575.5964050972024
 30
0.0
  0
ARC
  5
25F
330
1F
100
AcDbEntity
  8
0
  6
Continuous
 62
     7
370
    25
100
AcDbCircle
 10
704.290304399
 20
572.5855279246
 30
0.0
 40
0.5000763404933101
100
AcDbArc
 50
258.3065203377
 51
266.8373700347
  0
SPLINE
  5
260
330
1F
100
AcDbEntity
  8
0
  6
Continuous
 62
     7
370
    25
100
AcDbSpline
210
0.0
220
0.0
230
1.0
 70
     8
 71
     3
 72
     9
 73
     5
 74
     0
 42
0.00000001
 43
0.00000001
 40
0.0
 40
0.0
 40
0.0
 40
0.0
 40
0.8458911907780635
 40
1.0
 40
1.0
 40
1.0
 40
1.0
 10
704.2064960084804
 20
572.2315814903152
 30
0.0
 10
704.2273366045914
 20
572.2277666833229
 30
0.0
 10
704.2519740477264
 20
572.2232568751655
 30
0.0
 10
704.2765465749026
 20
572.2215294114145
 30
0.0
 10
704.2803334178053
 20
572.2212631940329
 30
0.0
  0
LINE
  5
261
330
1F
100
AcDbEntity
  8
0
  6
Continuous
 62
     7
370
    25
100
AcDbLine
 10
722.2757536154
 20
571.1550073408
 30
0.0
 11
722.2752955956
 21
571.1550324272
 31
0.0
  0
LINE
  5
262
330
1F
100
AcDbEntity
  8
0
  6
Continuous
 62
     7
370
    25
100
AcDbLine
 10
692.4136516144
 20
556.7323893503
 30
0.0
 11
690.5749107651
 21
555.7354231146
 31
0.0
  0
LINE
  5
263
330
1F
100
AcDbEntity
  8
0
  6
Continuous
 62
     7
370
    25
100
AcDbLine
 10
689.8348863499
 20
557.5931490145
 30
0.0
 11
690.5749107651
 21
555.7354231146
 31
0.0
  0
LINE
  5
264
330
1F
100
AcDbEntity
  8
0
  6
Continuous
 62
     7
370
    25
100
AcDbLine
 10
686.8481160232
 20
557.1140275275
 30
0.0
 11
686.7262822765
 21
555.1180470185
 31
0.0
  0
LINE
  5
265
330
1F
100
AcDbEntity
  8
0
  6
Continuous
 62
     7
370
    25
100
AcDbLine
 10
686.7262822765
 20
555.1180470185
 30
0.0
 11
685.2833750368
 21
555.3263340838
 31
0.0
  0
ARC
  5
266
330
1F
100
AcDbEntity
  8
0
  6
Continuous
 62
     7
370
    25
100
AcDbCircle
 10
710.6039301233
 20
603.0868025875
 30
0.0
 40
33.57753037464038
100
AcDbArc
 50
234.8280705831
 51
235.6099480104
  0
ARC
  5
267
330
1F
100
AcDbEntity
  8
0
  6
Continuous
 62
     7
370
    25
100
AcDbCircle
 10
695.9892951963
 20
531.7774935664
 30
0.0
 40
46.10980537323358
100
AcDbArc
 50
102.8580809319
 51
103.1066633214
  0
ARC
  5
268
330
1F
100
AcDbEntity
  8
0
  6
Continuous
 62
     7
370
    25
100
AcDbCircle
 10
687.2703309947
 20
569.9748889412
 30
0.0
 40
6.929946387144199
100
AcDbArc
 50
54.8280705831
 51
102.8580809319
  0
ARC
  5
269
330
1F
100
AcDbEntity
  8
0
  6
Continuous
 62
     7
370
    25
100
AcDbCircle
 10
687.2703309947
 20
564.0310999896
 30
0.0
 40
6.929946387144418
100
AcDbArc
 50
266.5070253286
 51
291.7198462835
  0
LINE
  5
26A
330
1F
100
AcDbEntity
  8
0
  6
Continuous
 62
     7
370
    25
100
AcDbLine
 10
691.2622012346
 20
575.6396156704
 30
0.0
 11
692.4140895858
 21
577.2742210909
 31
0.0
  0
ARC
  5
26B
330
1F
100
AcDbEntity
  8
0
  6
Continuous
 62
     7
370
    25
100
AcDbCircle
 10
687.2703309947
 20
564.0310999896
 30
0.0
 40
8.929641777457114
100
AcDbArc
 50
266.5070253286
 51
291.7198462835
  0
LINE
  5
26C
330
1F
100
AcDbEntity
  8
0
  6
Continuous
 62
     7
370
    25
100
AcDbLine
 10
685.7281622368
 20
576.7310618558
 30
0.0
 11
685.2831562318
 21
578.680613422
 31
0.0
  0
ARC
  5
26D
330
1F
100
AcDbEntity
  8
0
  6
Continuous
 62
     7
370
    25
100
AcDbCircle
 10
687.2703309947
 20
569.9748889412
 30
0.0
 40
8.929641777456993
100
AcDbArc
 50
54.8280705831
 51
102.8580809319
  0
ARC
  5
26E
330
1F
100
AcDbEntity
  8
0
  6
Continuous
 62
     7
370
    25
100
AcDbCircle
 10
687.2703309947
 20
564.0310999896
 30
0.0
 40
8.999918986501354
100
AcDbArc
 50
257.1419190681
 51
305.1719294169
  0
ARC
  5
26F
330
1F
100
AcDbEntity
  8
0
  6
Continuous
 62
     7
370
    25
100
AcDbCircle
 10
687.2703309947
 20
569.9748889412
 30
0.0
 40
8.999918986501177
100
AcDbArc
 50
54.8280705831
 51
102.8580809319
  0
CIRCLE
  5
270
330
1F
100
AcDbEntity
  8
0
  6
Continuous
 62
     7
370
    25
100
AcDbCircle
 10
679.1613157895
 20
566.7575731766
 30
0.0
 40
5.328914336627463
  0
CIRCLE
  5
271
330
1F
100
AcDbEntity
  8
0
  6
Continuous
 62
     7
370
    25
100
AcDbCircle
 10
679.1613157895
 20
566.7575731766
 30
0.0
 40
5.925127771161556
  0
CIRCLE
  5
272
330
1F
100
AcDbEntity
  8
0
  6
Continuous
 62
     7
370
    25
100
AcDbCircle
 10
679.1613157895
 20
566.7575731766
 30
0.0
 40
5.074569253689106
  0
CIRCLE
  5
273
330
1F
100
AcDbEntity
  8
0
  6
Continuous
 62
     7
370
    25
100
AcDbCircle
 10
679.1613157895
 20
566.7575731766
 30
0.0
 40
7.149999999999977
  0
CIRCLE
  5
274
330
1F
100
AcDbEntity
  8
0
  6
Continuous
 62
     7
370
    25
100
AcDbCircle
 10
577.5613157895
 20
566.7575731766
 30
0.0
 40
5.32891433662769
  0
CIRCLE
  5
275
330
1F
100
AcDbEntity
  8
0
  6
Continuous
 62
     7
370
    25
100
AcDbCircle
 10
577.5613157895
 20
566.7575731766
 30
0.0
 40
5.925127771161328
  0
CIRCLE
  5
276
330
1F
100
AcDbEntity
  8
0
  6
Continuous
 62
     7
370
    25
100
AcDbCircle
 10
577.5613157895
 20
566.7575731766
 30
0.0
 40
5.074569253689219
  0
CIRCLE
  5
277
330
1F
100
AcDbEntity
  8
0
  6
Continuous
 62
     7
370
    25
100
AcDbCircle
 10
577.5613157895
 20
566.7575731766
 30
0.0
 40
7.149999999999977
  0
SPLINE
  5
278
330
1F
100
AcDbEntity
  8
0
  6
Continuous
 62
     7
370
    25
100
AcDbSpline
210
0.0
220
0.0
230
1.0
 70
    24
 71
     3
 72
    10
 73
     6
 74
     0
 42
0.00000001
 43
0.00000001
 40
0.0
 40
0.0
 40
0.0
 40
0.0
 40
0.4432658193824242
 40
0.9398307559032005
 40
1.0
 40
1.0
 40
1.0
 40
1.0
 10
679.0274405220263
 20
557.2575731766108
 30
0.0
 10
678.4450609293452
 20
557.2575731766108
 30
0.0
 10
677.2102753246832
 20
557.2575731766108
 30
0.0
 10
675.9404297291143
 20
557.2575731766107
 30
0.0
 10
675.2554007870102
 20
557.2575731766107
 30
0.0
 10
675.1813660410473
 20
557.2575731766107
 30
0.0
  0
ARC
  5
279
330
1F
100
AcDbEntity
  8
0
  6
Continuous
 62
     7
370
    25
100
AcDbCircle
 10
679.1613157895
 20
566.7575731766
 30
0.0
 40
10.30000000000006
100
AcDbArc
 50
232.7308609266
 51
247.2691390734
  0
SPLINE
  5
27A
330
1F
100
AcDbEntity
  8
0
  6
Continuous
 62
     7
370
    25
100
AcDbSpline
210
0.0
220
0.0
230
1.0
 70
    24
 71
     3
 72
    11
 73
     7
 74
     0
 42
0.00000001
 43
0.00000001
 40
0.0
 40
0.0
 40
0.0
 40
0.0
 40
0.2431641197380949
 40
0.4936284730588996
 40
0.7421706076863315
 40
1.0
 40
1.0
 40
1.0
 40
1.0
 10
672.924049327735
 20
558.5608355886878
 30
0.0
 10
672.6102903260382
 20
559.1042821209586
 30
0.0
 10
671.9733527010183
 20
560.2074904487455
 30
0.0
 10
670.9629637320116
 20
561.9575354784721
 30
0.0
 10
669.9312566041757
 20
563.744504642415
 30
0.0
 10
669.2771508612775
 20
564.8774490226373
 30
0.0
 10
668.9440995793085
 20
565.4543107645335
 30
0.0
  0
ARC
  5
27B
330
1F
100
AcDbEntity
  8
0
  6
Continuous
 62
     7
370
    25
100
AcDbCircle
 10
679.1613157895
 20
566.7575731766
 30
0.0
 40
10.30000000000007
100
AcDbArc
 50
172.7308609266
 51
187.2691390734
  0
SPLINE
  5
27C
330
1F
100
AcDbEntity
  8
0
  6
Continuous
 62
     7
370
    25
100
AcDbSpline
210
0.0
220
0.0
230
1.0
 70
    24
 71
     3
 72
    11
 73
     7
 74
     0
 42
0.00000001
 43
0.00000001
 40
0.0
 40
0.0
 40
0.0
 40
0.0
 40
0.2431641197380865
 40
0.4936284730588847
 40
0.7421706076863235
 40
0.9999999999999999
 40
0.9999999999999999
 40
0.9999999999999999
 40
0.9999999999999999
 10
668.9440995793085
 20
568.0608355886878
 30
0.0
 10
669.2578585810052
 20
568.6042821209587
 30
0.0
 10
669.8947962060251
 20
569.7074904487455
 30
0.0
 10
670.9051851750318
 20
571.4575354784721
 30
0.0
 10
671.9368923028677
 20
573.244504642415
 30
0.0
 10
672.5909980457659
 20
574.3774490226373
 30
0.0
 10
672.924049327735
 20
574.9543107645336
 30
0.0
  0
ARC
  5
27D
330
1F
100
AcDbEntity
  8
0
  6
Continuous
 62
     7
370
    25
100
AcDbCircle
 10
679.1613157895
 20
566.7575731766
 30
0.0
 40
10.30000000000011
100
AcDbArc
 50
112.7308609266
 51
127.2691390734
  0
SPLINE
  5
27E
330
1F
100
AcDbEntity
  8
0
  6
Continuous
 62
     7
370
    25
100
AcDbSpline
210
0.0
220
0.0
230
1.0
 70
    24
 71
     3
 72
    10
 73
     6
 74
     0
 42
0.00000001
 43
0.00000001
 40
0.0
 40
0.0
 40
0.0
 40
0.0
 40
0.0960806883428136
 40
0.8890157106119804
 40
1.0
 40
1.0
 40
1.0
 40
1.0
 10
675.1813660410473
 20
576.2575731766107
 30
0.0
 10
675.2554214653176
 20
576.2575731766107
 30
0.0
 10
675.940641739733
 20
576.2575731766109
 30
0.0
 10
676.7301066393591
 20
576.2575731766107
 30
0.0
 10
677.471030267759
 20
576.2575731766107
 30
0.0
 10
677.5620017530766
 20
576.2575731766107
 30
0.0
  0
SPLINE
  5
27F
330
1F
100
AcDbEntity
  8
0
  6
Continuous
 62
     7
370
    25
100
AcDbSpline
210
0.0
220
0.0
230
1.0
 70
    24
 71
     3
 72
    10
 73
     6
 74
     0
 42
0.00000001
 43
0.00000001
 40
0.0
 40
0.0
 40
0.0
 40
0.0
 40
0.0643904893039792
 40
0.5236153323176433
 40
1.0
 40
1.0
 40
1.0
 40
1.0
 10
578.3982725003765
 20
576.2265364437485
 30
0.0
 10
578.4915662102339
 20
576.2149712526614
 30
0.0
 10
579.2502188842274
 20
576.1209245783793
 30
0.0
 10
580.7228203203107
 20
575.9383729676699
 30
0.0
 10
582.0195179924236
 20
575.7776273355885
 30
0.0
 10
582.6797580632566
 20
575.695780417996
 30
0.0
  0
ARC
  5
280
330
1F
100
AcDbEntity
  8
0
  6
Continuous
 62
     7
370
    25
100
AcDbCircle
 10
577.5613157895
 20
566.7575731766
 30
0.0
 40
10.30000000000003
100
AcDbArc
 50
45.6642188199
 51
60.2024969667
  0
SPLINE
  5
281
330
1F
100
AcDbEntity
  8
0
  6
Continuous
 62
     7
370
    25
100
AcDbSpline
210
0.0
220
0.0
230
1.0
 70
    24
 71
     3
 72
    11
 73
     7
 74
     0
 42
0.00000001
 43
0.00000001
 40
0.0
 40
0.0
 40
0.0
 40
0.0
 40
0.2431641197380867
 40
0.4936284730588848
 40
0.7421706076863235
 40
0.9999999999999999
 40
0.9999999999999999
 40
0.9999999999999999
 40
0.9999999999999999
 10
584.7595954080998
 20
574.1247144493211
 30
0.0
 10
585.0041142006719
 20
573.5467962849916
 30
0.0
 10
585.5004926891659
 20
572.3736097913663
 30
0.0
 10
586.2879094306571
 20
570.5125567695586
 30
0.0
 10
587.0919398483413
 20
568.6122374600874
 30
0.0
 10
587.6016978014296
 20
567.4074287114333
 30
0.0
 10
587.861251461695
 20
566.7939757604032
 30
0.0
  0
ARC
  5
282
330
1F
100
AcDbEntity
  8
0
  6
Continuous
 62
     7
370
    25
100
AcDbCircle
 10
577.5613157895
 20
566.7575731766
 30
0.0
 40
10.30000000000006
100
AcDbArc
 50
345.6642188199
 51
0.2024969667
  0
SPLINE
  5
283
330
1F
100
AcDbEntity
  8
0
  6
Continuous
 62
     7
370
    25
100
AcDbSpline
210
0.0
220
0.0
230
1.0
 70
    24
 71
     3
 72
    13
 73
     9
 74
     0
 42
0.00000001
 43
0.00000001
 40
0.0
 40
0.0
 40
0.0
 40
0.0
 40
0.0290865078712635
 40
0.2691317361521227
 40
0.5086847447945284
 40
0.7393528760311804
 40
0.9704551097945721
 40
1.0
 40
1.0
 40
1.0
 40
1.0
 10
587.5405870942228
 20
564.207250799692
 30
0.0
 10
587.4959638278783
 20
564.1481768093932
 30
0.0
 10
587.0830735215809
 20
563.6015767967369
 30
0.0
 10
586.27734049346
 20
562.5349165321317
 30
0.0
 10
585.1130740481482
 20
560.9936159880498
 30
0.0
 10
583.9653607095678
 20
559.474229081103
 30
0.0
 10
583.1880249816825
 20
558.4451622509554
 30
0.0
 10
582.7881372848349
 20
557.9157755910505
 30
0.0
 10
582.7428091879123
 20
557.8557685190179
 30
0.0
  0
ARC
  5
284
330
1F
100
AcDbEntity
  8
0
  6
Continuous
 62
     7
370
    25
100
AcDbCircle
 10
577.5613157895
 20
566.7575731766
 30
0.0
 40
10.30000000000002
100
AcDbArc
 50
285.6642188199
 51
300.2024969667
  0
SPLINE
  5
285
330
1F
100
AcDbEntity
  8
0
  6
Continuous
 62
     7
370
    25
100
AcDbSpline
210
0.0
220
0.0
230
1.0
 70
    24
 71
     3
 72
     9
 73
     5
 74
     0
 42
0.00000001
 43
0.00000001
 40
0.0
 40
0.0
 40
0.0
 40
0.0
 40
0.8950609701215593
 40
1.0
 40
1.0
 40
1.0
 40
1.0
 10
580.342307475597
 20
556.8401095269816
 30
0.0
 10
579.7242229844521
 20
556.9167306117153
 30
0.0
 10
579.0336728300188
 20
557.0023349306291
 30
0.0
 10
578.3045534396836
 20
557.092720499897
 30
0.0
 10
578.2280403581962
 20
557.1022054738511
 30
0.0
  0
ARC
  5
286
330
1F
100
AcDbEntity
  8
0
  6
Continuous
 62
     7
370
    25
100
AcDbCircle
 10
577.5613157895
 20
566.7575731766
 30
0.0
 40
9.750000000000176
100
AcDbArc
 50
73.6771303682
 51
87.1796091085
  0
ARC
  5
287
330
1F
100
AcDbEntity
  8
0
  6
Continuous
 62
     7
370
    25
100
AcDbCircle
 10
577.5613157895
 20
566.7575731766
 30
0.0
 40
14.87500000000002
100
AcDbArc
 50
233.3837470415
 51
262.9333578933
  0
ARC
  5
288
330
1F
100
AcDbEntity
  8
0
  6
Continuous
 62
     7
370
    25
100
AcDbCircle
 10
577.5613157895
 20
566.7575731766
 30
0.0
 40
14.87500000000004
100
AcDbArc
 50
262.9333578933
 51
126.6156955593
  0
LINE
  5
289
330
1F
100
AcDbEntity
  8
0
  6
Continuous
 62
     7
370
    25
100
AcDbLine
 10
576.2603400019
 20
556.2629037202
 30
0.0
 11
576.025782451
 21
556.2946499538
 31
0.0
  0
ARC
  5
28A
330
1F
100
AcDbEntity
  8
0
  6
Continuous
 62
     7
370
    25
100
AcDbCircle
 10
577.5613157895
 20
566.7575731766
 30
0.0
 40
10.57500000000005
100
AcDbArc
 50
262.9333578933
 51
98.3490982393
  0
ARC
  5
28B
330
1F
100
AcDbEntity
  8
0
  6
Continuous
 62
     7
370
    25
100
AcDbCircle
 10
577.5613157895
 20
566.7575731766
 30
0.0
 40
16.20000000000004
100
AcDbArc
 50
82.9333578933
 51
136.0742282651
  0
ARC
  5
28C
330
1F
100
AcDbEntity
  8
0
  6
Continuous
 62
     7
370
    25
100
AcDbCircle
 10
577.5613157895
 20
566.7575731766
 30
0.0
 40
16.20000000000001
100
AcDbArc
 50
223.9250761661
 51
82.9333578933
  0
SPLINE
  5
28D
330
1F
100
AcDbEntity
  8
0
  6
Continuous
 62
     7
370
    25
100
AcDbSpline
210
0.0
220
0.0
230
1.0
 70
     8
 71
     3
 72
     9
 73
     5
 74
     0
 42
0.00000001
 43
0.00000001
 40
0.0
 40
0.0
 40
0.0
 40
0.0
 40
0.5850553834533988
 40
1.0
 40
1.0
 40
1.0
 40
1.0
 10
573.7122116787965
 20
583.6091130927474
 30
0.0
 10
573.2471950312732
 20
583.6348180127736
 30
0.0
 10
572.4523700272225
 20
583.6787538874842
 30
0.0
 10
571.6658764091139
 20
583.4308674585482
 30
0.0
 10
571.3395251163315
 20
583.3280083193462
 30
0.0
  0
SPLINE
  5
28E
330
1F
100
AcDbEntity
  8
0
  6
Continuous
 62
     7
370
    25
100
AcDbSpline
210
0.0
220
0.0
230
1.0
 70
    24
 71
     3
 72
    11
 73
     7
 74
     0
 42
0.00000001
 43
0.00000001
 40
0.0
 40
0.0
 40
0.0
 40
0.0
 40
0.2379053903768489
 40
0.4814905141303187
 40
0.7366519444348071
 40
1.0
 40
1.0
 40
1.0
 40
1.0
 10
585.4086906422026
 20
582.1591545214196
 30
0.0
 10
584.502165340504
 20
582.2715322836021
 30
0.0
 10
582.6674724279325
 20
582.4989707052554
 30
0.0
 10
579.737249382841
 20
582.8622169465751
 30
0.0
 10
576.6962596082537
 20
583.2391944286686
 30
0.0
 10
574.7173093830326
 20
583.4845157642832
 30
0.0
 10
573.7122116787965
 20
583.6091130927474
 30
0.0
  0
SPLINE
  5
28F
330
1F
100
AcDbEntity
  8
0
  6
Continuous
 62
     7
370
    25
100
AcDbSpline
210
0.0
220
0.0
230
1.0
 70
     8
 71
     3
 72
     9
 73
     5
 74
     0
 42
0.00000001
 43
0.00000001
 40
0.0
 40
0.0
 40
0.0
 40
0.0
 40
0.5841917497409762
 40
1.0
 40
1.0
 40
1.0
 40
1.0
 10
587.6409170574585
 20
581.3071999167865
 30
0.0
 10
587.2234516784899
 20
581.5514960196028
 30
0.0
 10
586.5088483326642
 20
581.9696739601928
 30
0.0
 10
585.7317955854011
 20
582.1035060389311
 30
0.0
 10
585.4086906422026
 20
582.1591545214196
 30
0.0
  0
ARC
  5
290
330
1F
100
AcDbEntity
  8
0
  6
Continuous
 62
     7
370
    25
100
AcDbCircle
 10
577.5613157895
 20
566.7575731766
 30
0.0
 40
17.70000000000005
100
AcDbArc
 50
50.5799214659
 51
55.2867943207
  0
SPLINE
  5
291
330
1F
100
AcDbEntity
  8
0
  6
Continuous
 62
     7
370
    25
100
AcDbSpline
210
0.0
220
0.0
230
1.0
 70
     8
 71
     3
 72
     9
 73
     5
 74
     0
 42
0.00000001
 43
0.00000001
 40
0.0
 40
0.0
 40
0.0
 40
0.0
 40
0.5850553834536307
 40
1.0
 40
1.0
 40
1.0
 40
1.0
 10
590.2306253943963
 20
578.5167650763382
 30
0.0
 10
590.0203781843795
 20
578.9323337662889
 30
0.0
 10
589.6610152659911
 20
579.6426403487146
 30
0.0
 10
589.0530925122251
 20
580.1998205874426
 30
0.0
 10
588.800838238274
 20
580.4310195279487
 30
0.0
  0
SPLINE
  5
292
330
1F
100
AcDbEntity
  8
0
  6
Continuous
 62
     7
370
    25
100
AcDbSpline
210
0.0
220
0.0
230
1.0
 70
    24
 71
     3
 72
    11
 73
     7
 74
     0
 42
0.00000001
 43
0.00000001
 40
0.0
 40
0.0
 40
0.0
 40
0.0
 40
0.2328716322111445
 40
0.4710265024313187
 40
0.731142121256027
 40
1.0
 40
1.0
 40
1.0
 40
1.0
 10
594.823163918895
 20
567.662337873533
 30
0.0
 10
594.4748636408268
 20
568.485542729157
 30
0.0
 10
593.7703610776914
 20
570.1506287692525
 30
0.0
 10
592.6295635233628
 20
572.8468944490165
 30
0.0
 10
591.4266439353055
 20
575.6899850468945
 30
0.0
 10
590.6336667103865
 20
577.5641802257592
 30
0.0
 10
590.2306253943963
 20
578.5167650763382
 30
0.0
  0
SPLINE
  5
293
330
1F
100
AcDbEntity
  8
0
  6
Continuous
 62
     7
370
    25
100
AcDbSpline
210
0.0
220
0.0
230
1.0
 70
     8
 71
     3
 72
     9
 73
     5
 74
     0
 42
0.00000001
 43
0.00000001
 40
0.0
 40
0.0
 40
0.0
 40
0.0
 40
0.5841917497409248
 40
1.0
 40
1.0
 40
1.0
 40
1.0
 10
595.2014627960399
 20
565.3031957886061
 30
0.0
 10
595.20429673764
 20
565.7868794634015
 30
0.0
 10
595.2091477845802
 20
566.6148330848109
 30
0.0
 10
594.9365233909771
 20
567.3546965433906
 30
0.0
 10
594.823163918895
 20
567.662337873533
 30
0.0
  0
ARC
  5
294
330
1F
100
AcDbEntity
  8
0
  6
Continuous
 62
     7
370
    25
100
AcDbCircle
 10
577.5613157895
 20
566.7575731766
 30
0.0
 40
17.70000000000001
100
AcDbArc
 50
350.5799214659
 51
355.2867943207
  0
SPLINE
  5
295
330
1F
100
AcDbEntity
  8
0
  6
Continuous
 62
     7
370
    25
100
AcDbSpline
210
0.0
220
0.0
230
1.0
 70
     8
 71
     3
 72
     9
 73
     5
 74
     0
 42
0.00000001
 43
0.00000001
 40
0.0
 40
0.0
 40
0.0
 40
0.0
 40
0.5850553834536326
 40
1.0
 40
1.0
 40
1.0
 40
1.0
 10
594.0797295050753
 20
561.6652251602013
 30
0.0
 10
594.3344989425816
 20
562.055088930126
 30
0.0
 10
594.7699610282433
 20
562.7214596378413
 30
0.0
 10
594.9485318925854
 20
563.5265263055052
 30
0.0
 10
595.0226289114162
 20
563.8605843852132
 30
0.0
  0
SPLINE
  5
296
330
1F
100
AcDbEntity
  8
0
  6
Continuous
 62
     7
370
    25
100
AcDbSpline
210
0.0
220
0.0
230
1.0
 70
    24
 71
     3
 72
    11
 73
     7
 74
     0
 42
0.00000001
 43
0.00000001
 40
0.0
 40
0.0
 40
0.0
 40
0.0
 40
0.2328716322111477
 40
0.4710265024313241
 40
0.7311421212560292
 40
0.9999999999999999
 40
0.9999999999999999
 40
0.9999999999999999
 40
0.9999999999999999
 10
586.9757890661665
 20
552.2607565287242
 30
0.0
 10
587.5145552446215
 20
552.9739958454885
 30
0.0
 10
588.6043107732633
 20
554.4166559822427
 30
0.0
 10
590.3689465701266
 20
556.7527484847485
 30
0.0
 10
592.229675459121
 20
559.216052705655
 30
0.0
 10
593.4562874832087
 20
560.8398887164896
 30
0.0
 10
594.0797295050753
 20
561.6652251602013
 30
0.0
  0
SPLINE
  5
297
330
1F
100
AcDbEntity
  8
0
  6
Continuous
 62
     7
370
    25
100
AcDbSpline
210
0.0
220
0.0
230
1.0
 70
     8
 71
     3
 72
     9
 73
     5
 74
     0
 42
0.00000001
 43
0.00000001
 40
0.0
 40
0.0
 40
0.0
 40
0.0
 40
0.5841917497409269
 40
0.9999999999999999
 40
0.9999999999999999
 40
0.9999999999999999
 40
0.9999999999999999
 10
585.1218615280551
 20
550.7535690484302
 30
0.0
 10
585.5421608486239
 20
550.9929566204092
 30
0.0
 10
586.26161524139
 20
551.4027323012288
 30
0.0
 10
586.7660435950501
 20
552.0087636810703
 30
0.0
 10
586.9757890661665
 20
552.2607565287242
 30
0.0
  0
ARC
  5
298
330
1F
100
AcDbEntity
  8
0
  6
Continuous
 62
     7
370
    25
100
AcDbCircle
 10
577.5613157895
 20
566.7575731766
 30
0.0
 40
17.70000000000009
100
AcDbArc
 50
290.5799214659
 51
295.2867943207
  0
SPLINE
  5
299
330
1F
100
AcDbEntity
  8
0
  6
Continuous
 62
     7
370
    25
100
AcDbSpline
210
0.0
220
0.0
230
1.0
 70
     8
 71
     3
 72
     9
 73
     5
 74
     0
 42
0.00000001
 43
0.00000001
 40
0.0
 40
0.0
 40
0.0
 40
0.0
 40
0.5850553834535985
 40
1.0
 40
1.0
 40
1.0
 40
1.0
 10
581.4104199001528
 20
549.9060332604738
 30
0.0
 10
581.8754365476758
 20
549.8803283404478
 30
0.0
 10
582.670261551726
 20
549.8363924657376
 30
0.0
 10
583.456755169834
 20
550.0842788946734
 30
0.0
 10
583.783106462616
 20
550.1871380338752
 30
0.0
  0
SPLINE
  5
29A
330
1F
100
AcDbEntity
  8
0
  6
Continuous
 62
     7
370
    25
100
AcDbSpline
210
0.0
220
0.0
230
1.0
 70
    24
 71
     3
 72
    11
 73
     7
 74
     0
 42
0.00000001
 43
0.00000001
 40
0.0
 40
0.0
 40
0.0
 40
0.0
 40
0.2556279644380983
 40
0.5185037642963874
 40
0.7560467972580113
 40
1.0
 40
1.0
 40
1.0
 40
1.0
 10
569.7139409367453
 20
551.3559918318018
 30
0.0
 10
570.6890631046252
 20
551.2351104323797
 30
0.0
 10
572.6669551392699
 20
550.9899202757721
 30
0.0
 10
575.6842810905343
 20
550.6158762887557
 30
0.0
 10
578.6450495861621
 20
550.2488434687605
 30
0.0
 10
580.4804847329119
 20
550.0213130357582
 30
0.0
 10
581.4104199001528
 20
549.9060332604738
 30
0.0
  0
SPLINE
  5
29B
330
1F
100
AcDbEntity
  8
0
  6
Continuous
 62
     7
370
    25
100
AcDbSpline
210
0.0
220
0.0
230
1.0
 70
     8
 71
     3
 72
     9
 73
     5
 74
     0
 42
0.00000001
 43
0.00000001
 40
0.0
 40
0.0
 40
0.0
 40
0.0
 40
0.5841917497409197
 40
1.0
 40
1.0
 40
1.0
 40
1.0
 10
567.4817145214892
 20
552.2079464364348
 30
0.0
 10
567.8991799004577
 20
551.9636503336185
 30
0.0
 10
568.6137832462834
 20
551.5454723930284
 30
0.0
 10
569.3908359935467
 20
551.4116403142905
 30
0.0
 10
569.7139409367453
 20
551.3559918318018
 30
0.0
  0
ARC
  5
29C
330
1F
100
AcDbEntity
  8
0
  6
Continuous
 62
     7
370
    25
100
AcDbCircle
 10
577.5613157895
 20
566.7575731766
 30
0.0
 40
17.70000000000003
100
AcDbArc
 50
230.5799214659
 51
235.2867943207
  0
SPLINE
  5
29D
330
1F
100
AcDbEntity
  8
0
  6
Continuous
 62
     7
370
    25
100
AcDbSpline
210
0.0
220
0.0
230
1.0
 70
     8
 71
     3
 72
     9
 73
     5
 74
     0
 42
0.00000001
 43
0.00000001
 40
0.0
 40
0.0
 40
0.0
 40
0.0
 40
0.5850553834536206
 40
1.0
 40
1.0
 40
1.0
 40
1.0
 10
564.8920061845512
 20
554.9983812768832
 30
0.0
 10
565.102253394568
 20
554.5828125869325
 30
0.0
 10
565.4616163129565
 20
553.8725060045069
 30
0.0
 10
566.0695390667223
 20
553.3153257657789
 30
0.0
 10
566.3217933406736
 20
553.0841268252727
 30
0.0
  0
LINE
  5
29E
330
1F
100
AcDbEntity
  8
0
  6
Continuous
 62
     7
370
    25
100
AcDbLine
 10
564.2915452917
 20
556.417565681
 30
0.0
 11
564.8920061846
 21
554.9983812769
 31
0.0
  0
SPLINE
  5
29F
330
1F
100
AcDbEntity
  8
0
  6
Continuous
 62
     7
370
    25
100
AcDbSpline
210
0.0
220
0.0
230
1.0
 70
    24
 71
     3
 72
     9
 73
     5
 74
     0
 42
0.00000001
 43
0.00000001
 40
0.0
 40
0.0
 40
0.0
 40
0.0
 40
0.6032852680327694
 40
1.0
 40
1.0
 40
1.0
 40
1.0
 10
568.1468425127811
 20
581.2543898244971
 30
0.0
 10
567.6090560332594
 20
580.5424474707306
 30
0.0
 10
566.7176262105564
 20
579.3623385048875
 30
0.0
 10
565.7865012372442
 20
578.1296795772396
 30
0.0
 10
565.4171102430287
 20
577.6406656211507
 30
0.0
  0
SPLINE
  5
2A0
330
1F
100
AcDbEntity
  8
0
  6
Continuous
 62
     7
370
    25
100
AcDbSpline
210
0.0
220
0.0
230
1.0
 70
     8
 71
     3
 72
     9
 73
     5
 74
     0
 42
0.00000001
 43
0.00000001
 40
0.0
 40
0.0
 40
0.0
 40
0.0
 40
0.5841917497409231
 40
1.0
 40
1.0
 40
1.0
 40
1.0
 10
570.0007700508924
 20
582.7615773047913
 30
0.0
 10
569.5804707303236
 20
582.5221897328121
 30
0.0
 10
568.8610163375575
 20
582.1124140519927
 30
0.0
 10
568.3565879838975
 20
581.5063826721512
 30
0.0
 10
568.1468425127811
 20
581.2543898244971
 30
0.0
  0
ARC
  5
2A1
330
1F
100
AcDbEntity
  8
0
  6
Continuous
 62
     7
370
    25
100
AcDbCircle
 10
577.5613157895
 20
566.7575731766
 30
0.0
 40
17.70000000000018
100
AcDbArc
 50
110.5799214659
 51
115.2867943207
  0
LWPOLYLINE
  5
2A2
330
1F
100
AcDbEntity
  8
0
  6
Continuous
 62
     7
370
    25
100
AcDbPolyline
 90
        3
 70
   128
 43
0.0
 10
670.7175681026
 20
561.8825731766
 10
670.0449074233
 20
563.3001755279
 10
670.0353467368
 20
563.3254908861
  0
LWPOLYLINE
  5
2A3
330
1F
100
AcDbEntity
  8
0
  6
Continuous
 62
     7
370
    25
100
AcDbPolyline
 90
        3
 70
   128
 43
0.0
 10
671.7217594976
 20
560.4555495191
 10
671.6089174117
 20
560.5912307646
 10
670.7175681026
 20
561.8825731766
  0
ARC
  5
2A4
330
1F
100
AcDbEntity
  8
0
  6
Continuous
 62
     7
370
    25
100
AcDbCircle
 10
679.1613157895
 20
566.7575731766
 30
0.0
 40
14.87500000000001
100
AcDbArc
 50
55.1611835908
 51
308.4167037132
  0
ARC
  5
2A5
330
1F
100
AcDbEntity
  8
0
  6
Continuous
 62
     7
370
    25
100
AcDbCircle
 10
679.1613157895
 20
566.7575731766
 30
0.0
 40
10.57500000000003
100
AcDbArc
 50
84.5490172093
 51
281.0490866707
  0
SPLINE
  5
2A6
330
1F
100
AcDbEntity
  8
0
  6
Continuous
 62
     7
370
    25
100
AcDbSpline
210
0.0
220
0.0
230
1.0
 70
     8
 71
     3
 72
     9
 73
     5
 74
     0
 42
0.00000001
 43
0.00000001
 40
0.0
 40
0.0
 40
0.0
 40
0.0
 40
0.5850553834533971
 40
0.9999999999999999
 40
0.9999999999999999
 40
0.9999999999999999
 40
0.9999999999999999
 10
668.0349051415591
 20
553.5290817246744
 30
0.0
 10
668.2946800613679
 20
553.1425351991104
 30
0.0
 10
668.7386977170563
 20
552.4818344577852
 30
0.0
 10
669.4105489090891
 20
552.0036756256591
 30
0.0
 10
669.6893299443436
 20
551.8052661924141
 30
0.0
  0
SPLINE
  5
2A7
330
1F
100
AcDbEntity
  8
0
  6
Continuous
 62
     7
370
    25
100
AcDbSpline
210
0.0
220
0.0
230
1.0
 70
    24
 71
     3
 72
    11
 73
     7
 74
     0
 42
0.00000001
 43
0.00000001
 40
0.0
 40
0.0
 40
0.0
 40
0.0
 40
0.2379053903768487
 40
0.4814905141303187
 40
0.736651944434807
 40
0.9999999999999999
 40
0.9999999999999999
 40
0.9999999999999999
 40
0.9999999999999999
 10
662.1419008143934
 20
563.7360646285485
 30
0.0
 10
662.5986329251688
 20
562.9449814072376
 30
0.0
 10
663.5230011309023
 20
561.3439287100058
 30
0.0
 10
664.999327223422
 20
558.786856909222
 30
0.0
 10
666.5314606078855
 20
556.1331240433589
 30
0.0
 10
667.5285095725319
 20
554.4061845789572
 30
0.0
 10
668.0349051415591
 20
553.5290817246744
 30
0.0
  0
SPLINE
  5
2A8
330
1F
100
AcDbEntity
  8
0
  6
Continuous
 62
     7
370
    25
100
AcDbSpline
210
0.0
220
0.0
230
1.0
 70
     8
 71
     3
 72
     9
 73
     5
 74
     0
 42
0.00000001
 43
0.00000001
 40
0.0
 40
0.0
 40
0.0
 40
0.0
 40
0.5841917497409771
 40
1.0
 40
1.0
 40
1.0
 40
1.0
 10
661.476245173411
 20
566.0307463025393
 30
0.0
 10
661.5329373218193
 20
565.5503881769732
 30
0.0
 10
661.6299810552053
 20
564.7281271200869
 30
0.0
 10
661.9915552719783
 20
564.0274231290225
 30
0.0
 10
662.1419008143934
 20
563.7360646285485
 30
0.0
  0
ARC
  5
2A9
330
1F
100
AcDbEntity
  8
0
  6
Continuous
 62
     7
370
    25
100
AcDbCircle
 10
679.1613157895
 20
566.7575731766
 30
0.0
 40
17.70000000000015
100
AcDbArc
 50
177.6465635726
 51
182.3534364274
  0
SPLINE
  5
2AA
330
1F
100
AcDbEntity
  8
0
  6
Continuous
 62
     7
370
    25
100
AcDbSpline
210
0.0
220
0.0
230
1.0
 70
     8
 71
     3
 72
     9
 73
     5
 74
     0
 42
0.00000001
 43
0.00000001
 40
0.0
 40
0.0
 40
0.0
 40
0.0
 40
0.5850553834536298
 40
1.0
 40
1.0
 40
1.0
 40
1.0
 10
662.1419008143936
 20
569.7790817246731
 30
0.0
 10
661.9370291634152
 20
569.3608367820706
 30
0.0
 10
661.5868543649729
 20
568.6459558418533
 30
0.0
 10
661.5086822653243
 20
567.8250362259276
 30
0.0
 10
661.476245173411
 20
567.4844000506819
 30
0.0
  0
SPLINE
  5
2AB
330
1F
100
AcDbEntity
  8
0
  6
Continuous
 62
     7
370
    25
100
AcDbSpline
210
0.0
220
0.0
230
1.0
 70
    24
 71
     3
 72
    11
 73
     7
 74
     0
 42
0.00000001
 43
0.00000001
 40
0.0
 40
0.0
 40
0.0
 40
0.0
 40
0.2328716322111444
 40
0.4710265024313186
 40
0.7311421212560266
 40
0.9999999999999999
 40
0.9999999999999999
 40
0.9999999999999999
 40
0.9999999999999999
 10
668.03490514156
 20
579.9860646285482
 30
0.0
 10
667.5879769263997
 20
579.2119622525547
 30
0.0
 10
666.68398088349
 20
577.6461951763939
 30
0.0
 10
665.2201445132084
 20
575.1107562090992
 30
0.0
 10
663.6765950579696
 20
572.43725012863
 30
0.0
 10
662.6590710474765
 20
570.6748468445347
 30
0.0
 10
662.1419008143936
 20
569.7790817246731
 30
0.0
  0
SPLINE
  5
2AC
330
1F
100
AcDbEntity
  8
0
  6
Continuous
 62
     7
370
    25
100
AcDbSpline
210
0.0
220
0.0
230
1.0
 70
     8
 71
     3
 72
     9
 73
     5
 74
     0
 42
0.00000001
 43
0.00000001
 40
0.0
 40
0.0
 40
0.0
 40
0.0
 40
0.5841917497409246
 40
1.0
 40
1.0
 40
1.0
 40
1.0
 10
669.6893299443436
 20
581.7098801608072
 30
0.0
 10
669.301673678893
 20
581.4206042573074
 30
0.0
 10
668.6380965817799
 20
580.9254313904738
 30
0.0
 10
668.2120562333714
 20
580.2619469378626
 30
0.0
 10
668.03490514156
 20
579.9860646285482
 30
0.0
  0
ARC
  5
2AD
330
1F
100
AcDbEntity
  8
0
  6
Continuous
 62
     7
370
    25
100
AcDbCircle
 10
679.1613157895
 20
566.7575731766
 30
0.0
 40
17.70000000000005
100
AcDbArc
 50
117.6465635726
 51
122.3534364274
  0
SPLINE
  5
2AE
330
1F
100
AcDbEntity
  8
0
  6
Continuous
 62
     7
370
    25
100
AcDbSpline
210
0.0
220
0.0
230
1.0
 70
     8
 71
     3
 72
     9
 73
     5
 74
     0
 42
0.00000001
 43
0.00000001
 40
0.0
 40
0.0
 40
0.0
 40
0.0
 40
0.5850553834536333
 40
1.0
 40
1.0
 40
1.0
 40
1.0
 10
673.2683114623077
 20
583.0075731766107
 30
0.0
 10
672.8036648915203
 20
582.975874759572
 30
0.0
 10
672.0094724373898
 20
582.9216945606794
 30
0.0
 10
671.2594491457089
 20
582.5789337768795
 30
0.0
 10
670.9482310185415
 20
582.4367070348784
 30
0.0
  0
SPLINE
  5
2AF
330
1F
100
AcDbEntity
  8
0
  6
Continuous
 62
     7
370
    25
100
AcDbSpline
210
0.0
220
0.0
230
1.0
 70
    24
 71
     3
 72
    11
 73
     7
 74
     0
 42
0.00000001
 43
0.00000001
 40
0.0
 40
0.0
 40
0.0
 40
0.0
 40
0.2328716322111475
 40
0.4710265024313245
 40
0.7311421212560294
 40
1.0
 40
1.0
 40
1.0
 40
1.0
 10
685.0543201166402
 20
583.0075731766107
 30
0.0
 10
684.1604636863196
 20
583.0075731766107
 30
0.0
 10
682.3524716005004
 20
583.0075731766107
 30
0.0
 10
679.4247988599375
 20
583.0075731766107
 30
0.0
 10
676.3376999494594
 20
583.0075731766107
 30
0.0
 10
674.3026519284733
 20
583.0075731766107
 30
0.0
 10
673.2683114623077
 20
583.0075731766107
 30
0.0
  0
SPLINE
  5
2B0
330
1F
100
AcDbEntity
  8
0
  6
Continuous
 62
     7
370
    25
100
AcDbSpline
210
0.0
220
0.0
230
1.0
 70
     8
 71
     3
 72
     9
 73
     5
 74
     0
 42
0.00000001
 43
0.00000001
 40
0.0
 40
0.0
 40
0.0
 40
0.0
 40
0.5841917497409267
 40
1.0
 40
1.0
 40
1.0
 40
1.0
 10
687.3744005604065
 20
582.4367070348784
 30
0.0
 10
686.9300521465477
 20
582.6277892569449
 30
0.0
 10
686.1694313160484
 20
582.9548774469977
 30
0.0
 10
685.3818167508668
 20
582.992096985451
 30
0.0
 10
685.0543201166402
 20
583.0075731766107
 30
0.0
  0
ARC
  5
2B1
330
1F
100
AcDbEntity
  8
0
  6
Continuous
 62
     7
370
    25
100
AcDbCircle
 10
679.1613157895
 20
566.7575731766
 30
0.0
 40
17.70000000000002
100
AcDbArc
 50
57.6465635726
 51
62.3534364274
  0
SPLINE
  5
2B2
330
1F
100
AcDbEntity
  8
0
  6
Continuous
 62
     7
370
    25
100
AcDbSpline
210
0.0
220
0.0
230
1.0
 70
     8
 71
     3
 72
     9
 73
     5
 74
     0
 42
0.00000001
 43
0.00000001
 40
0.0
 40
0.0
 40
0.0
 40
0.0
 40
0.5850553834535971
 40
1.0
 40
1.0
 40
1.0
 40
1.0
 10
690.2877264373878
 20
579.9860646285482
 30
0.0
 10
690.027951517579
 20
580.3726111541121
 30
0.0
 10
689.5839338618907
 20
581.0333118954367
 30
0.0
 10
688.9120826698584
 20
581.5114707275625
 30
0.0
 10
688.6333016346042
 20
581.7098801608072
 30
0.0
  0
LINE
  5
2B3
330
1F
100
AcDbEntity
  8
0
  6
Continuous
 62
     7
370
    25
100
AcDbLine
 10
691.5752221061
 20
577.7560567159
 30
0.0
 11
690.2877264374
 21
579.9860646285
 31
0.0
  0
SPLINE
  5
2B4
330
1F
100
AcDbEntity
  8
0
  6
Continuous
 62
     7
370
    25
100
AcDbSpline
210
0.0
220
0.0
230
1.0
 70
    24
 71
     3
 72
     9
 73
     5
 74
     0
 42
0.00000001
 43
0.00000001
 40
0.0
 40
0.0
 40
0.0
 40
0.0
 40
0.7942165911495593
 40
1.0
 40
1.0
 40
1.0
 40
1.0
 10
690.2877264373878
 20
553.529081724673
 30
0.0
 10
690.7325776429445
 20
554.2995866145052
 30
0.0
 10
691.2926908545214
 20
555.2697311549471
 30
0.0
 10
691.8778166562782
 20
556.2831987724092
 30
0.0
 10
691.99822583837
 20
556.4917535934901
 30
0.0
  0
SPLINE
  5
2B5
330
1F
100
AcDbEntity
  8
0
  6
Continuous
 62
     7
370
    25
100
AcDbSpline
210
0.0
220
0.0
230
1.0
 70
     8
 71
     3
 72
     9
 73
     5
 74
     0
 42
0.00000001
 43
0.00000001
 40
0.0
 40
0.0
 40
0.0
 40
0.0
 40
0.5841917497409186
 40
1.0
 40
1.0
 40
1.0
 40
1.0
 10
688.6333016346042
 20
551.8052661924141
 30
0.0
 10
689.0209579000548
 20
552.0945420959138
 30
0.0
 10
689.684534997168
 20
552.5897149627474
 30
0.0
 10
690.1105753455765
 20
553.2531994153587
 30
0.0
 10
690.2877264373878
 20
553.529081724673
 30
0.0
  0
ARC
  5
2B6
330
1F
100
AcDbEntity
  8
0
  6
Continuous
 62
     7
370
    25
100
AcDbCircle
 10
679.1613157895
 20
566.7575731766
 30
0.0
 40
17.70000000000002
100
AcDbArc
 50
297.6465635726
 51
302.3534364274
  0
SPLINE
  5
2B7
330
1F
100
AcDbEntity
  8
0
  6
Continuous
 62
     7
370
    25
100
AcDbSpline
210
0.0
220
0.0
230
1.0
 70
     8
 71
     3
 72
     9
 73
     5
 74
     0
 42
0.00000001
 43
0.00000001
 40
0.0
 40
0.0
 40
0.0
 40
0.0
 40
0.5850553834536062
 40
1.0
 40
1.0
 40
1.0
 40
1.0
 10
685.0543201166402
 20
550.5075731766105
 30
0.0
 10
685.5189666874276
 20
550.5392715936492
 30
0.0
 10
686.313159141558
 20
550.5934517925418
 30
0.0
 10
687.0631824332389
 20
550.9362125763419
 30
0.0
 10
687.3744005604065
 20
551.0784393183429
 30
0.0
  0
SPLINE
  5
2B8
330
1F
100
AcDbEntity
  8
0
  6
Continuous
 62
     7
370
    25
100
AcDbSpline
210
0.0
220
0.0
230
1.0
 70
    24
 71
     3
 72
    11
 73
     7
 74
     0
 42
0.00000001
 43
0.00000001
 40
0.0
 40
0.0
 40
0.0
 40
0.0
 40
0.2328716322111489
 40
0.4710265024313232
 40
0.7311421212560316
 40
1.0
 40
1.0
 40
1.0
 40
1.0
 10
673.2683114623077
 20
550.5075731766105
 30
0.0
 10
674.1621678926282
 20
550.5075731766105
 30
0.0
 10
675.9701599784474
 20
550.5075731766105
 30
0.0
 10
678.8978327190104
 20
550.5075731766105
 30
0.0
 10
681.9849316294884
 20
550.5075731766105
 30
0.0
 10
684.0199796504744
 20
550.5075731766105
 30
0.0
 10
685.0543201166402
 20
550.5075731766105
 30
0.0
  0
SPLINE
  5
2B9
330
1F
100
AcDbEntity
  8
0
  6
Continuous
 62
     7
370
    25
100
AcDbSpline
210
0.0
220
0.0
230
1.0
 70
     8
 71
     3
 72
     9
 73
     5
 74
     0
 42
0.00000001
 43
0.00000001
 40
0.0
 40
0.0
 40
0.0
 40
0.0
 40
0.5841917497409238
 40
1.0
 40
1.0
 40
1.0
 40
1.0
 10
670.9482310185415
 20
551.0784393183429
 30
0.0
 10
671.3925794324001
 20
550.8873570962763
 30
0.0
 10
672.1532002628994
 20
550.5602689062235
 30
0.0
 10
672.940814828081
 20
550.5230493677703
 30
0.0
 10
673.2683114623077
 20
550.5075731766105
 30
0.0
  0
ARC
  5
2BA
330
1F
100
AcDbEntity
  8
0
  6
Continuous
 62
     7
370
    25
100
AcDbCircle
 10
679.1613157895
 20
566.7575731766
 30
0.0
 40
17.70000000000005
100
AcDbArc
 50
237.6465635726
 51
242.3534364274
  0
ARC
  5
2BB
330
1F
100
AcDbEntity
  8
0
  6
Continuous
 62
     7
370
    25
100
AcDbCircle
 10
679.1613157895
 20
566.7575731766
 30
0.0
 40
16.20000000000018
100
AcDbArc
 50
210.0
 51
318.1420914366
  0
ARC
  5
2BC
330
1F
100
AcDbEntity
  8
0
  6
Continuous
 62
     7
370
    25
100
AcDbCircle
 10
679.1613157895
 20
566.7575731766
 30
0.0
 40
16.20000000000018
100
AcDbArc
 50
45.9729863763
 51
210.0
  0
LWPOLYLINE
  5
2BD
330
1F
100
AcDbEntity
  8
0
  6
Continuous
 62
     8
370
    25
100
AcDbPolyline
 90
       19
 70
   128
 43
0.0
 10
620.4613157895
 20
461.6845850882
 10
620.4931188669
 20
461.9339959495
 10
620.74600919
 20
462.4248014018
 10
621.243661733
 20
462.8918156928
 10
621.9700815339
 20
463.3200285988
 10
622.9019208625
 20
463.6956770047
 10
624.009229636
 20
464.0066872617
 10
625.2564180394
 20
464.2430632442
 10
626.6034004112
 20
464.3972076337
 10
628.0068836297
 20
464.4641661026
 10
629.4217585894
 20
464.4417865506
 10
630.802550045
 20
464.330788275
 10
632.104878223
 20
464.1347388517
 10
633.2868852242
 20
463.8599394704
 10
634.3105803709
 20
463.5152224094
 10
635.1430612589
 20
463.1116671587
 10
635.7575712675
 20
462.6622443159
 10
636.1343595394
 20
462.1813987012
 10
636.2613157895
 20
461.6845850882
  0
LWPOLYLINE
  5
2BE
330
1F
100
AcDbEntity
  8
0
  6
Continuous
 62
     8
370
    25
100
AcDbPolyline
 90
       19
 70
   128
 43
0.0
 10
620.4613157895
 20
544.0845850882
 10
620.4931188669
 20
544.3339959495
 10
620.74600919
 20
544.8248014018
 10
621.243661733
 20
545.2918156928
 10
621.9700815339
 20
545.7200285988
 10
622.9019208625
 20
546.0956770047
 10
624.009229636
 20
546.4066872617
 10
625.2564180394
 20
546.6430632442
 10
626.6034004112
 20
546.7972076337
 10
628.0068836297
 20
546.8641661026
 10
629.4217585894
 20
546.8417865506
 10
630.802550045
 20
546.730788275
 10
632.104878223
 20
546.5347388517
 10
633.2868852242
 20
546.2599394704
 10
634.3105803709
 20
545.9152224094
 10
635.1430612589
 20
545.5116671587
 10
635.7575712675
 20
545.0622443159
 10
636.1343595394
 20
544.5813987012
 10
636.2613157895
 20
544.0845850882
  0
ARC
  5
2BF
330
1F
100
AcDbEntity
  8
0
  6
Continuous
 62
     8
370
    25
100
AcDbCircle
 10
628.3613157895
 20
414.3575731766
 30
0.0
 40
8.410472292019554
100
AcDbArc
 50
159.9351921799
 51
270.0
  0
ARC
  5
2C0
330
1F
100
AcDbEntity
  8
0
  6
Continuous
 62
     8
370
    25
100
AcDbCircle
 10
628.3613157895
 20
414.3575731766
 30
0.0
 40
8.410472292019554
100
AcDbArc
 50
270.0
 51
20.0648078201
  0
ARC
  5
2C1
330
1F
100
AcDbEntity
  8
0
  6
Continuous
 62
     8
370
    25
100
AcDbCircle
 10
679.1613157895
 20
566.7575731766
 30
0.0
 40
24.80000000000007
100
AcDbArc
 50
90.0
 51
151.0614722598
  0
ARC
  5
2C2
330
1F
100
AcDbEntity
  8
0
  6
Continuous
 62
     8
370
    25
100
AcDbCircle
 10
679.1613157895
 20
566.7575731766
 30
0.0
 40
24.79999999999997
100
AcDbArc
 50
208.9385277402
 51
347.8557846769
  0
ARC
  5
2C3
330
1F
100
AcDbEntity
  8
0
  6
Continuous
 62
     8
370
    25
100
AcDbCircle
 10
679.1613157895
 20
566.7575731766
 30
0.0
 40
24.80000000000007
100
AcDbArc
 50
13.2720583992
 51
90.0
  0
ARC
  5
2C4
330
1F
100
AcDbEntity
  8
0
  6
Continuous
 62
     8
370
    25
100
AcDbCircle
 10
577.5613157895
 20
566.7575731766
 30
0.0
 40
24.80000000000001
100
AcDbArc
 50
270.0
 51
331.0614722598
  0
ARC
  5
2C5
330
1F
100
AcDbEntity
  8
0
  6
Continuous
 62
     8
370
    25
100
AcDbCircle
 10
577.5613157895
 20
566.7575731766
 30
0.0
 40
24.80000000000003
100
AcDbArc
 50
28.9385277402
 51
167.2266985791
  0
ARC
  5
2C6
330
1F
100
AcDbEntity
  8
0
  6
Continuous
 62
     8
370
    25
100
AcDbCircle
 10
577.5613157895
 20
566.7575731766
 30
0.0
 40
24.79999999999999
100
AcDbArc
 50
192.6741550399
 51
270.0
  0
SPLINE
  5
2C7
330
1F
100
AcDbEntity
  8
0
  6
Continuous
 62
     8
370
    25
100
AcDbSpline
210
0.0
220
0.0
230
1.0
 70
     8
 71
     3
 72
    16
 73
    12
 74
     0
 42
0.00000001
 43
0.00000001
 40
0.0
 40
0.0
 40
0.0
 40
0.0
 40
0.0961490818557532
 40
0.1898118314713998
 40
0.2837145723291249
 40
0.2938991301868913
 40
0.4289456490880499
 40
0.5643578936429821
 40
0.7523444602198323
 40
0.940604799764535
 40
1.0
 40
1.0
 40
1.0
 40
1.0
 10
606.5809838186086
 20
566.7575731766107
 30
0.0
 10
606.6154079592475
 20
567.288139690948
 30
0.0
 10
606.6833660619707
 20
568.3355527276617
 30
0.0
 10
607.1962529229872
 20
569.8004224449173
 30
0.0
 10
607.6956525334853
 20
570.7243748938142
 30
0.0
 10
608.3850094124082
 20
571.7673275053768
 30
0.0
 10
609.3179528874413
 20
572.8801825873935
 30
0.0
 10
611.0644210422078
 20
574.3883021973047
 30
0.0
 10
613.2070246381791
 20
575.7049862612365
 30
0.0
 10
615.1125548148049
 20
576.6540001697118
 30
0.0
 10
616.2530460376311
 20
576.9682956247541
 30
0.0
 10
616.526569919256
 20
577.0436730683674
 30
0.0
  0
SPLINE
  5
2C8
330
1F
100
AcDbEntity
  8
0
  6
Continuous
 62
     8
370
    25
100
AcDbSpline
210
0.0
220
0.0
230
1.0
 70
     8
 71
     3
 72
    24
 73
    20
 74
     0
 42
0.00000001
 43
0.00000001
 40
0.0
 40
0.0
 40
0.0
 40
0.0
 40
0.0662860709594485
 40
0.1656893809590101
 40
0.2649267485908602
 40
0.3307224223264706
 40
0.3963395803833412
 40
0.4389615257306326
 40
0.4814852478655825
 40
0.5420242709503437
 40
0.5650929996755498
 40
0.6002172989369146
 40
0.6353915061802414
 40
0.650919930920304
 40
0.7069212420879165
 40
0.7630852948935534
 40
0.8452335957708034
 40
0.9279250155572513
 40
1.0
 40
1.0
 40
1.0
 40
1.0
 10
637.631437950428
 20
577.7746093632561
 30
0.0
 10
638.3058825752155
 20
577.6296423950794
 30
0.0
 10
639.9917316646952
 20
577.267281391191
 30
0.0
 10
642.5898222586471
 20
576.1986563481855
 30
0.0
 10
645.0621125113664
 20
574.8144595299347
 30
0.0
 10
647.0379168382138
 20
573.2424230385353
 30
0.0
 10
648.35434102736
 20
571.7937668391327
 30
0.0
 10
649.2784106408067
 20
570.3217928612909
 30
0.0
 10
649.9439911010617
 20
568.7371230396016
 30
0.0
 10
650.1848064081198
 20
567.2082697920779
 30
0.0
 10
650.1008230626782
 20
565.7785448652529
 30
0.0
 10
649.8709469851125
 20
564.6786592762073
 30
0.0
 10
649.5084337688693
 20
563.7296250453684
 30
0.0
 10
648.946361646016
 20
562.623197071346
 30
0.0
 10
648.1096848436107
 20
561.4178212883556
 30
0.0
 10
646.5933661772262
 20
559.8708802582997
 30
0.0
 10
644.6541215765536
 20
558.4410759074111
 30
0.0
 10
642.4225834789517
 20
557.2386645332028
 30
0.0
 10
640.8928505911975
 20
556.6799068466277
 30
0.0
 10
640.1804513167195
 20
556.4196924172251
 30
0.0
  0
SPLINE
  5
2C9
330
1F
100
AcDbEntity
  8
0
  6
Continuous
 62
     8
370
    25
100
AcDbSpline
210
0.0
220
0.0
230
1.0
 70
     8
 71
     3
 72
    15
 73
    11
 74
     0
 42
0.00000001
 43
0.00000001
 40
0.0
 40
0.0
 40
0.0
 40
0.0
 40
0.1470288848990082
 40
0.3452979151469651
 40
0.5430476916551094
 40
0.6556896590240054
 40
0.7680052823731877
 40
0.8449728862964347
 40
0.9217575037793891
 40
1.0
 40
1.0
 40
1.0
 40
1.0
 10
619.0953353621837
 20
555.736130123166
 30
0.0
 10
618.2851044077337
 20
555.9217500277587
 30
0.0
 10
616.3822738207283
 20
556.3576791046174
 30
0.0
 10
613.5123413103829
 20
557.5996357797096
 30
0.0
 10
610.9796354299236
 20
559.1639468417443
 30
0.0
 10
609.1005275790939
 20
560.8601355294373
 30
0.0
 10
607.940840045578
 20
562.3175176723164
 30
0.0
 10
607.1594006847802
 20
563.8033525947241
 30
0.0
 10
606.676614197512
 20
565.2306734550689
 30
0.0
 10
606.6130598338357
 20
566.2454256845699
 30
0.0
 10
606.5809838186086
 20
566.7575731766107
 30
0.0
  0
SPLINE
  5
2CA
330
1F
100
AcDbEntity
  8
0
  6
Continuous
 62
     8
370
    25
100
AcDbSpline
210
0.0
220
0.0
230
1.0
 70
     8
 71
     3
 72
    16
 73
    12
 74
     0
 42
0.00000001
 43
0.00000001
 40
0.0
 40
0.0
 40
0.0
 40
0.0
 40
0.0031565719070116
 40
0.0659772652113076
 40
0.1534477794160937
 40
0.2411216518121357
 40
0.284416980613729
 40
0.4899081590022316
 40
0.6962116819569542
 40
0.8481421431829758
 40
1.0
 40
1.0
 40
1.0
 40
1.0
 10
663.1744862238968
 20
554.7609085207683
 30
0.0
 10
663.1768440054167
 20
554.7597593062098
 30
0.0
 10
663.2261253084362
 20
554.7357389334948
 30
0.0
 10
663.1057624724431
 20
554.7939772799333
 30
0.0
 10
662.8916184411406
 20
554.8974228628564
 30
0.0
 10
662.5147933826539
 20
555.0869800800295
 30
0.0
 10
661.8376881238065
 20
555.4423140406215
 30
0.0
 10
660.7032249765948
 20
556.0848238112338
 30
0.0
 10
659.1450989404468
 20
557.14872574765
 30
0.0
 10
657.7359462369457
 20
558.3024403299834
 30
0.0
 10
656.9439492169605
 20
559.139262226962
 30
0.0
 10
656.5480453493096
 20
559.5575731766107
 30
0.0
  0
SPLINE
  5
2CB
330
1F
100
AcDbEntity
  8
0
  6
Continuous
 62
     8
370
    25
100
AcDbSpline
210
0.0
220
0.0
230
1.0
 70
     8
 71
     3
 72
    15
 73
    11
 74
     0
 42
0.00000001
 43
0.00000001
 40
0.0
 40
0.0
 40
0.0
 40
0.0
 40
0.1537384861244802
 40
0.3075521976317478
 40
0.5120921621384616
 40
0.7158381662020602
 40
0.8814940809723368
 40
0.9339772715022447
 40
0.9968199251812137
 40
0.9999999999999999
 40
0.9999999999999999
 40
0.9999999999999999
 40
0.9999999999999999
 10
600.1745862296381
 20
559.5575731766107
 30
0.0
 10
599.7737620941849
 20
559.1344236965704
 30
0.0
 10
598.9719176970531
 20
558.2879176863073
 30
0.0
 10
597.5576010380843
 20
557.1339404794866
 30
0.0
 10
596.0028259447495
 20
556.0753694638396
 30
0.0
 10
594.5852792449418
 20
555.2723830605786
 30
0.0
 10
593.8096534334137
 20
554.887143159743
 30
0.0
 10
593.5939148852017
 20
554.7828636176506
 30
0.0
 10
593.4964666357301
 20
554.7357198612488
 30
0.0
 10
593.5458168690819
 20
554.759773599426
 30
0.0
 10
593.5481938904192
 20
554.7609321805512
 30
0.0
  0
SPLINE
  5
2CC
330
1F
100
AcDbEntity
  8
0
  6
Continuous
 62
     8
370
    25
100
AcDbSpline
210
0.0
220
0.0
230
1.0
 70
     8
 71
     3
 72
    13
 73
     9
 74
     0
 42
0.00000001
 43
0.00000001
 40
0.0
 40
0.0
 40
0.0
 40
0.0
 40
0.2467880886817964
 40
0.4412283482314687
 40
0.6395954032237774
 40
0.7567103163741548
 40
0.8774306240373152
 40
1.0
 40
1.0
 40
1.0
 40
1.0
 10
656.5480453493096
 20
573.9575731766107
 30
0.0
 10
657.1988766315367
 20
574.618188993338
 30
0.0
 10
658.3624871330329
 20
575.7992931024833
 30
0.0
 10
660.1382442774666
 20
577.0640801689883
 30
0.0
 10
661.4774486854719
 20
577.8771995018919
 30
0.0
 10
662.4297548896923
 20
578.3874593572299
 30
0.0
 10
663.0546303081707
 20
578.6976296119113
 30
0.0
 10
663.1205119188257
 20
578.7285973541393
 30
0.0
 10
663.1537030833052
 20
578.7441989069191
 30
0.0
  0
SPLINE
  5
2CD
330
1F
100
AcDbEntity
  8
0
  6
Continuous
 62
     8
370
    25
100
AcDbSpline
210
0.0
220
0.0
230
1.0
 70
     8
 71
     3
 72
    14
 73
    10
 74
     0
 42
0.00000001
 43
0.00000001
 40
0.0
 40
0.0
 40
0.0
 40
0.0
 40
0.0342440351540844
 40
0.1230728525078728
 40
0.2396149110986177
 40
0.3607767422338039
 40
0.5547460499698463
 40
0.7533569010846078
 40
1.0
 40
1.0
 40
1.0
 40
1.0
 10
593.5937285529452
 20
578.7322782413631
 30
0.0
 10
593.5769346301579
 20
578.7403897536685
 30
0.0
 10
593.5165773745679
 20
578.7695424791895
 30
0.0
 10
593.7698467819839
 20
578.6478899962368
 30
0.0
 10
594.2704297580555
 20
578.3984030540831
 30
0.0
 10
595.2314806330554
 20
577.8856609211833
 30
0.0
 10
596.5701524914605
 20
577.0729084832049
 30
0.0
 10
598.3495045437152
 20
575.8102205792878
 30
0.0
 10
599.5239926138975
 20
574.6179932453113
 30
0.0
 10
600.1745862296291
 20
573.9575731766208
 30
0.0
  0
LINE
  5
2CE
330
1F
100
AcDbEntity
  8
0
  6
Continuous
 62
     8
370
    25
100
AcDbLine
 10
620.3020819422
 20
559.1832121495
 30
0.0
 11
620.4613157895
 21
559.0172763364
 31
0.0
  0
ARC
  5
2CF
330
1F
100
AcDbEntity
  8
0
  6
Continuous
 62
     8
370
    25
100
AcDbCircle
 10
628.3613157895
 20
566.7575731766
 30
0.0
 40
11.059936490539
100
AcDbArc
 50
315.5850271977
 51
223.2235523034
  0
ARC
  5
2D0
330
1F
100
AcDbEntity
  8
0
  6
Continuous
 62
     8
370
    25
100
AcDbCircle
 10
628.3613157895
 20
566.7575731766
 30
0.0
 40
11.30993649053895
100
AcDbArc
 50
314.3068486059
 51
225.6931513941
  0
LINE
  5
2D1
330
1F
100
AcDbEntity
  8
0
  6
Continuous
 62
     8
370
    25
100
AcDbLine
 10
636.2613157895
 20
554.3918368667
 30
0.0
 11
636.5185746481
 21
554.4985049856
 31
0.0
  0
ARC
  5
2D2
330
1F
100
AcDbEntity
  8
0
  6
Continuous
 62
     8
370
    25
100
AcDbCircle
 10
620.2038252826
 20
554.8425189512
 30
0.0
 40
0.3529502268469352
100
AcDbArc
 50
279.5385256861
 51
316.8476542185
  0
ARC
  5
2D3
330
1F
100
AcDbEntity
  8
0
  6
Continuous
 62
     8
370
    25
100
AcDbCircle
 10
628.3613157895
 20
566.7575731766
 30
0.0
 40
9.374999999999927
100
AcDbArc
 50
327.4227936768
 51
212.5772063232
  0
ELLIPSE
  5
2D4
330
1F
100
AcDbEntity
  8
0
  6
Continuous
 62
     8
370
    25
100
AcDbEllipse
 10
522.100230342
 20
563.4183373987
 30
0.0
 11
1.499999304622747
 21
-0.08287263343868288
 31
0.0
210
0.0
220
0.0
230
1.0
 40
0.0174284859
 41
3.125102257569634
 42
3.637407889694729
  0
ELLIPSE
  5
2D5
330
1F
100
AcDbEntity
  8
0
  6
Continuous
 62
     8
370
    25
100
AcDbEllipse
 10
734.6224012369
 20
570.3422302434
 30
0.0
 11
1.499999304622747
 21
-0.08287263343868288
 31
0.0
210
0.0
220
0.0
230
1.0
 40
0.0174284859
 41
6.266694911160205
 42
6.779000543283829
  0
ENDSEC
  0
SECTION
  2
OBJECTS
  0
DICTIONARY
  5
C
330
0
100
AcDbDictionary
281
     1
  3
ACAD_GROUP
350
D
  3
ACAD_LAYOUT
350
1A
  3
ACAD_MLINESTYLE
350
17
  3
ACAD_PLOTSETTINGS
350
19
  3
ACAD_PLOTSTYLENAME
350
E
  3
ACAD_SCALELIST
350
47
  3
DWGPROPS
350
2D6
  0
DICTIONARY
  5
D
102
{ACAD_REACTORS
330
C
102
}
330
C
100
AcDbDictionary
281
     1
  0
DICTIONARY
  5
1A
102
{ACAD_REACTORS
330
C
102
}
330
C
100
AcDbDictionary
281
     1
  3
Layout1
350
1E
  3
Layout2
350
26
  3
Model
350
22
  0
DICTIONARY
  5
17
102
{ACAD_REACTORS
330
C
102
}
330
C
100
AcDbDictionary
281
     1
  3
Standard
350
18
  0
DICTIONARY
  5
19
102
{ACAD_REACTORS
330
C
102
}
330
C
100
AcDbDictionary
281
     1
  0
ACDBDICTIONARYWDFLT
  5
E
102
{ACAD_REACTORS
330
C
102
}
330
C
100
AcDbDictionary
281
     1
  3
Normal
350
F
100
AcDbDictionaryWithDefault
340
F
  0
DICTIONARY
  5
47
102
{ACAD_REACTORS
330
C
102
}
330
C
100
AcDbDictionary
281
     1
  3
A0
350
48
  3
A1
350
49
  3
A2
350
4A
  3
A3
350
4B
  3
A4
350
4C
  3
A5
350
4D
  3
A6
350
4E
  3
A7
350
4F
  3
A8
350
50
  3
A9
350
51
  3
B0
350
52
  3
B1
350
53
  3
B2
350
54
  3
B3
350
55
  3
B4
350
56
  3
B5
350
57
  3
B6
350
58
  3
B7
350
59
  3
B8
350
5A
  3
B9
350
5B
  3
C0
350
5C
  3
C1
350
5D
  3
C2
350
5E
  3
C3
350
5F
  3
C4
350
60
  3
C5
350
61
  3
C6
350
62
  3
C7
350
63
  3
C8
350
64
  3
C9
350
65
  3
D0
350
66
  3
D1
350
67
  3
D2
350
68
  0
XRECORD
  5
2D6
102
{ACAD_REACTORS
330
C
102
}
330
C
100
AcDbXrecord
280
     1
  1
DWGPROPS COOKIE
  2

  3

  4

  6

  7

  8
designer5
  9

300
=
301
=
302
=
303
=
304
=
305
=
306
=
307
=
308
=
309
=
 40
0.0
 41
2460383.28803875
 42
2460383.288039317
  1

 90
        0
  0
LAYOUT
  5
1E
102
{ACAD_REACTORS
330
1A
102
}
330
1A
100
AcDbPlotSettings
  1

  2
none_device
  4

  6

 40
0.0
 41
0.0
 42
0.0
 43
0.0
 44
0.0
 45
0.0
 46
0.0
 47
0.0
 48
0.0
 49
0.0
140
0.0
141
0.0
142
1.0
143
1.0
 70
   688
 72
     1
 73
     0
 74
     5
  7

 75
    16
147
1.0
148
0.0
149
0.0
100
AcDbLayout
  1
Layout1
 70
     1
 71
     1
 10
0.0
 20
0.0
 11
420.0
 21
297.0
 12
0.0
 22
0.0
 32
0.0
 14
1.0000000000E+20
 24
1.0000000000E+20
 34
1.0000000000E+20
 15
-1.0000000000E+20
 25
-1.0000000000E+20
 35
-1.0000000000E+20
146
0.0
 13
0.0
 23
0.0
 33
0.0
 16
1.0
 26
0.0
 36
0.0
 17
0.0
 27
1.0
 37
0.0
 76
     0
330
1B
  0
LAYOUT
  5
26
102
{ACAD_REACTORS
330
1A
102
}
330
1A
100
AcDbPlotSettings
  1

  2
none_device
  4

  6

 40
0.0
 41
0.0
 42
0.0
 43
0.0
 44
0.0
 45
0.0
 46
0.0
 47
0.0
 48
0.0
 49
0.0
140
0.0
141
0.0
142
1.0
143
1.0
 70
   688
 72
     1
 73
     0
 74
     5
  7

 75
    16
147
1.0
148
0.0
149
0.0
100
AcDbLayout
  1
Layout2
 70
     1
 71
     2
 10
0.0
 20
0.0
 11
0.0
 21
0.0
 12
0.0
 22
0.0
 32
0.0
 14
0.0
 24
0.0
 34
0.0
 15
0.0
 25
0.0
 35
0.0
146
0.0
 13
0.0
 23
0.0
 33
0.0
 16
1.0
 26
0.0
 36
0.0
 17
0.0
 27
1.0
 37
0.0
 76
     0
330
23
  0
LAYOUT
  5
22
102
{ACAD_REACTORS
330
1A
102
}
330
1A
100
AcDbPlotSettings
  1

  2
none_device
  4
Letter_(8.50_x_11.00_Inches)
  6

 40
6.35
 41
6.35
 42
6.35000508
 43
6.35000508
 44
215.9
 45
279.4
 46
0.0
 47
0.0
 48
0.0
 49
0.0
140
0.0
141
0.0
142
1.0
143
1.0
 70
  1712
 72
     1
 73
     0
 74
     0
  7

 75
     0
147
1.0
148
0.0
149
0.0
100
AcDbLayout
  1
Model
 70
     1
 71
     0
 10
0.0
 20
0.0
 11
1189.0
 21
841.0
 12
0.0
 22
0.0
 32
0.0
 14
0.0
 24
0.0
 34
0.0
 15
1189.0
 25
841.0
 35
0.0
146
0.0
 13
0.0
 23
0.0
 33
0.0
 16
1.0
 26
0.0
 36
0.0
 17
0.0
 27
1.0
 37
0.0
 76
     0
330
1F
331
29
  0
MLINESTYLE
  5
18
102
{ACAD_REACTORS
330
17
102
}
330
17
100
AcDbMlineStyle
  2
Standard
 70
     0
  3

 62
   256
 51
90.0
 52
90.0
 71
     2
 49
0.5
 62
   256
  6
BYLAYER
 49
-0.5
 62
   256
  6
BYLAYER
  0
ACDBPLACEHOLDER
  5
F
102
{ACAD_REACTORS
330
E
102
}
330
E
  0
SCALE
  5
48
102
{ACAD_REACTORS
330
47
102
}
330
47
100
AcDbScale
 70
     0
300
1:1
140
1.0
141
1.0
290
     1
  0
SCALE
  5
49
102
{ACAD_REACTORS
330
47
102
}
330
47
100
AcDbScale
 70
     0
300
1:2
140
1.0
141
2.0
290
     0
  0
SCALE
  5
4A
102
{ACAD_REACTORS
330
47
102
}
330
47
100
AcDbScale
 70
     0
300
1:4
140
1.0
141
4.0
290
     0
  0
SCALE
  5
4B
102
{ACAD_REACTORS
330
47
102
}
330
47
100
AcDbScale
 70
     0
300
1:5
140
1.0
141
5.0
290
     0
  0
SCALE
  5
4C
102
{ACAD_REACTORS
330
47
102
}
330
47
100
AcDbScale
 70
     0
300
1:8
140
1.0
141
8.0
290
     0
  0
SCALE
  5
4D
102
{ACAD_REACTORS
330
47
102
}
330
47
100
AcDbScale
 70
     0
300
1:10
140
1.0
141
10.0
290
     0
  0
SCALE
  5
4E
102
{ACAD_REACTORS
330
47
102
}
330
47
100
AcDbScale
 70
     0
300
1:16
140
1.0
141
16.0
290
     0
  0
SCALE
  5
4F
102
{ACAD_REACTORS
330
47
102
}
330
47
100
AcDbScale
 70
     0
300
1:20
140
1.0
141
20.0
290
     0
  0
SCALE
  5
50
102
{ACAD_REACTORS
330
47
102
}
330
47
100
AcDbScale
 70
     0
300
1:30
140
1.0
141
30.0
290
     0
  0
SCALE
  5
51
102
{ACAD_REACTORS
330
47
102
}
330
47
100
AcDbScale
 70
     0
300
1:40
140
1.0
141
40.0
290
     0
  0
SCALE
  5
52
102
{ACAD_REACTORS
330
47
102
}
330
47
100
AcDbScale
 70
     0
300
1:50
140
1.0
141
50.0
290
     0
  0
SCALE
  5
53
102
{ACAD_REACTORS
330
47
102
}
330
47
100
AcDbScale
 70
     0
300
1:100
140
1.0
141
100.0
290
     0
  0
SCALE
  5
54
102
{ACAD_REACTORS
330
47
102
}
330
47
100
AcDbScale
 70
     0
300
2:1
140
2.0
141
1.0
290
     0
  0
SCALE
  5
55
102
{ACAD_REACTORS
330
47
102
}
330
47
100
AcDbScale
 70
     0
300
4:1
140
4.0
141
1.0
290
     0
  0
SCALE
  5
56
102
{ACAD_REACTORS
330
47
102
}
330
47
100
AcDbScale
 70
     0
300
8:1
140
8.0
141
1.0
290
     0
  0
SCALE
  5
57
102
{ACAD_REACTORS
330
47
102
}
330
47
100
AcDbScale
 70
     0
300
10:1
140
10.0
141
1.0
290
     0
  0
SCALE
  5
58
102
{ACAD_REACTORS
330
47
102
}
330
47
100
AcDbScale
 70
     0
300
100:1
140
100.0
141
1.0
290
     0
  0
SCALE
  5
59
102
{ACAD_REACTORS
330
47
102
}
330
47
100
AcDbScale
 70
     0
300
1/128" = 1'-0"
140
0.0078125
141
12.0
290
     0
  0
SCALE
  5
5A
102
{ACAD_REACTORS
330
47
102
}
330
47
100
AcDbScale
 70
     0
300
1/64" = 1'-0"
140
0.015625
141
12.0
290
     0
  0
SCALE
  5
5B
102
{ACAD_REACTORS
330
47
102
}
330
47
100
AcDbScale
 70
     0
300
1/32" = 1'-0"
140
0.03125
141
12.0
290
     0
  0
SCALE
  5
5C
102
{ACAD_REACTORS
330
47
102
}
330
47
100
AcDbScale
 70
     0
300
1/16" = 1'-0"
140
0.0625
141
12.0
290
     0
  0
SCALE
  5
5D
102
{ACAD_REACTORS
330
47
102
}
330
47
100
AcDbScale
 70
     0
300
3/32" = 1'-0"
140
0.09375
141
12.0
290
     0
  0
SCALE
  5
5E
102
{ACAD_REACTORS
330
47
102
}
330
47
100
AcDbScale
 70
     0
300
1/8" = 1'-0"
140
0.125
141
12.0
290
     0
  0
SCALE
  5
5F
102
{ACAD_REACTORS
330
47
102
}
330
47
100
AcDbScale
 70
     0
300
3/16" = 1'-0"
140
0.1875
141
12.0
290
     0
  0
SCALE
  5
60
102
{ACAD_REACTORS
330
47
102
}
330
47
100
AcDbScale
 70
     0
300
1/4" = 1'-0"
140
0.25
141
12.0
290
     0
  0
SCALE
  5
61
102
{ACAD_REACTORS
330
47
102
}
330
47
100
AcDbScale
 70
     0
300
3/8" = 1'-0"
140
0.375
141
12.0
290
     0
  0
SCALE
  5
62
102
{ACAD_REACTORS
330
47
102
}
330
47
100
AcDbScale
 70
     0
300
1/2" = 1'-0"
140
0.5
141
12.0
290
     0
  0
SCALE
  5
63
102
{ACAD_REACTORS
330
47
102
}
330
47
100
AcDbScale
 70
     0
300
3/4" = 1'-0"
140
0.75
141
12.0
290
     0
  0
SCALE
  5
64
102
{ACAD_REACTORS
330
47
102
}
330
47
100
AcDbScale
 70
     0
300
1" = 1'-0"
140
1.0
141
12.0
290
     0
  0
SCALE
  5
65
102
{ACAD_REACTORS
330
47
102
}
330
47
100
AcDbScale
 70
     0
300
1-1/2" = 1'-0"
140
1.5
141
12.0
290
     0
  0
SCALE
  5
66
102
{ACAD_REACTORS
330
47
102
}
330
47
100
AcDbScale
 70
     0
300
3" = 1'-0"
140
3.0
141
12.0
290
     0
  0
SCALE
  5
67
102
{ACAD_REACTORS
330
47
102
}
330
47
100
AcDbScale
 70
     0
300
6" = 1'-0"
140
6.0
141
12.0
290
     0
  0
SCALE
  5
68
102
{ACAD_REACTORS
330
47
102
}
330
47
100
AcDbScale
 70
     0
300
1'-0" = 1'-0"
140
12.0
141
12.0
290
     0
  0
ENDSEC
  0
EOF
