  0
SECTION
  2
HEADER
  9
$ACADVER
  1
AC1015
  9
$ACADMAINTVER
 70
     6
  9
$DWGCODEPAGE
  3
ANSI_1252
  9
$INSBASE
 10
0.0
 20
0.0
 30
0.0
  9
$EXTMIN
 10
0.0
 20
0.0
 30
0.0
  9
$EXTMAX
 10
1189.0
 20
841.0
 30
0.0
  9
$LIMMIN
 10
0.0
 20
0.0
  9
$LIMMAX
 10
1189.0
 20
841.0
  9
$ORTHOMODE
 70
     0
  9
$REGENMODE
 70
     1
  9
$FILLMODE
 70
     1
  9
$QTEXTMODE
 70
     0
  9
$MIRRTEXT
 70
     1
  9
$LTSCALE
 40
1.0
  9
$ATTMODE
 70
     1
  9
$TEXTSIZE
 40
3.5
  9
$TRACEWID
 40
1.0
  9
$TEXTSTYLE
  7
Standard
  9
$CLAYER
  8
0
  9
$CELTYPE
  6
ByLayer
  9
$CECOLOR
 62
   256
  9
$CELTSCALE
 40
1.0
  9
$DISPSILH
 70
     0
  9
$DIMSCALE
 40
1.0
  9
$DIMASZ
 40
3.302
  9
$DIMEXO
 40
1.0
  9
$DIMDLI
 40
3.75
  9
$DIMRND
 40
0.0
  9
$DIMDLE
 40
0.0
  9
$DIMEXE
 40
1.0
  9
$DIMTP
 40
0.0
  9
$DIMTM
 40
0.0
  9
$DIMTXT
 40
3.5
  9
$DIMCEN
 40
2.5
  9
$DIMTSZ
 40
0.0
  9
$DIMTOL
 70
     0
  9
$DIMLIM
 70
     0
  9
$DIMTIH
 70
     1
  9
$DIMTOH
 70
     1
  9
$DIMSE1
 70
     0
  9
$DIMSE2
 70
     0
  9
$DIMTAD
 70
     1
  9
$DIMZIN
 70
     1
  9
$DIMBLK
  1

  9
$DIMASO
 70
     1
  9
$DIMSHO
 70
     1
  9
$DIMPOST
  1

  9
$DIMAPOST
  1

  9
$DIMALT
 70
     0
  9
$DIMALTD
 70
     3
  9
$DIMALTF
 40
0.0393700787
  9
$DIMLFAC
 40
1.0
  9
$DIMTOFL
 70
     1
  9
$DIMTVP
 40
0.0
  9
$DIMTIX
 70
     0
  9
$DIMSOXD
 70
     0
  9
$DIMSAH
 70
     0
  9
$DIMBLK1
  1

  9
$DIMBLK2
  1

  9
$DIMSTYLE
  2
ISO-25
  9
$DIMCLRD
 70
     0
  9
$DIMCLRE
 70
     0
  9
$DIMCLRT
 70
     0
  9
$DIMTFAC
 40
1.0
  9
$DIMGAP
 40
1.524
  9
$DIMJUST
 70
     0
  9
$DIMSD1
 70
     0
  9
$DIMSD2
 70
     0
  9
$DIMTOLJ
 70
     0
  9
$DIMTZIN
 70
     1
  9
$DIMALTZ
 70
     0
  9
$DIMALTTZ
 70
     0
  9
$DIMUPT
 70
     0
  9
$DIMDEC
 70
     2
  9
$DIMTDEC
 70
     2
  9
$DIMALTU
 70
     2
  9
$DIMALTTD
 70
     3
  9
$DIMTXSTY
  7
Standard
  9
$DIMAUNIT
 70
     0
  9
$DIMADEC
 70
     2
  9
$DIMALTRND
 40
0.0
  9
$DIMAZIN
 70
     0
  9
$DIMDSEP
 70
    44
  9
$DIMATFIT
 70
     3
  9
$DIMFRAC
 70
     0
  9
$DIMLDRBLK
  1

  9
$DIMLUNIT
 70
     2
  9
$DIMLWD
 70
    -2
  9
$DIMLWE
 70
    -2
  9
$DIMTMOVE
 70
     0
  9
$LUNITS
 70
     2
  9
$LUPREC
 70
     2
  9
$SKETCHINC
 40
1.0
  9
$FILLETRAD
 40
10.0
  9
$AUNITS
 70
     0
  9
$AUPREC
 70
     2
  9
$MENU
  1
.
  9
$ELEVATION
 40
0.0
  9
$PELEVATION
 40
0.0
  9
$THICKNESS
 40
0.0
  9
$LIMCHECK
 70
     0
  9
$CHAMFERA
 40
0.0
  9
$CHAMFERB
 40
0.0
  9
$CHAMFERC
 40
0.0
  9
$CHAMFERD
 40
0.0
  9
$SKPOLY
 70
     0
  9
$TDCREATE
 40
2460383.430367014
  9
$TDUCREATE
 40
2460383.201200347
  9
$TDUPDATE
 40
2460383.430367743
  9
$TDUUPDATE
 40
2460383.201201077
  9
$TDINDWG
 40
0.0000000116
  9
$TDUSRTIMER
 40
0.0000000116
  9
$USRTIMER
 70
     1
  9
$ANGBASE
 50
0.0
  9
$ANGDIR
 70
     0
  9
$PDMODE
 70
     0
  9
$PDSIZE
 40
-1.0
  9
$PLINEWID
 40
0.0
  9
$SPLFRAME
 70
     0
  9
$SPLINETYPE
 70
     6
  9
$SPLINESEGS
 70
     8
  9
$HANDSEED
  5
2D0
  9
$SURFTAB1
 70
     6
  9
$SURFTAB2
 70
     6
  9
$SURFTYPE
 70
     6
  9
$SURFU
 70
     6
  9
$SURFV
 70
     6
  9
$UCSBASE
  2

  9
$UCSNAME
  2

  9
$UCSORG
 10
0.0
 20
0.0
 30
0.0
  9
$UCSXDIR
 10
1.0
 20
0.0
 30
0.0
  9
$UCSYDIR
 10
0.0
 20
1.0
 30
0.0
  9
$UCSORTHOREF
  2

  9
$UCSORTHOVIEW
 70
     0
  9
$UCSORGTOP
 10
0.0
 20
0.0
 30
0.0
  9
$UCSORGBOTTOM
 10
0.0
 20
0.0
 30
0.0
  9
$UCSORGLEFT
 10
0.0
 20
0.0
 30
0.0
  9
$UCSORGRIGHT
 10
0.0
 20
0.0
 30
0.0
  9
$UCSORGFRONT
 10
0.0
 20
0.0
 30
0.0
  9
$UCSORGBACK
 10
0.0
 20
0.0
 30
0.0
  9
$PUCSBASE
  2

  9
$PUCSNAME
  2

  9
$PUCSORG
 10
0.0
 20
0.0
 30
0.0
  9
$PUCSXDIR
 10
1.0
 20
0.0
 30
0.0
  9
$PUCSYDIR
 10
0.0
 20
1.0
 30
0.0
  9
$PUCSORTHOREF
  2

  9
$PUCSORTHOVIEW
 70
     0
  9
$PUCSORGTOP
 10
0.0
 20
0.0
 30
0.0
  9
$PUCSORGBOTTOM
 10
0.0
 20
0.0
 30
0.0
  9
$PUCSORGLEFT
 10
0.0
 20
0.0
 30
0.0
  9
$PUCSORGRIGHT
 10
0.0
 20
0.0
 30
0.0
  9
$PUCSORGFRONT
 10
0.0
 20
0.0
 30
0.0
  9
$PUCSORGBACK
 10
0.0
 20
0.0
 30
0.0
  9
$USERI1
 70
     0
  9
$USERI2
 70
     0
  9
$USERI3
 70
     0
  9
$USERI4
 70
     0
  9
$USERI5
 70
     0
  9
$USERR1
 40
0.0
  9
$USERR2
 40
0.0
  9
$USERR3
 40
0.0
  9
$USERR4
 40
0.0
  9
$USERR5
 40
0.0
  9
$WORLDVIEW
 70
     1
  9
$SHADEDGE
 70
     3
  9
$SHADEDIF
 70
    70
  9
$TILEMODE
 70
     1
  9
$MAXACTVP
 70
    64
  9
$PINSBASE
 10
0.0
 20
0.0
 30
0.0
  9
$PLIMCHECK
 70
     0
  9
$PEXTMIN
 10
1.0000000000E+20
 20
1.0000000000E+20
 30
1.0000000000E+20
  9
$PEXTMAX
 10
-1.0000000000E+20
 20
-1.0000000000E+20
 30
-1.0000000000E+20
  9
$PLIMMIN
 10
0.0
 20
0.0
  9
$PLIMMAX
 10
420.0
 20
297.0
  9
$UNITMODE
 70
     0
  9
$VISRETAIN
 70
     1
  9
$PLINEGEN
 70
     0
  9
$PSLTSCALE
 70
     1
  9
$TREEDEPTH
 70
  3020
  9
$CMLSTYLE
  2
Standard
  9
$CMLJUST
 70
     0
  9
$CMLSCALE
 40
20.0
  9
$PROXYGRAPHICS
 70
     1
  9
$MEASUREMENT
 70
     1
  9
$CELWEIGHT
370
    -1
  9
$ENDCAPS
280
     0
  9
$JOINSTYLE
280
     0
  9
$LWDISPLAY
290
     1
  9
$INSUNITS
 70
     4
  9
$HYPERLINKBASE
  1

  9
$STYLESHEET
  1

  9
$XEDIT
290
     1
  9
$CEPSNTYPE
380
     0
  9
$PSTYLEMODE
290
     1
  9
$FINGERPRINTGUID
  2
{d02fa500-564c-4c6f-8fce-ccf6661aea41}
  9
$VERSIONGUID
  2
{FAEB1C32-E019-11D5-929B-00C0DF256EC4}
  9
$EXTNAMES
290
     1
  9
$PSVPSCALE
 40
0.0
  9
$OLESTARTUP
290
     0
  0
ENDSEC
  0
SECTION
  2
CLASSES
  0
CLASS
  1
ACDBDICTIONARYWDFLT
  2
AcDbDictionaryWithDefault
  3
ObjectDBX Classes
 90
        0
280
     0
281
     0
  0
CLASS
  1
VISUALSTYLE
  2
AcDbVisualStyle
  3
ObjectDBX Classes
 90
     4095
280
     0
281
     0
  0
CLASS
  1
MATERIAL
  2
AcDbMaterial
  3
ObjectDBX Classes
 90
     1153
280
     0
281
     0
  0
CLASS
  1
SCALE
  2
AcDbScale
  3
ObjectDBX Classes
 90
     1153
280
     0
281
     0
  0
CLASS
  1
TABLESTYLE
  2
AcDbTableStyle
  3
ObjectDBX Classes
 90
     4095
280
     0
281
     0
  0
CLASS
  1
MLEADERSTYLE
  2
AcDbMLeaderStyle
  3
ACDB_MLEADERSTYLE_CLASS
 90
     4095
280
     0
281
     0
  0
CLASS
  1
SUN
  2
AcDbSun
  3
SCENEOE
 90
     1153
280
     0
281
     0
  0
CLASS
  1
ACDBPLACEHOLDER
  2
AcDbPlaceHolder
  3
ObjectDBX Classes
 90
        0
280
     0
281
     0
  0
CLASS
  1
LAYOUT
  2
AcDbLayout
  3
ObjectDBX Classes
 90
        0
280
     0
281
     0
  0
ENDSEC
  0
SECTION
  2
TABLES
  0
TABLE
  2
VPORT
  5
8
330
0
100
AcDbSymbolTable
 70
     1
  0
VPORT
  5
29
330
8
100
AcDbSymbolTableRecord
100
AcDbViewportTableRecord
  2
*Active
 70
     0
 10
0.0
 20
0.0
 11
1.0
 21
1.0
 12
594.5
 22
420.5
 13
0.0
 23
0.0
 14
10.0
 24
10.0
 15
10.0
 25
10.0
 16
0.0
 26
0.0
 36
1.0
 17
0.0
 27
0.0
 37
0.0
 40
841.0
 41
1.4137931034
 42
50.0
 43
0.0
 44
0.0
 50
0.0
 51
0.0
 71
     0
 72
  2000
 73
     1
 74
     3
 75
     0
 76
     0
 77
     0
 78
     0
281
     0
 65
     1
110
0.0
120
0.0
130
0.0
111
1.0
121
0.0
131
0.0
112
0.0
122
1.0
132
0.0
 79
     0
146
0.0
  0
ENDTAB
  0
TABLE
  2
LTYPE
  5
5
330
0
100
AcDbSymbolTable
 70
     6
  0
LTYPE
  5
14
330
5
100
AcDbSymbolTableRecord
100
AcDbLinetypeTableRecord
  2
ByBlock
 70
     0
  3

 72
    65
 73
     0
 40
0.0
  0
LTYPE
  5
15
330
5
100
AcDbSymbolTableRecord
100
AcDbLinetypeTableRecord
  2
ByLayer
 70
     0
  3

 72
    65
 73
     0
 40
0.0
  0
LTYPE
  5
16
330
5
100
AcDbSymbolTableRecord
100
AcDbLinetypeTableRecord
  2
Continuous
 70
     0
  3
Solid line
 72
    65
 73
     0
 40
0.0
  0
LTYPE
  5
6E
330
5
100
AcDbSymbolTableRecord
100
AcDbLinetypeTableRecord
  2
HIDDEN
 70
     0
  3
Hidden __ __ __ __ __ __ __ __ __ __ __ __ __ __
 72
    65
 73
     2
 40
1.905
 49
1.27
 74
     0
 49
-0.635
 74
     0
  0
LTYPE
  5
6F
330
5
100
AcDbSymbolTableRecord
100
AcDbLinetypeTableRecord
  2
PHANTOM
 70
     0
  3
Phantom ______  __  __  ______  __  __  ______
 72
    65
 73
     6
 40
12.7
 49
6.35
 74
     0
 49
-1.27
 74
     0
 49
1.27
 74
     0
 49
-1.27
 74
     0
 49
1.27
 74
     0
 49
-1.27
 74
     0
  0
LTYPE
  5
70
330
5
100
AcDbSymbolTableRecord
100
AcDbLinetypeTableRecord
  2
CENTER
 70
     0
  3
Center ____ _ ____ _ ____ _ ____ _ ____ _ ____
 72
    65
 73
     4
 40
10.16
 49
6.35
 74
     0
 49
-1.27
 74
     0
 49
1.27
 74
     0
 49
-1.27
 74
     0
  0
LTYPE
  5
71
330
5
100
AcDbSymbolTableRecord
100
AcDbLinetypeTableRecord
  2
CENTERX2
 70
     0
  3
Center (2x) ________  __  ________  __  _____
 72
    65
 73
     4
 40
20.32
 49
12.7
 74
     0
 49
-2.54
 74
     0
 49
2.54
 74
     0
 49
-2.54
 74
     0
  0
LTYPE
  5
72
330
5
100
AcDbSymbolTableRecord
100
AcDbLinetypeTableRecord
  2
DOT2
 70
     0
  3
Dot (.5x) ........................................
 72
    65
 73
     2
 40
0.635
 49
0.0
 74
     0
 49
-0.635
 74
     0
  0
ENDTAB
  0
TABLE
  2
LAYER
  5
2
330
0
100
AcDbSymbolTable
 70
     1
  0
LAYER
  5
10
330
2
100
AcDbSymbolTableRecord
100
AcDbLayerTableRecord
  2
0
 70
     0
 62
     7
  6
Continuous
370
    -3
390
F
  0
ENDTAB
  0
TABLE
  2
STYLE
  5
3
330
0
100
AcDbSymbolTable
 70
     1
  0
STYLE
  5
11
330
3
100
AcDbSymbolTableRecord
100
AcDbTextStyleTableRecord
  2
Standard
 70
     0
 40
0.0
 41
1.0
 50
0.0
 71
     0
 42
3.5
  3
txt
  4

  0
ENDTAB
  0
TABLE
  2
VIEW
  5
6
330
0
100
AcDbSymbolTable
 70
     0
  0
ENDTAB
  0
TABLE
  2
UCS
  5
7
330
0
100
AcDbSymbolTable
 70
     0
  0
ENDTAB
  0
TABLE
  2
APPID
  5
9
330
0
100
AcDbSymbolTable
 70
     1
  0
APPID
  5
12
330
9
100
AcDbSymbolTableRecord
100
AcDbRegAppTableRecord
  2
ACAD
 70
     0
  0
ENDTAB
  0
TABLE
  2
DIMSTYLE
  5
A
330
0
100
AcDbSymbolTable
 70
     1
100
AcDbDimStyleTable
  0
DIMSTYLE
105
27
330
A
100
AcDbSymbolTableRecord
100
AcDbDimStyleTableRecord
  2
ISO-25
 70
     0
 41
2.5
 42
0.625
 43
3.75
 44
1.25
 73
     0
 74
     0
 77
     1
 78
     8
140
2.5
141
2.5
143
0.0393700787
147
0.625
171
     3
172
     1
178
     0
271
     2
272
     2
274
     3
278
    44
283
     0
284
     8
340
11
  0
ENDTAB
  0
TABLE
  2
BLOCK_RECORD
  5
1
330
0
100
AcDbSymbolTable
 70
     1
  0
BLOCK_RECORD
  5
1F
330
1
100
AcDbSymbolTableRecord
100
AcDbBlockTableRecord
  2
*Model_Space
340
22
  0
BLOCK_RECORD
  5
1B
330
1
100
AcDbSymbolTableRecord
100
AcDbBlockTableRecord
  2
*Paper_Space
340
1E
  0
BLOCK_RECORD
  5
23
330
1
100
AcDbSymbolTableRecord
100
AcDbBlockTableRecord
  2
*Paper_Space0
340
26
  0
ENDTAB
  0
ENDSEC
  0
SECTION
  2
BLOCKS
  0
BLOCK
  5
20
330
1F
100
AcDbEntity
  8
0
100
AcDbBlockBegin
  2
*Model_Space
 70
     0
 10
0.0
 20
0.0
 30
0.0
  3
*Model_Space
  1

  0
ENDBLK
  5
21
330
1F
100
AcDbEntity
  8
0
100
AcDbBlockEnd
  0
BLOCK
  5
1C
330
1B
100
AcDbEntity
 67
     1
  8
0
100
AcDbBlockBegin
  2
*Paper_Space
 70
     0
 10
0.0
 20
0.0
 30
0.0
  3
*Paper_Space
  1

  0
ENDBLK
  5
1D
330
1B
100
AcDbEntity
 67
     1
  8
0
100
AcDbBlockEnd
  0
BLOCK
  5
24
330
23
100
AcDbEntity
  8
0
100
AcDbBlockBegin
  2
*Paper_Space0
 70
     0
 10
0.0
 20
0.0
 30
0.0
  3
*Paper_Space0
  1

  0
ENDBLK
  5
25
330
23
100
AcDbEntity
  8
0
100
AcDbBlockEnd
  0
ENDSEC
  0
SECTION
  2
ENTITIES
  0
SPLINE
  5
73
330
1F
100
AcDbEntity
  8
0
  6
Continuous
 62
     7
370
    25
100
AcDbSpline
210
0.0
220
0.0
230
1.0
 70
     8
 71
     3
 72
    13
 73
     9
 74
     0
 42
0.00000001
 43
0.00000001
 40
0.0
 40
0.0
 40
0.0
 40
0.0
 40
0.2043560897594255
 40
0.5196686019593428
 40
0.7175798861204266
 40
0.8342453640151453
 40
0.9327178465759757
 40
1.0
 40
1.0
 40
1.0
 40
1.0
 10
603.4542729667069
 20
544.5688370687949
 30
0.0
 10
603.4628214545531
 20
544.6787159076957
 30
0.0
 10
603.4845598854125
 20
544.9581329911981
 30
0.0
 10
603.5045548477285
 20
545.3433266754433
 30
0.0
 10
603.5211408159652
 20
545.7796436297475
 30
0.0
 10
603.5257390328461
 20
546.1848010922628
 30
0.0
 10
603.525039929733
 20
546.5409926580376
 30
0.0
 10
603.51193373897
 20
546.8516358222006
 30
0.0
 10
603.5066137505879
 20
546.9777302804772
 30
0.0
  0
SPLINE
  5
74
330
1F
100
AcDbEntity
  8
0
  6
Continuous
 62
     7
370
    25
100
AcDbSpline
210
0.0
220
0.0
230
1.0
 70
     8
 71
     3
 72
    10
 73
     6
 74
     0
 42
0.00000001
 43
0.00000001
 40
0.0
 40
0.0
 40
0.0
 40
0.0
 40
0.2167658075555202
 40
0.6971868468458294
 40
1.0
 40
1.0
 40
1.0
 40
1.0
 10
574.6714048136923
 20
545.6307463112264
 30
0.0
 10
574.6737068309583
 20
545.576900416796
 30
0.0
 10
574.6811108407381
 20
545.4037151262886
 30
0.0
 10
574.6911211396413
 20
545.2527455852506
 30
0.0
 10
574.6976364508287
 20
545.1635039245641
 30
0.0
 10
574.7001553933666
 20
545.129001410596
 30
0.0
  0
LINE
  5
75
330
1F
100
AcDbEntity
  8
0
  6
Continuous
 62
     7
370
    25
100
AcDbLine
 10
577.6295635068
 20
395.9122427948
 30
0.0
 11
577.6268308916
 21
395.8741398988
 31
0.0
  0
LINE
  5
76
330
1F
100
AcDbEntity
  8
0
  6
Continuous
 62
     7
370
    25
100
AcDbLine
 10
600.5767353875
 20
395.8741364278
 30
0.0
 11
600.574005323
 21
395.9122394155
 31
0.0
  0
SPLINE
  5
77
330
1F
100
AcDbEntity
  8
0
  6
Continuous
 62
     7
370
    25
100
AcDbSpline
210
0.0
220
0.0
230
1.0
 70
     8
 71
     3
 72
    17
 73
    13
 74
     0
 42
0.00000001
 43
0.00000001
 40
0.0
 40
0.0
 40
0.0
 40
0.0
 40
0.1473501379003533
 40
0.4351790142937562
 40
0.5737099291404432
 40
0.628631719710116
 40
0.6631186969848977
 40
0.7112176436736058
 40
0.7775443442119838
 40
0.862473143366449
 40
0.9531192088989736
 40
1.0
 40
1.0
 40
1.0
 40
1.0
 10
481.8842775032948
 20
550.7963289191154
 30
0.0
 10
481.8136927369011
 20
550.7913065227888
 30
0.0
 10
481.6052300269163
 20
550.7764735439127
 30
0.0
 10
481.4175499476183
 20
550.7599208377603
 30
0.0
 10
481.32698956311
 20
550.7492506504145
 30
0.0
 10
481.2680220930033
 20
550.7388837116623
 30
0.0
 10
481.2055460317607
 20
550.7219274378465
 30
0.0
 10
481.1208183420798
 20
550.6862877830404
 30
0.0
 10
481.0156566603795
 20
550.6118897271648
 30
0.0
 10
480.9204966171026
 20
550.487033220422
 30
0.0
 10
480.8662296430329
 20
550.3479669891174
 30
0.0
 10
480.874191133741
 20
550.2590903276113
 30
0.0
 10
480.8769050835242
 20
550.2287936400854
 30
0.0
  0
SPLINE
  5
78
330
1F
100
AcDbEntity
  8
0
  6
Continuous
 62
     7
370
    25
100
AcDbSpline
210
0.0
220
0.0
230
1.0
 70
     8
 71
     3
 72
    17
 73
    13
 74
     0
 42
0.00000001
 43
0.00000001
 40
0.0
 40
0.0
 40
0.0
 40
0.0
 40
0.0754207752543502
 40
0.1921243069942376
 40
0.2889328317560669
 40
0.3711147073169399
 40
0.4384412266478353
 40
0.4880008948671563
 40
0.5308762706500401
 40
0.5907259375503252
 40
0.7262097336834122
 40
1.0
 40
1.0
 40
1.0
 40
1.0
 10
480.8796173163422
 20
544.691717109022
 30
0.0
 10
480.8803645832933
 20
544.6588713930637
 30
0.0
 10
480.8822681456027
 20
544.5752013380301
 30
0.0
 10
480.9422075077768
 20
544.460866724364
 30
0.0
 10
481.0241724662828
 20
544.3629588246322
 30
0.0
 10
481.1099888554504
 20
544.3003278309253
 30
0.0
 10
481.1852221582223
 20
544.2647696876613
 30
0.0
 10
481.2395520148123
 20
544.2476280031805
 30
0.0
 10
481.2771700290216
 20
544.2388271623491
 30
0.0
 10
481.3181929723673
 20
544.2315243165061
 30
0.0
 10
481.3754940385464
 20
544.2237405879806
 30
0.0
 10
481.4663951919484
 20
544.2159948567867
 30
0.0
 10
481.527204936034
 20
544.2108132291171
 30
0.0
  0
LINE
  5
79
330
1F
100
AcDbEntity
  8
0
  6
Continuous
 62
     7
370
    25
100
AcDbLine
 10
485.3675981942
 20
551.0384964475
 30
0.0
 11
481.8842775033
 21
550.7963289191
 31
0.0
  0
LINE
  5
7A
330
1F
100
AcDbEntity
  8
0
  6
Continuous
 62
     7
370
    25
100
AcDbLine
 10
481.8842775033
 20
544.1828548184
 30
0.0
 11
485.3675981942
 21
543.94068729
 31
0.0
  0
ARC
  5
7B
330
1F
100
AcDbEntity
  8
0
  6
Continuous
 62
     7
370
    25
100
AcDbCircle
 10
530.1928040167
 20
550.4614863446
 30
0.0
 40
8.999995138923055
100
AcDbArc
 50
77.1419190681
 51
90.0
  0
ARC
  5
7C
330
1F
100
AcDbEntity
  8
0
  6
Continuous
 62
     7
370
    25
100
AcDbCircle
 10
530.1928040167
 20
550.4614863446
 30
0.0
 40
8.999995138923058
100
AcDbArc
 50
90.0
 51
125.1719294169
  0
SPLINE
  5
7D
330
1F
100
AcDbEntity
  8
0
  6
Continuous
 62
     7
370
    25
100
AcDbSpline
210
0.0
220
0.0
230
1.0
 70
     8
 71
     3
 72
    17
 73
    13
 74
     0
 42
0.00000001
 43
0.00000001
 40
0.0
 40
0.0
 40
0.0
 40
0.0
 40
0.0754207752543432
 40
0.1921243069942277
 40
0.2889328317560668
 40
0.3711147073169329
 40
0.4384412266478294
 40
0.488000894867151
 40
0.5308762706500354
 40
0.5907259375503259
 40
0.7262097336834185
 40
1.0
 40
1.0
 40
1.0
 40
1.0
 10
697.3240211275938
 20
550.5328879173458
 30
0.0
 10
697.3232738606428
 20
550.565733633304
 30
0.0
 10
697.3213702983332
 20
550.6494036883375
 30
0.0
 10
697.2614309361592
 20
550.7637383020037
 30
0.0
 10
697.1794659776532
 20
550.8616462017357
 30
0.0
 10
697.0936495884857
 20
550.9242771954424
 30
0.0
 10
697.0184162857138
 20
550.9598353387064
 30
0.0
 10
696.9640864291239
 20
550.9769770231873
 30
0.0
 10
696.9264684149143
 20
550.9857778640185
 30
0.0
 10
696.8854454715687
 20
550.9930807098616
 30
0.0
 10
696.8281444053896
 20
551.0008644383871
 30
0.0
 10
696.7372432519876
 20
551.0086101695811
 30
0.0
 10
696.6764335079021
 20
551.0137917972506
 30
0.0
  0
SPLINE
  5
7E
330
1F
100
AcDbEntity
  8
0
  6
Continuous
 62
     7
370
    25
100
AcDbSpline
210
0.0
220
0.0
230
1.0
 70
     8
 71
     3
 72
    17
 73
    13
 74
     0
 42
0.00000001
 43
0.00000001
 40
0.0
 40
0.0
 40
0.0
 40
0.0
 40
0.1473501379003564
 40
0.4351790142937553
 40
0.5737099291404404
 40
0.6286317197101091
 40
0.6631186969848953
 40
0.7112176436735965
 40
0.7775443442119736
 40
0.8624731433664484
 40
0.953119208898974
 40
1.0
 40
1.0
 40
1.0
 40
1.0
 10
696.3193609406412
 20
544.4282761072523
 30
0.0
 10
696.3899457070348
 20
544.4332985035791
 30
0.0
 10
696.5984084170196
 20
544.448131482455
 30
0.0
 10
696.7860884963177
 20
544.4646841886074
 30
0.0
 10
696.876648880826
 20
544.4753543759533
 30
0.0
 10
696.9356163509328
 20
544.4857213147054
 30
0.0
 10
696.9980924121752
 20
544.5026775885211
 30
0.0
 10
697.0828201018563
 20
544.5383172433274
 30
0.0
 10
697.1879817835564
 20
544.6127152992028
 30
0.0
 10
697.2831418268335
 20
544.7375718059459
 30
0.0
 10
697.3374088009032
 20
544.8766380372504
 30
0.0
 10
697.3294473101951
 20
544.9655146987566
 30
0.0
 10
697.3267333604118
 20
544.9958113862823
 30
0.0
  0
LINE
  5
7F
330
1F
100
AcDbEntity
  8
0
  6
Continuous
 62
     7
370
    25
100
AcDbLine
 10
696.3193609406
 20
551.0417502079
 30
0.0
 11
692.8360402498
 21
551.2839177363
 31
0.0
  0
LINE
  5
80
330
1F
100
AcDbEntity
  8
0
  6
Continuous
 62
     7
370
    25
100
AcDbLine
 10
692.8360402498
 20
544.1861085789
 30
0.0
 11
696.3193609406
 21
544.4282761073
 31
0.0
  0
ARC
  5
81
330
1F
100
AcDbEntity
  8
0
  6
Continuous
 62
     7
370
    25
100
AcDbCircle
 10
648.0108344272
 20
544.7631186818
 30
0.0
 40
8.999995138922902
100
AcDbArc
 50
257.1419190681
 51
270.0
  0
ARC
  5
82
330
1F
100
AcDbEntity
  8
0
  6
Continuous
 62
     7
370
    25
100
AcDbCircle
 10
648.0108344272
 20
544.7631186818
 30
0.0
 40
8.999995138922966
100
AcDbArc
 50
270.0
 51
305.1719294169
  0
SPLINE
  5
83
330
1F
100
AcDbEntity
  8
0
  6
Continuous
 62
     7
370
    25
100
AcDbSpline
210
0.0
220
0.0
230
1.0
 70
     8
 71
     3
 72
    17
 73
    13
 74
     0
 42
0.00000001
 43
0.00000001
 40
0.0
 40
0.0
 40
0.0
 40
0.0
 40
0.1317928148970277
 40
0.2988511693754469
 40
0.4542290727045589
 40
0.5960167317233466
 40
0.7212342829217073
 40
0.8238897546760159
 40
0.895512803232032
 40
0.9467883833106454
 40
0.9865103025129025
 40
1.0
 40
1.0
 40
1.0
 40
1.0
 10
623.9146180596288
 20
535.4825927755205
 30
0.0
 10
624.1506365330986
 20
535.4807902084044
 30
0.0
 10
624.6858280520423
 20
535.4767027375436
 30
0.0
 10
625.4914726575525
 20
535.3494356849418
 30
0.0
 10
626.2968815711043
 20
535.1433566514014
 30
0.0
 10
627.0065513776669
 20
534.8812433285483
 30
0.0
 10
627.6042186097435
 20
534.5979431269209
 30
0.0
 10
628.0659910597273
 20
534.3342312139445
 30
0.0
 10
628.3960217012849
 20
534.1191122552508
 30
0.0
 10
628.592819087439
 20
533.9796498299414
 30
0.0
 10
628.6853060594435
 20
533.9110903974182
 30
0.0
 10
628.710510239162
 20
533.8918394355426
 30
0.0
 10
628.7168997604915
 20
533.8869591167664
 30
0.0
  0
SPLINE
  5
84
330
1F
100
AcDbEntity
  8
0
  6
Continuous
 62
     7
370
    25
100
AcDbSpline
210
0.0
220
0.0
230
1.0
 70
     8
 71
     3
 72
    16
 73
    12
 74
     0
 42
0.00000001
 43
0.00000001
 40
0.0
 40
0.0
 40
0.0
 40
0.0
 40
0.0481852335014409
 40
0.0920642463287942
 40
0.1287300175467551
 40
0.1926907495987171
 40
0.2794415876077956
 40
0.4841113319931978
 40
0.6463306320789823
 40
0.848880584477592
 40
1.0
 40
1.0
 40
1.0
 40
1.0
 10
628.6938974701465
 20
561.0702155822758
 30
0.0
 10
628.6855313864651
 20
561.0638236568916
 30
0.0
 10
628.6695468797423
 20
561.0516110400725
 30
0.0
 10
628.5857560347486
 20
560.9901378353727
 30
0.0
 10
628.4240670034839
 20
560.8758941067555
 30
0.0
 10
628.1369639914984
 20
560.6861224577463
 30
0.0
 10
627.5711191673565
 20
560.3547894416365
 30
0.0
 10
626.7981397462256
 20
560.0003660936366
 30
0.0
 10
625.7840060536374
 20
559.6890686264696
 30
0.0
 10
624.8342232797652
 20
559.5125881832649
 30
0.0
 10
624.1750323711072
 20
559.5018578648396
 30
0.0
 10
623.8933666294016
 20
559.4972729061301
 30
0.0
  0
SPLINE
  5
85
330
1F
100
AcDbEntity
  8
0
  6
Continuous
 62
     7
370
    25
100
AcDbSpline
210
0.0
220
0.0
230
1.0
 70
     8
 71
     3
 72
    15
 73
    11
 74
     0
 42
0.00000001
 43
0.00000001
 40
0.0
 40
0.0
 40
0.0
 40
0.0
 40
0.0536059275431777
 40
0.1102215800847495
 40
0.1959423724613813
 40
0.318292774462641
 40
0.5364660336450526
 40
0.745241837082472
 40
0.9386316898554408
 40
1.0
 40
1.0
 40
1.0
 40
1.0
 10
549.4867963989353
 20
533.8869040873747
 30
0.0
 10
549.5217048734302
 20
533.9132761766265
 30
0.0
 10
549.5934817718727
 20
533.9675010260169
 30
0.0
 10
549.8457231560745
 20
534.1458389455306
 30
0.0
 10
550.2355639898561
 20
534.395007015254
 30
0.0
 10
550.9031417374457
 20
534.758679802432
 30
0.0
 10
551.8164173811995
 20
535.1309709800629
 30
0.0
 10
552.8965046245522
 20
535.3883921092417
 30
0.0
 10
553.7231201735358
 20
535.5002191351273
 30
0.0
 10
554.1785479005813
 20
535.4824777670098
 30
0.0
 10
554.288255199777
 20
535.4782040755663
 30
0.0
  0
SPLINE
  5
86
330
1F
100
AcDbEntity
  8
0
  6
Continuous
 62
     7
370
    25
100
AcDbSpline
210
0.0
220
0.0
230
1.0
 70
     8
 71
     3
 72
    15
 73
    11
 74
     0
 42
0.00000001
 43
0.00000001
 40
0.0
 40
0.0
 40
0.0
 40
0.0
 40
0.039117973188212
 40
0.234542882905173
 40
0.4172187420018616
 40
0.5852905000452504
 40
0.7361717518030473
 40
0.8660624918188462
 40
0.9675451904180551
 40
0.9999999999999999
 40
0.9999999999999999
 40
0.9999999999999999
 40
0.9999999999999999
 10
554.3326711536419
 20
559.4986308688923
 30
0.0
 10
554.2715483126256
 20
559.4953969598811
 30
0.0
 10
553.9050690148786
 20
559.476007142855
 30
0.0
 10
553.2522574662431
 20
559.5451937581524
 30
0.0
 10
552.4110414963308
 20
559.6955728983121
 30
0.0
 10
551.65785050889
 20
559.9202752325067
 30
0.0
 10
551.0044909561424
 20
560.1818174630276
 30
0.0
 10
550.4730302949249
 20
560.4485040038629
 30
0.0
 10
550.1115550636213
 20
560.6587216922956
 30
0.0
 10
549.9479124962965
 20
560.7668401964751
 30
0.0
 10
549.9082597624645
 20
560.7930387237814
 30
0.0
  0
LINE
  5
87
330
1F
100
AcDbEntity
  8
0
  6
Continuous
 62
     7
370
    25
100
AcDbLine
 10
581.2273976386
 20
559.4895918688
 30
0.0
 11
554.3334070176
 21
559.4895918688
 31
0.0
  0
LINE
  5
88
330
1F
100
AcDbEntity
  8
0
  6
Continuous
 62
     7
370
    25
100
AcDbLine
 10
623.8929692721
 20
559.4895918688
 30
0.0
 11
596.8863587663
 21
559.4895918688
 31
0.0
  0
LINE
  5
89
330
1F
100
AcDbEntity
  8
0
  6
Continuous
 62
     7
370
    25
100
AcDbLine
 10
602.4298266541
 20
535.4895918688
 30
0.0
 11
623.9218317376
 21
535.4895918688
 31
0.0
  0
LINE
  5
8A
330
1F
100
AcDbEntity
  8
0
  6
Continuous
 62
     7
370
    25
100
AcDbLine
 10
554.2818067063
 20
535.4895918688
 30
0.0
 11
575.7738117898
 21
535.4895918688
 31
0.0
  0
SPLINE
  5
8B
330
1F
100
AcDbEntity
  8
0
  6
Continuous
 62
     7
370
    25
100
AcDbSpline
210
0.0
220
0.0
230
1.0
 70
     8
 71
     3
 72
    13
 73
     9
 74
     0
 42
0.00000001
 43
0.00000001
 40
0.0
 40
0.0
 40
0.0
 40
0.0
 40
0.167496538880593
 40
0.3349957006346764
 40
0.5032497132695324
 40
0.6715037200202241
 40
0.8356574437189662
 40
1.0
 40
1.0
 40
1.0
 40
1.0
 10
602.7459702507298
 20
538.4355779725967
 30
0.0
 10
601.9538165919611
 20
530.9629758520538
 30
0.0
 10
600.369496869876
 20
516.0176545954754
 30
0.0
 10
598.9017076356272
 20
493.4843456849229
 30
0.0
 10
598.1007128756287
 20
470.8883405991687
 30
0.0
 10
598.0527363502704
 20
448.4321360251902
 30
0.0
 10
598.6582417853215
 20
426.1603328606059
 30
0.0
 10
599.6420833396464
 20
411.4741057394141
 30
0.0
 10
600.1342868922201
 20
404.126771068321
 30
0.0
  0
ARC
  5
8C
330
1F
100
AcDbEntity
  8
0
  6
Continuous
 62
     7
370
    25
100
AcDbCircle
 10
598.0484044443
 20
411.0418063197
 30
0.0
 40
7.222784650939445
100
AcDbArc
 50
271.4178625931
 51
286.7856488342
  0
SPLINE
  5
8D
330
1F
100
AcDbEntity
  8
0
  6
Continuous
 62
     7
370
    25
100
AcDbSpline
210
0.0
220
0.0
230
1.0
 70
     8
 71
     3
 72
    14
 73
    10
 74
     0
 42
0.00000001
 43
0.00000001
 40
0.0
 40
0.0
 40
0.0
 40
0.0
 40
0.0820878616453679
 40
0.16417681415315
 40
0.3286164111368019
 40
0.4960181975808404
 40
0.6634214927674342
 40
0.8317117495439121
 40
1.0
 40
1.0
 40
1.0
 40
1.0
 10
598.2271239078497
 20
403.821233110609
 30
0.0
 10
597.9156029926912
 20
407.5014101353661
 30
0.0
 10
597.2925570225846
 20
414.8618130906104
 30
0.0
 10
596.3878878172055
 20
429.6311807768138
 30
0.0
 10
595.7315241258534
 20
448.2680856479316
 30
0.0
 10
595.7516093691075
 20
470.7666705481547
 30
0.0
 10
596.5848001241396
 20
493.4253610172386
 30
0.0
 10
598.1549214557655
 20
516.0910137705105
 30
0.0
 10
599.8592478225246
 20
531.1648466499206
 30
0.0
 10
600.7114059262204
 20
538.7017181626062
 30
0.0
  0
ARC
  5
8E
330
1F
100
AcDbEntity
  8
0
  6
Continuous
 62
     7
370
    25
100
AcDbCircle
 10
596.477638273
 20
498.4258999155
 30
0.0
 40
40.49773233178593
100
AcDbArc
 50
81.0958296646
 51
83.9991437087
  0
LINE
  5
8F
330
1F
100
AcDbEntity
  8
0
  6
Continuous
 62
     7
370
    25
100
AcDbLine
 10
602.7390869785
 20
538.217783737
 30
0.0
 11
602.7459702507
 21
538.4355779726
 31
0.0
  0
ELLIPSE
  5
90
330
1F
100
AcDbEntity
  8
0
  6
Continuous
 62
     7
370
    25
100
AcDbEllipse
 10
1303.101819222
 20
457.4869975574
 30
0.0
 11
-2.046363078989089E-11
 21
-705.0225305360213
 31
-7.531752999057063E-13
210
-3.100792954068654E-29
220
-1.068299617791044E-15
230
1.0
 40
0.9999680428
 41
4.597629157922761
 42
4.601394429271432
  0
ELLIPSE
  5
91
330
1F
100
AcDbEntity
  8
0
  6
Continuous
 62
     7
370
    25
100
AcDbEllipse
 10
1303.101819222
 20
458.8835099518
 30
0.0
 11
704.9999999999998
 21
6.128288987383712E-10
 31
0.0
210
0.0
220
0.0
230
1.0
 40
0.9821487217
 41
3.030598102475607
 42
3.033431865790342
  0
LWPOLYLINE
  5
92
330
1F
100
AcDbEntity
  8
0
  6
Continuous
 62
     7
370
    25
100
AcDbPolyline
 90
        9
 70
   128
 43
0.0
 10
603.3991205877
 20
545.0661212491
 10
603.3633627559
 20
545.0693271907
 10
603.2573723673
 20
545.0782650874
 10
603.0836691507
 20
545.0927224567
 10
602.846382584
 20
545.1123556011
 10
602.5511537236
 20
545.1366977783
 10
602.2050010986
 20
545.1651702972
 10
601.8161538579
 20
545.1970962757
 10
601.3938561372
 20
545.2317167315
  0
SPLINE
  5
93
330
1F
100
AcDbEntity
  8
0
  6
Continuous
 62
     7
370
    25
100
AcDbSpline
210
0.0
220
0.0
230
1.0
 70
     8
 71
     3
 72
    16
 73
    12
 74
     0
 42
0.00000001
 43
0.00000001
 40
0.0
 40
0.0
 40
0.0
 40
0.0
 40
0.1011114183972974
 40
0.2058198974052868
 40
0.3085551739473933
 40
0.4143883541457384
 40
0.5236167436258542
 40
0.635882817114656
 40
0.7506471644410554
 40
0.8687206501406435
 40
1.0
 40
1.0
 40
1.0
 40
1.0
 10
601.3938561372148
 20
545.2317167314893
 30
0.0
 10
601.4164506916665
 20
545.8777765670721
 30
0.0
 10
601.4624436067385
 20
547.1928799568285
 30
0.0
 10
601.0911398975551
 20
549.1342543429074
 30
0.0
 10
600.4085474739018
 20
550.9994230977553
 30
0.0
 10
599.4060597676456
 20
552.7384730736585
 30
0.0
 10
598.0945806436592
 20
554.3272200621534
 30
0.0
 10
596.4935018840641
 20
555.715865480302
 30
0.0
 10
594.6303805799296
 20
556.8492043006066
 30
0.0
 10
592.485385019032
 20
557.7392110032738
 30
0.0
 10
590.9160112399886
 20
558.0128107855247
 30
0.0
 10
590.0897668985625
 20
558.1568556745873
 30
0.0
  0
ARC
  5
94
330
1F
100
AcDbEntity
  8
0
  6
Continuous
 62
     7
370
    25
100
AcDbCircle
 10
563.6694731826
 20
562.4207857549
 30
0.0
 40
26.76215648574404
100
AcDbArc
 50
350.8321736664
 51
357.3810719072
  0
SPLINE
  5
95
330
1F
100
AcDbEntity
  8
0
  6
Continuous
 62
     7
370
    25
100
AcDbSpline
210
0.0
220
0.0
230
1.0
 70
     8
 71
     3
 72
    16
 73
    12
 74
     0
 42
0.00000001
 43
0.00000001
 40
0.0
 40
0.0
 40
0.0
 40
0.0
 40
0.1265652235786989
 40
0.2399180908748048
 40
0.3532935642782803
 40
0.4634120317902187
 40
0.5735332456088027
 40
0.6798831241162325
 40
0.7862170680527379
 40
0.8931143231863432
 40
1.0
 40
1.0
 40
1.0
 40
1.0
 10
590.4036773793237
 20
561.197942455364
 30
0.0
 10
591.3576502806561
 20
561.0180707331971
 30
0.0
 10
593.1660092497506
 20
560.6771044000731
 30
0.0
 10
595.6380004581877
 20
559.5632532390711
 30
0.0
 10
597.7837818966455
 20
558.1557369324132
 30
0.0
 10
599.6300686791276
 20
556.4129866602399
 30
0.0
 10
601.1356823205307
 20
554.4379297647836
 30
0.0
 10
602.2835571968201
 20
552.2614799330591
 30
0.0
 10
603.0619104544498
 20
549.9484611901006
 30
0.0
 10
603.4806445944445
 20
547.5231564703988
 30
0.0
 10
603.4262942754445
 20
545.8851034176226
 30
0.0
 10
603.3991205877305
 20
545.0661212490844
 30
0.0
  0
LWPOLYLINE
  5
96
330
1F
100
AcDbEntity
  8
0
  6
Continuous
 62
     7
370
    25
100
AcDbPolyline
 90
        9
 70
   128
 43
0.0
 10
576.8097823067
 20
545.2317167315
 10
576.3874845861
 20
545.1970962757
 10
575.9986373453
 20
545.1651702972
 10
575.6524847203
 20
545.1366977783
 10
575.3572558599
 20
545.1123556011
 10
575.1199692932
 20
545.0927224567
 10
574.9462660766
 20
545.0782650874
 10
574.840275688
 20
545.0693271908
 10
574.8045178562
 20
545.0661212491
  0
SPLINE
  5
97
330
1F
100
AcDbEntity
  8
0
  6
Continuous
 62
     7
370
    25
100
AcDbSpline
210
0.0
220
0.0
230
1.0
 70
     8
 71
     3
 72
    16
 73
    12
 74
     0
 42
0.00000001
 43
0.00000001
 40
0.0
 40
0.0
 40
0.0
 40
0.0
 40
0.1053590165756655
 40
0.2137857859545509
 40
0.3187137499916416
 40
0.4264694089216682
 40
0.5350817333641125
 40
0.6467087676178402
 40
0.7583511234424992
 40
0.8734401572121758
 40
1.0
 40
1.0
 40
1.0
 40
1.0
 10
574.804517856203
 20
545.0661212490843
 30
0.0
 10
574.77642911321
 20
545.8734143247473
 30
0.0
 10
574.7194337634772
 20
547.5115065382629
 30
0.0
 10
575.1373551684753
 20
549.9264526708781
 30
0.0
 10
575.9135657314393
 20
552.2524315631548
 30
0.0
 10
577.0571825727028
 20
554.4186252783825
 30
0.0
 10
578.5638024575044
 20
556.4059887609366
 30
0.0
 10
580.4016131630949
 20
558.1393446241029
 30
0.0
 10
582.5521313880207
 20
559.5593882160732
 30
0.0
 10
585.0249812592997
 20
560.6737566038526
 30
0.0
 10
586.8461514738887
 20
561.0177705162617
 30
0.0
 10
587.7999610646126
 20
561.1979424553645
 30
0.0
  0
ARC
  5
98
330
1F
100
AcDbEntity
  8
0
  6
Continuous
 62
     7
370
    25
100
AcDbCircle
 10
614.5341652601
 20
562.4207857547
 30
0.0
 40
26.76215648448314
100
AcDbArc
 50
182.6189280927
 51
189.1678263338
  0
SPLINE
  5
99
330
1F
100
AcDbEntity
  8
0
  6
Continuous
 62
     7
370
    25
100
AcDbSpline
210
0.0
220
0.0
230
1.0
 70
     8
 71
     3
 72
    16
 73
    12
 74
     0
 42
0.00000001
 43
0.00000001
 40
0.0
 40
0.0
 40
0.0
 40
0.0
 40
0.1312858888381212
 40
0.2477037353016334
 40
0.3641242697899623
 40
0.4748881263150849
 40
0.5856211994970285
 40
0.6899344443378583
 40
0.7941891369142512
 40
0.8971121747277486
 40
1.0
 40
1.0
 40
1.0
 40
1.0
 10
588.1138715453733
 20
558.1568556745875
 30
0.0
 10
587.287507300769
 20
558.0130309596982
 30
0.0
 10
585.7283640301576
 20
557.7416695862707
 30
0.0
 10
583.5840060413647
 20
556.8521120594507
 30
0.0
 10
581.7254225183267
 20
555.728391073652
 30
0.0
 10
580.1173265842144
 20
554.3327557341528
 30
0.0
 10
578.8074959224748
 20
552.7546236289141
 30
0.0
 10
577.8013732096193
 20
551.0072812623818
 30
0.0
 10
577.1169744418148
 20
549.1547545042301
 30
0.0
 10
576.7453018574139
 20
547.2041203054067
 30
0.0
 10
576.7882912753284
 20
545.8891095936332
 30
0.0
 10
576.8097823067184
 20
545.23171673149
 30
0.0
  0
SPLINE
  5
9A
330
1F
100
AcDbEntity
  8
0
  6
Continuous
 62
     7
370
    25
100
AcDbSpline
210
0.0
220
0.0
230
1.0
 70
     8
 71
     3
 72
     9
 73
     5
 74
     0
 42
0.00000001
 43
0.00000001
 40
0.0
 40
0.0
 40
0.0
 40
0.0
 40
0.0585870904816303
 40
1.0
 40
1.0
 40
1.0
 40
1.0
 10
588.1138715453733
 20
558.1568556745875
 30
0.0
 10
588.1522043266153
 20
558.161375307239
 30
0.0
 10
588.8064914899961
 20
558.2385191390007
 30
0.0
 10
589.467492249945
 20
558.1964552050416
 30
0.0
 10
590.0897668985625
 20
558.1568556745873
 30
0.0
  0
LINE
  5
9B
330
1F
100
AcDbEntity
  8
0
  6
Continuous
 62
     7
370
    25
100
AcDbLine
 10
590.4036773793
 20
561.1979424554
 30
0.0
 11
587.7999610646
 21
561.1979424554
 31
0.0
  0
SPLINE
  5
9C
330
1F
100
AcDbEntity
  8
0
  6
Continuous
 62
     7
370
    25
100
AcDbSpline
210
0.0
220
0.0
230
1.0
 70
     8
 71
     3
 72
    16
 73
    12
 74
     0
 42
0.00000001
 43
0.00000001
 40
0.0
 40
0.0
 40
0.0
 40
0.0
 40
0.1006127915714309
 40
0.2012779882456505
 40
0.3042275840546246
 40
0.4072703879618032
 40
0.5202290237223941
 40
0.6332426808756452
 40
0.7558084970832557
 40
0.8783789753080344
 40
1.0
 40
1.0
 40
1.0
 40
1.0
 10
579.3476971065473
 20
393.3844553406806
 30
0.0
 10
579.359464119282
 20
392.9124335665106
 30
0.0
 10
579.383004273709
 20
391.9681441612652
 30
0.0
 10
579.7396610056503
 20
390.5806073019115
 30
0.0
 10
580.3222545966403
 20
389.2783577302213
 30
0.0
 10
581.1420564287968
 20
388.0527758206838
 30
0.0
 10
582.1842106065332
 20
386.954379745705
 30
0.0
 10
583.4613264321508
 20
385.9827962706728
 30
0.0
 10
584.9282461188934
 20
385.2130087545523
 30
0.0
 10
586.5455866201245
 20
384.6495429459519
 30
0.0
 10
587.678202400724
 20
384.4914846765722
 30
0.0
 10
588.2423084002097
 20
384.4127628191227
 30
0.0
  0
LINE
  5
9D
330
1F
100
AcDbEntity
  8
0
  6
Continuous
 62
     7
370
    25
100
AcDbLine
 10
579.9765145361
 20
403.8212331106
 30
0.0
 11
579.3476971065
 21
393.3844553407
 31
0.0
  0
SPLINE
  5
9E
330
1F
100
AcDbEntity
  8
0
  6
Continuous
 62
     7
370
    25
100
AcDbSpline
210
0.0
220
0.0
230
1.0
 70
     8
 71
     3
 72
    15
 73
    11
 74
     0
 42
0.00000001
 43
0.00000001
 40
0.0
 40
0.0
 40
0.0
 40
0.0
 40
0.1228706801416188
 40
0.2457421073061568
 40
0.368963376726601
 40
0.4921845652253977
 40
0.6189240972439431
 40
0.745662684214279
 40
0.8728336965048739
 40
1.0
 40
1.0
 40
1.0
 40
1.0
 10
577.4922325177147
 20
538.7017181625915
 30
0.0
 10
578.1289473980596
 20
533.2008217609947
 30
0.0
 10
579.4023810298163
 20
522.1989955137308
 30
0.0
 10
580.7912641242596
 20
505.6256858511636
 30
0.0
 10
581.7909492978259
 20
489.0108040288017
 30
0.0
 10
582.3619210340744
 20
472.2022623923431
 30
0.0
 10
582.4955105141789
 20
455.2275086751666
 30
0.0
 10
582.1549028119431
 20
438.0817000351993
 30
0.0
 10
581.3742656671786
 20
420.9321618382039
 30
0.0
 10
580.4424258290952
 20
409.5248056213022
 30
0.0
 10
579.9765145360847
 20
403.8212331106224
 30
0.0
  0
LINE
  5
9F
330
1F
100
AcDbEntity
  8
0
  6
Continuous
 62
     7
370
    25
100
AcDbLine
 10
576.8097823067
 20
545.2317167315
 30
0.0
 11
577.4922325177
 21
538.7017181626
 31
0.0
  0
LINE
  5
A0
330
1F
100
AcDbEntity
  8
0
  6
Continuous
 62
     7
370
    25
100
AcDbLine
 10
600.7114059262
 20
538.7017181626
 30
0.0
 11
601.3938561372
 21
545.2317167315
 31
0.0
  0
LINE
  5
A1
330
1F
100
AcDbEntity
  8
0
  6
Continuous
 62
     7
370
    25
100
AcDbLine
 10
598.8559413374
 20
393.3844553407
 30
0.0
 11
598.2271239078
 21
403.8212331106
 31
0.0
  0
SPLINE
  5
A2
330
1F
100
AcDbEntity
  8
0
  6
Continuous
 62
     7
370
    25
100
AcDbSpline
210
0.0
220
0.0
230
1.0
 70
     8
 71
     3
 72
    16
 73
    12
 74
     0
 42
0.00000001
 43
0.00000001
 40
0.0
 40
0.0
 40
0.0
 40
0.0
 40
0.1216210246919496
 40
0.2441915029167302
 40
0.3667573191243442
 40
0.4797709762775905
 40
0.5927296120381758
 40
0.6957724159453555
 40
0.7987220117543322
 40
0.8993872084285616
 40
1.0
 40
1.0
 40
1.0
 40
1.0
 10
589.9613300437235
 20
384.4127628191227
 30
0.0
 10
590.5254360432093
 20
384.4914846765721
 30
0.0
 10
591.6580518238086
 20
384.6495429459519
 30
0.0
 10
593.2753923250398
 20
385.2130087545522
 30
0.0
 10
594.7423120117822
 20
385.9827962706728
 30
0.0
 10
596.0194278373999
 20
386.9543797457049
 30
0.0
 10
597.0615820151363
 20
388.0527758206836
 30
0.0
 10
597.8813838472928
 20
389.278357730221
 30
0.0
 10
598.4639774382829
 20
390.5806073019112
 30
0.0
 10
598.8206341702243
 20
391.9681441612651
 30
0.0
 10
598.8441743246512
 20
392.9124335665105
 30
0.0
 10
598.855941337386
 20
393.3844553406805
 30
0.0
  0
LINE
  5
A3
330
1F
100
AcDbEntity
  8
0
  6
Continuous
 62
     7
370
    25
100
AcDbLine
 10
589.9613300437
 20
384.4127628191
 30
0.0
 11
588.2423084002
 21
384.4127628191
 31
0.0
  0
ARC
  5
A4
330
1F
100
AcDbEntity
  8
0
  6
Continuous
 62
     7
370
    25
100
AcDbCircle
 10
580.155234
 20
411.0418063223
 30
0.0
 40
7.222784653531629
100
AcDbArc
 50
253.2143511689
 51
268.5821374044
  0
SPLINE
  5
A5
330
1F
100
AcDbEntity
  8
0
  6
Continuous
 62
     7
370
    25
100
AcDbSpline
210
0.0
220
0.0
230
1.0
 70
     8
 71
     3
 72
    15
 73
    11
 74
     0
 42
0.00000001
 43
0.00000001
 40
0.0
 40
0.0
 40
0.0
 40
0.0
 40
0.1267660483230548
 40
0.2535350382149457
 40
0.3806484971794478
 40
0.5077622670030952
 40
0.6306734929835315
 40
0.7535844718700745
 40
0.8767926958342646
 40
1.0
 40
1.0
 40
1.0
 40
1.0
 10
578.0693515517137
 20
404.1267710683238
 30
0.0
 10
578.4606067641239
 20
409.7927489746581
 30
0.0
 10
579.2431262679064
 20
421.1248362646763
 30
0.0
 10
579.8974172223806
 20
438.1812755447037
 30
0.0
 10
580.1682759710752
 20
455.2650995952862
 30
0.0
 10
580.0181361478303
 20
472.1808638338684
 30
0.0
 10
579.4745941580551
 20
488.9013934915633
 30
0.0
 10
578.5409640791694
 20
505.4302527638314
 30
0.0
 10
577.2459482808281
 20
521.9502921665265
 30
0.0
 10
576.0537600723798
 20
532.9404963783352
 30
0.0
 10
575.4576681932039
 20
538.4355779726002
 30
0.0
  0
ARC
  5
A6
330
1F
100
AcDbEntity
  8
0
  6
Continuous
 62
     7
370
    25
100
AcDbCircle
 10
581.726000171
 20
498.4258999119
 30
0.0
 40
40.49773233537795
100
AcDbArc
 50
96.0008562909
 51
98.9041703348
  0
ELLIPSE
  5
A7
330
1F
100
AcDbEntity
  8
0
  6
Continuous
 62
     7
370
    25
100
AcDbEllipse
 10
-124.898180778
 20
458.8835099518
 30
0.0
 11
704.9999999999998
 21
6.128288987383712E-10
 31
0.0
210
0.0
220
0.0
230
1.0
 40
0.9821487217
 41
0.108160787797681
 42
0.1109945511124162
  0
ELLIPSE
  5
A8
330
1F
100
AcDbEntity
  8
0
  6
Continuous
 62
     7
370
    25
100
AcDbEllipse
 10
-124.898180778
 20
457.4869975574
 30
0.0
 11
-2.030731138802366E-11
 21
-705.0225305360212
 31
-7.531752999057063E-13
210
-3.077106341225075E-29
220
-1.068299617791044E-15
230
1.0
 40
0.9999680428
 41
1.681790877908227
 42
1.685556149256898
  0
LINE
  5
A9
330
1F
100
AcDbEntity
  8
0
  6
Continuous
 62
     7
370
    25
100
AcDbLine
 10
575.4576681932
 20
538.4355779726
 30
0.0
 11
575.4645514654
 21
538.217783737
 31
0.0
  0
LINE
  5
AA
330
1F
100
AcDbEntity
  8
0
  6
Continuous
 62
     7
370
    25
100
AcDbLine
 10
575.4576681932
 20
538.4355779726
 30
0.0
 11
574.8045178562
 21
545.0661212491
 31
0.0
  0
LINE
  5
AB
330
1F
100
AcDbEntity
  8
0
  6
Continuous
 62
     7
370
    25
100
AcDbLine
 10
603.3991205877
 20
545.0661212491
 30
0.0
 11
602.7459702507
 21
538.4355779726
 31
0.0
  0
SPLINE
  5
AC
330
1F
100
AcDbEntity
  8
0
  6
Continuous
 62
     7
370
    25
100
AcDbSpline
210
0.0
220
0.0
230
1.0
 70
     8
 71
     3
 72
    10
 73
     6
 74
     0
 42
0.00000001
 43
0.00000001
 40
0.0
 40
0.0
 40
0.0
 40
0.0
 40
0.0795803045987217
 40
0.6668164222124419
 40
0.9999999999999999
 40
0.9999999999999999
 40
0.9999999999999999
 40
0.9999999999999999
 10
603.2374164173011
 20
543.0580786752836
 30
0.0
 10
603.2412799977157
 20
543.1025323274108
 30
0.0
 10
603.2736535715782
 20
543.4750167683183
 30
0.0
 10
603.3155351261498
 20
543.9750506590059
 30
0.0
 10
603.3386821730987
 20
544.2694599808029
 30
0.0
 10
603.3470611940563
 20
544.3760334838041
 30
0.0
  0
SPLINE
  5
AD
330
1F
100
AcDbEntity
  8
0
  6
Continuous
 62
     7
370
    25
100
AcDbSpline
210
0.0
220
0.0
230
1.0
 70
     8
 71
     3
 72
    10
 73
     6
 74
     0
 42
0.00000001
 43
0.00000001
 40
0.0
 40
0.0
 40
0.0
 40
0.0
 40
0.3900443299658491
 40
0.6946968762803882
 40
0.9999999999999999
 40
0.9999999999999999
 40
0.9999999999999999
 40
0.9999999999999999
 10
574.804517856203
 20
545.0661212490843
 30
0.0
 10
574.8122981460886
 20
544.9546052290153
 30
0.0
 10
574.8261553993924
 20
544.755987213458
 30
0.0
 10
574.8822819544115
 20
544.0405849731775
 30
0.0
 10
574.9382221140078
 20
543.3858135671724
 30
0.0
 10
574.966222026633
 20
543.0580786752837
 30
0.0
  0
ARC
  5
AE
330
1F
100
AcDbEntity
  8
0
  6
Continuous
 62
     7
370
    25
100
AcDbCircle
 10
598.9751082166
 20
402.9226450408
 30
0.0
 40
9.53893408622976
100
AcDbArc
 50
269.2842033724
 51
280.1624419627
  0
SPLINE
  5
AF
330
1F
100
AcDbEntity
  8
0
  6
Continuous
 62
     7
370
    25
100
AcDbSpline
210
0.0
220
0.0
230
1.0
 70
     8
 71
     3
 72
    16
 73
    12
 74
     0
 42
0.00000001
 43
0.00000001
 40
0.0
 40
0.0
 40
0.0
 40
0.0
 40
0.1058643960867462
 40
0.214775439841456
 40
0.319897863094103
 40
0.4277539704701143
 40
0.5381064023917365
 40
0.6514531937745107
 40
0.7667225498638877
 40
0.885641290327692
 40
1.0
 40
1.0
 40
1.0
 40
1.0
 10
600.6581534625745
 20
393.5333627359203
 30
0.0
 10
600.6438258237933
 20
392.9119931529818
 30
0.0
 10
600.6147582143337
 20
391.6513717314949
 30
0.0
 10
600.1935739981598
 20
389.8120313104386
 30
0.0
 10
599.5079678203371
 20
388.05480283638
 30
0.0
 10
598.5504427182535
 20
386.424074725514
 30
0.0
 10
597.3195113601142
 20
384.9335186181394
 30
0.0
 10
595.8285381978573
 20
383.6348177723448
 30
0.0
 10
594.0931552419532
 20
382.5846006500422
 30
0.0
 10
592.1900260633308
 20
381.8219081953249
 30
0.0
 10
590.8377008119006
 20
381.605276443396
 30
0.0
 10
590.1747555905746
 20
381.4990778905133
 30
0.0
  0
ARC
  5
B0
330
1F
100
AcDbEntity
  8
0
  6
Continuous
 62
     7
370
    25
100
AcDbCircle
 10
570.4555135867
 20
381.5193152041
 30
0.0
 40
19.71925238838669
100
AcDbArc
 50
359.9411989443
 51
8.4375950421
  0
ARC
  5
B1
330
1F
100
AcDbEntity
  8
0
  6
Continuous
 62
     7
370
    25
100
AcDbCircle
 10
579.2285302273
 20
402.9226450409
 30
0.0
 40
9.538934086297282
100
AcDbArc
 50
259.8375580373
 51
270.7157966276
  0
ARC
  5
B2
330
1F
100
AcDbEntity
  8
0
  6
Continuous
 62
     7
370
    25
100
AcDbCircle
 10
607.7481248574
 20
381.5193152043
 30
0.0
 40
19.71925238852223
100
AcDbArc
 50
171.5624049587
 51
180.0588010564
  0
SPLINE
  5
B3
330
1F
100
AcDbEntity
  8
0
  6
Continuous
 62
     7
370
    25
100
AcDbSpline
210
0.0
220
0.0
230
1.0
 70
     8
 71
     3
 72
    16
 73
    12
 74
     0
 42
0.00000001
 43
0.00000001
 40
0.0
 40
0.0
 40
0.0
 40
0.0
 40
0.1143636219270646
 40
0.231440164076376
 40
0.3485478154540183
 40
0.4603965228412968
 40
0.5722481472484289
 40
0.678748079633835
 40
0.7852275526639733
 40
0.8926205175275217
 40
1.0
 40
1.0
 40
1.0
 40
1.0
 10
588.0288828533972
 20
381.4990778905089
 30
0.0
 10
587.3658348546785
 20
381.6050710420592
 30
0.0
 10
586.0240101115635
 20
381.8195717020802
 30
0.0
 10
584.1216158746132
 20
382.5819319300021
 30
0.0
 10
582.3899622992193
 20
383.6224282075646
 30
0.0
 10
580.8917175852292
 20
384.9284540741303
 30
0.0
 10
579.6619293152945
 20
386.4099389731745
 30
0.0
 10
578.700739156609
 20
388.0483149241817
 30
0.0
 10
578.014239820438
 20
389.7957033286611
 30
0.0
 10
577.5920641581887
 20
391.6426391690073
 30
0.0
 10
577.5610107238398
 20
392.9031479231936
 30
0.0
 10
577.5454849813588
 20
393.5333627359194
 30
0.0
  0
LINE
  5
B4
330
1F
100
AcDbEntity
  8
0
  6
Continuous
 62
     7
370
    25
100
AcDbLine
 10
588.0288828534
 20
381.4990778905
 30
0.0
 11
590.1747555906
 21
381.4990778905
 31
0.0
  0
LINE
  5
B5
330
1F
100
AcDbEntity
  8
0
  6
Continuous
 62
     7
370
    25
100
AcDbLine
 10
577.5454849814
 20
393.5333627359
 30
0.0
 11
578.0693515517
 21
404.1267710683
 31
0.0
  0
LINE
  5
B6
330
1F
100
AcDbEntity
  8
0
  6
Continuous
 62
     7
370
    25
100
AcDbLine
 10
600.1342868922
 20
404.1267710683
 30
0.0
 11
600.6581534626
 21
393.5333627359
 31
0.0
  0
LINE
  5
B7
330
1F
100
AcDbEntity
  8
0
  6
Continuous
 62
     7
370
    25
100
AcDbLine
 10
575.4645514654
 20
538.217783737
 30
0.0
 11
574.9662220266
 21
543.0580786753
 31
0.0
  0
LINE
  5
B8
330
1F
100
AcDbEntity
  8
0
  6
Continuous
 62
     7
370
    25
100
AcDbLine
 10
603.2374164173
 20
543.0580786753
 30
0.0
 11
602.7390869785
 21
538.217783737
 31
0.0
  0
LINE
  5
B9
330
1F
100
AcDbEntity
  8
0
  6
Continuous
 62
     7
370
    25
100
AcDbLine
 10
600.543783517
 20
395.8699260747
 30
0.0
 11
600.5998884747
 21
395.4307877538
 31
0.0
  0
LINE
  5
BA
330
1F
100
AcDbEntity
  8
0
  6
Continuous
 62
     7
370
    25
100
AcDbLine
 10
577.6037499692
 20
395.4307877538
 30
0.0
 11
577.6598542041
 21
395.8699204177
 31
0.0
  0
LINE
  5
BB
330
1F
100
AcDbEntity
  8
0
  6
Continuous
 62
     7
370
    25
100
AcDbLine
 10
600.5291971978
 20
396.1410618089
 30
0.0
 11
600.5614769127
 21
395.9104854907
 31
0.0
  0
LWPOLYLINE
  5
BC
330
1F
100
AcDbEntity
  8
0
  6
Continuous
 62
     7
370
    25
100
AcDbPolyline
 90
        3
 70
   128
 43
0.0
 10
577.6486949343
 20
393.6083434689
 10
577.5523987105
 20
395.2168380933
 10
577.5567858462
 20
395.4398211697
  0
LINE
  5
BD
330
1F
100
AcDbEntity
  8
0
  6
Continuous
 62
     7
370
    25
100
AcDbLine
 10
600.6467651235
 20
395.4427899938
 30
0.0
 11
600.6518114994
 21
395.0877845496
 31
0.0
  0
LWPOLYLINE
  5
BE
330
1F
100
AcDbEntity
  8
0
  6
Continuous
 62
     7
370
    25
100
AcDbPolyline
 90
        3
 70
   128
 43
0.0
 10
600.6284316535
 20
394.3664941061
 10
600.6150352945
 20
394.1800786115
 10
600.5364321266
 20
393.4726054074
  0
ARC
  5
BF
330
1F
100
AcDbEntity
  8
0
  6
Continuous
 62
     7
370
    25
100
AcDbCircle
 10
589.101819222
 20
547.4895918688
 30
0.0
 40
14.22500000000017
100
AcDbArc
 50
358.3509776603
 51
218.8254390703
  0
LINE
  5
C0
330
1F
100
AcDbEntity
  8
0
  6
Continuous
 62
     7
370
    25
100
AcDbLine
 10
593.4621056372
 20
561.0298476779
 30
0.0
 11
593.5364588443
 21
561.2607410983
 31
0.0
  0
SPLINE
  5
C1
330
1F
100
AcDbEntity
  8
0
  6
Continuous
 62
     7
370
    25
100
AcDbSpline
210
0.0
220
0.0
230
1.0
 70
     8
 71
     3
 72
    11
 73
     7
 74
     0
 42
0.00000001
 43
0.00000001
 40
0.0
 40
0.0
 40
0.0
 40
0.0
 40
0.1446702591042532
 40
0.3907520209323642
 40
0.5962314811354594
 40
1.0
 40
1.0
 40
1.0
 40
1.0
 10
599.4116557206972
 20
557.6393628539157
 30
0.0
 10
599.1496296550552
 20
557.8456283048243
 30
0.0
 10
598.441901506087
 20
558.4027479387427
 30
0.0
 10
597.3091881463213
 20
559.1840142560071
 30
0.0
 10
595.6353857811134
 20
560.2301028123354
 30
0.0
 10
594.3730499779916
 20
560.8499488801474
 30
0.0
 10
593.536458844253
 20
561.260741098297
 30
0.0
  0
LINE
  5
C2
330
1F
100
AcDbEntity
  8
0
  6
Continuous
 62
     7
370
    25
100
AcDbLine
 10
599.2387962612
 20
557.4691871264
 30
0.0
 11
599.4116557207
 21
557.6393628539
 31
0.0
  0
LINE
  5
C3
330
1F
100
AcDbEntity
  8
0
  6
Continuous
 62
     7
370
    25
100
AcDbLine
 10
603.008167934
 20
550.48360097
 30
0.0
 11
603.2453041052
 21
550.534655914
 31
0.0
  0
SPLINE
  5
C4
330
1F
100
AcDbEntity
  8
0
  6
Continuous
 62
     7
370
    25
100
AcDbSpline
210
0.0
220
0.0
230
1.0
 70
     8
 71
     3
 72
    11
 73
     7
 74
     0
 42
0.00000001
 43
0.00000001
 40
0.0
 40
0.0
 40
0.0
 40
0.0
 40
0.1446702591042557
 40
0.3907520209323692
 40
0.596231481135486
 40
1.0
 40
1.0
 40
1.0
 40
1.0
 10
575.1569414568713
 20
551.3432866929609
 30
0.0
 10
575.1093233692826
 20
551.0132327382067
 30
0.0
 10
574.9807076878461
 20
550.1217623652678
 30
0.0
 10
574.8704678898569
 20
548.7501706618725
 30
0.0
 10
574.8014298080724
 20
546.7775710145238
 30
0.0
 10
574.8957952684722
 20
545.3744331070079
 30
0.0
 10
574.9583343387469
 20
544.4445278235347
 30
0.0
  0
LINE
  5
C5
330
1F
100
AcDbEntity
  8
0
  6
Continuous
 62
     7
370
    25
100
AcDbLine
 10
575.3907476898
 20
551.2786738735
 30
0.0
 11
575.1569414569
 21
551.343286693
 31
0.0
  0
LINE
  5
C6
330
1F
100
AcDbEntity
  8
0
  6
Continuous
 62
     7
370
    25
100
AcDbLine
 10
579.5557569251
 20
558.0358385767
 30
0.0
 11
579.392973961
 21
558.2156770531
 31
0.0
  0
SPLINE
  5
C7
330
1F
100
AcDbEntity
  8
0
  6
Continuous
 62
     7
370
    25
100
AcDbSpline
210
0.0
220
0.0
230
1.0
 70
     8
 71
     3
 72
    11
 73
     7
 74
     0
 42
0.00000001
 43
0.00000001
 40
0.0
 40
0.0
 40
0.0
 40
0.0
 40
0.1446702591042546
 40
0.3907520209323576
 40
0.5962314811354748
 40
1.0
 40
1.0
 40
1.0
 40
1.0
 10
585.4667779556014
 20
561.493057678107
 30
0.0
 10
585.1571338023706
 20
561.3692691742615
 30
0.0
 10
584.3207899719661
 20
561.034918435241
 30
0.0
 10
583.077836814211
 20
560.44459304911
 30
0.0
 10
581.3349963672187
 20
559.5180819580897
 30
0.0
 10
580.1670260244967
 20
558.7347901183857
 30
0.0
 10
579.3929739610328
 20
558.2156770530621
 30
0.0
  0
LINE
  5
C8
330
1F
100
AcDbEntity
  8
0
  6
Continuous
 62
     7
370
    25
100
AcDbLine
 10
585.527724729
 20
561.2582691311
 30
0.0
 11
585.4667779556
 21
561.4930576781
 31
0.0
  0
SPLINE
  5
C9
330
1F
100
AcDbEntity
  8
0
  6
Continuous
 62
     7
370
    25
100
AcDbSpline
210
0.0
220
0.0
230
1.0
 70
     8
 71
     3
 72
     9
 73
     5
 74
     0
 42
0.00000001
 43
0.00000001
 40
0.0
 40
0.0
 40
0.0
 40
0.0
 40
0.5863847898283641
 40
1.0
 40
1.0
 40
1.0
 40
1.0
 10
600.7156347817521
 20
556.5419348330689
 30
0.0
 10
600.4643966501061
 20
556.761347244407
 30
0.0
 10
600.0359439753369
 20
557.1355254549342
 30
0.0
 10
599.5943186658837
 20
557.4919430962811
 30
0.0
 10
599.4116557206972
 20
557.6393628539157
 30
0.0
  0
ARC
  5
CA
330
1F
100
AcDbEntity
  8
0
  6
Continuous
 62
     7
370
    25
100
AcDbCircle
 10
589.101819222
 20
547.4895918688
 30
0.0
 40
14.72500000000001
100
AcDbArc
 50
18.7674620976
 51
37.934493223
  0
SPLINE
  5
CB
330
1F
100
AcDbEntity
  8
0
  6
Continuous
 62
     7
370
    25
100
AcDbSpline
210
0.0
220
0.0
230
1.0
 70
     8
 71
     3
 72
     9
 73
     5
 74
     0
 42
0.00000001
 43
0.00000001
 40
0.0
 40
0.0
 40
0.0
 40
0.0
 40
0.5862283062032897
 40
1.0
 40
1.0
 40
1.0
 40
1.0
 10
603.2453041051874
 20
550.5346559140046
 30
0.0
 10
603.2119946837765
 20
550.8657626915951
 30
0.0
 10
603.1551748048003
 20
551.4305712722911
 30
0.0
 10
603.0764827391469
 20
551.99393386933
 30
0.0
 10
603.043922189853
 20
552.2270373653287
 30
0.0
  0
SPLINE
  5
CC
330
1F
100
AcDbEntity
  8
0
  6
Continuous
 62
     7
370
    25
100
AcDbSpline
210
0.0
220
0.0
230
1.0
 70
     8
 71
     3
 72
     9
 73
     5
 74
     0
 42
0.00000001
 43
0.00000001
 40
0.0
 40
0.0
 40
0.0
 40
0.0
 40
0.5862283062032934
 40
1.0
 40
1.0
 40
1.0
 40
1.0
 10
593.536458844253
 20
561.260741098297
 30
0.0
 10
593.2330572527891
 20
561.3974476819651
 30
0.0
 10
592.7155087341428
 20
561.6306445136797
 30
0.0
 10
592.1882763807384
 20
561.8441764842671
 30
0.0
 10
591.9701225568459
 20
561.9325299694167
 30
0.0
  0
SPLINE
  5
CD
330
1F
100
AcDbEntity
  8
0
  6
Continuous
 62
     7
370
    25
100
AcDbSpline
210
0.0
220
0.0
230
1.0
 70
     8
 71
     3
 72
     9
 73
     5
 74
     0
 42
0.00000001
 43
0.00000001
 40
0.0
 40
0.0
 40
0.0
 40
0.0
 40
0.5863847898283572
 40
1.0
 40
1.0
 40
1.0
 40
1.0
 10
587.0691680310072
 20
562.07362266056
 30
0.0
 10
586.7535322430596
 20
561.9657502618244
 30
0.0
 10
586.215258069816
 20
561.7817884664183
 30
0.0
 10
585.685778683326
 20
561.5775385501512
 30
0.0
 10
585.4667779556014
 20
561.493057678107
 30
0.0
  0
ARC
  5
CE
330
1F
100
AcDbEntity
  8
0
  6
Continuous
 62
     7
370
    25
100
AcDbCircle
 10
589.101819222
 20
547.4895918688
 30
0.0
 40
14.72499999999993
100
AcDbArc
 50
78.7674620976
 51
97.934493223
  0
SPLINE
  5
CF
330
1F
100
AcDbEntity
  8
0
  6
Continuous
 62
     7
370
    25
100
AcDbSpline
210
0.0
220
0.0
230
1.0
 70
     8
 71
     3
 72
     9
 73
     5
 74
     0
 42
0.00000001
 43
0.00000001
 40
0.0
 40
0.0
 40
0.0
 40
0.0
 40
0.5862283062032867
 40
0.9999999999999999
 40
0.9999999999999999
 40
0.9999999999999999
 40
0.9999999999999999
 10
579.3929739610328
 20
558.2156770530621
 30
0.0
 10
579.1228817909798
 20
558.0212768591396
 30
0.0
 10
578.6621531513098
 20
557.6896651101582
 30
0.0
 10
578.2136128635588
 20
557.3398344837066
 30
0.0
 10
578.0280195889599
 20
557.1950844728578
 30
0.0
  0
SPLINE
  5
D0
330
1F
100
AcDbEntity
  8
0
  6
Continuous
 62
     7
370
    25
100
AcDbSpline
210
0.0
220
0.0
230
1.0
 70
     8
 71
     3
 72
     9
 73
     5
 74
     0
 42
0.00000001
 43
0.00000001
 40
0.0
 40
0.0
 40
0.0
 40
0.0
 40
0.5863847898283617
 40
1.0
 40
1.0
 40
1.0
 40
1.0
 10
575.4553524712222
 20
553.0212796962608
 30
0.0
 10
575.3909548149206
 20
552.6939948861868
 30
0.0
 10
575.2811333164462
 20
552.1358548802538
 30
0.0
 10
575.1932792394094
 20
551.5751873226397
 30
0.0
 10
575.1569414568713
 20
551.3432866929609
 30
0.0
  0
ARC
  5
D1
330
1F
100
AcDbEntity
  8
0
  6
Continuous
 62
     7
370
    25
100
AcDbCircle
 10
589.101819222
 20
547.4895918688
 30
0.0
 40
14.72500000000007
100
AcDbArc
 50
138.7674620976
 51
157.934493223
  0
ARC
  5
D2
330
1F
100
AcDbEntity
  8
0
  6
Continuous
 62
     7
370
    25
100
AcDbCircle
 10
603.2715375797
 20
550.1463607215
 30
0.0
 40
0.3891803588369089
100
AcDbArc
 50
55.2384460232
 51
93.8650664682
  0
SPLINE
  5
D3
330
1F
100
AcDbEntity
  8
0
  6
Continuous
 62
     7
370
    25
100
AcDbSpline
210
0.0
220
0.0
230
1.0
 70
    24
 71
     3
 72
    10
 73
     6
 74
     0
 42
0.00000001
 43
0.00000001
 40
0.0
 40
0.0
 40
0.0
 40
0.0
 40
0.6125538005420685
 40
0.8350314862891168
 40
1.0
 40
1.0
 40
1.0
 40
1.0
 10
603.493433602787
 20
550.4660848317237
 30
0.0
 10
603.4738902842585
 20
549.7872338252242
 30
0.0
 10
603.447248891611
 20
548.8618261885
 30
0.0
 10
603.4151904326849
 20
547.7482529190927
 30
0.0
 10
603.4027565042121
 20
547.3163516098992
 30
0.0
 10
603.3974623325244
 20
547.1324548078475
 30
0.0
  0
SPLINE
  5
D4
330
1F
100
AcDbEntity
  8
0
  6
Continuous
 62
     7
370
    25
100
AcDbSpline
210
0.0
220
0.0
230
1.0
 70
    24
 71
     3
 72
    12
 73
     8
 74
     0
 42
0.00000001
 43
0.00000001
 40
0.0
 40
0.0
 40
0.0
 40
0.0
 40
0.3013828945620927
 40
0.410844249379568
 40
0.6247185195336458
 40
0.6986171054378635
 40
1.0
 40
1.0
 40
1.0
 40
1.0
 10
593.7199078922732
 20
561.4413420055062
 30
0.0
 10
594.2980408883767
 20
561.0849899889733
 30
0.0
 10
595.0861500382699
 20
560.5992119989515
 30
0.0
 10
596.2902835519695
 20
559.8570031842435
 30
0.0
 10
597.057382164208
 20
559.3841757566566
 30
0.0
 10
598.1925706637999
 20
558.6844635560025
 30
0.0
 10
598.9124442686898
 20
558.2407448745221
 30
0.0
 10
599.4905638990298
 20
557.8844010964341
 30
0.0
  0
ARC
  5
D5
330
1F
100
AcDbEntity
  8
0
  6
Continuous
 62
     7
370
    25
100
AcDbCircle
 10
599.1015104932
 20
557.8744613217
 30
0.0
 40
0.3891803587960161
100
AcDbArc
 50
322.8368888502
 51
1.4635092995
  0
ARC
  5
D6
330
1F
100
AcDbEntity
  8
0
  6
Continuous
 62
     7
370
    25
100
AcDbCircle
 10
593.8858490824
 20
561.0893123575
 30
0.0
 40
0.3891803587985041
100
AcDbArc
 50
115.2384460213
 51
153.8650664703
  0
SPLINE
  5
D7
330
1F
100
AcDbEntity
  8
0
  6
Continuous
 62
     7
370
    25
100
AcDbSpline
210
0.0
220
0.0
230
1.0
 70
    24
 71
     3
 72
    12
 73
     8
 74
     0
 42
0.00000001
 43
0.00000001
 40
0.0
 40
0.0
 40
0.0
 40
0.0
 40
0.3013828945620991
 40
0.4108442493795574
 40
0.6247185195336494
 40
0.6986171054378603
 40
1.0
 40
1.0
 40
1.0
 40
1.0
 10
579.3282935114534
 20
558.4648490425521
 30
0.0
 10
579.9259699085123
 20
558.7873508956774
 30
0.0
 10
580.7407205634171
 20
559.2269844454288
 30
0.0
 10
581.9855590087168
 20
559.898690250487
 30
0.0
 10
582.7785888787323
 20
560.3266034220999
 30
0.0
 10
583.9521516696327
 20
560.9598494005031
 30
0.0
 10
584.6963601223734
 20
561.3614188891116
 30
0.0
 10
585.2940227018481
 20
561.6839132863685
 30
0.0
  0
ARC
  5
D8
330
1F
100
AcDbEntity
  8
0
  6
Continuous
 62
     7
370
    25
100
AcDbCircle
 10
585.1081040964
 20
561.3420132662
 30
0.0
 40
0.3891803587958649
100
AcDbArc
 50
22.8368888502
 51
61.4635092995
  0
ARC
  5
D9
330
1F
100
AcDbEntity
  8
0
  6
Continuous
 62
     7
370
    25
100
AcDbCircle
 10
579.7161307246
 20
558.4325435047
 30
0.0
 40
0.3891803587997202
100
AcDbArc
 50
175.2384460213
 51
213.8650664701
  0
SPLINE
  5
DA
330
1F
100
AcDbEntity
  8
0
  6
Continuous
 62
     7
370
    25
100
AcDbSpline
210
0.0
220
0.0
230
1.0
 70
    24
 71
     3
 72
    12
 73
     8
 74
     0
 42
0.00000001
 43
0.00000001
 40
0.0
 40
0.0
 40
0.0
 40
0.0
 40
0.1743834614778259
 40
0.3037434559051748
 40
0.556497265150813
 40
0.6438296453931794
 40
1.0
 40
1.0
 40
1.0
 40
1.0
 10
574.7401644401488
 20
545.5537667896629
 30
0.0
 10
574.7497353255725
 20
545.8862182714076
 30
0.0
 10
574.7664060223808
 20
546.4652867285319
 30
0.0
 10
574.7970979263542
 20
547.5313917440793
 30
0.0
 10
574.8230256180339
 20
548.4320084723631
 30
0.0
 10
574.8614004582629
 20
549.764985718556
 30
0.0
 10
574.8857351782976
 20
550.610269448873
 30
0.0
 10
574.9052780247855
 20
551.289104058704
 30
0.0
  0
ARC
  5
DB
330
1F
100
AcDbEntity
  8
0
  6
Continuous
 62
     7
370
    25
100
AcDbCircle
 10
575.1084128251
 20
550.9571438132
 30
0.0
 40
0.3891803587945831
100
AcDbArc
 50
82.8368888501
 51
121.4635092995
  0
LINE
  5
DC
330
1F
100
AcDbEntity
  8
0
  6
Continuous
 62
     7
370
    25
100
AcDbLine
 10
599.490563899
 20
557.8844010964
 30
0.0
 11
600.9779920081
 21
556.9675739828
 31
0.0
  0
LINE
  5
DD
330
1F
100
AcDbEntity
  8
0
  6
Continuous
 62
     7
370
    25
100
AcDbLine
 10
600.9779920081
 20
556.9675739828
 30
0.0
 11
600.7156347818
 21
556.5419348331
 31
0.0
  0
LINE
  5
DE
330
1F
100
AcDbEntity
  8
0
  6
Continuous
 62
     7
370
    25
100
AcDbLine
 10
585.2940227018
 20
561.6839132864
 30
0.0
 11
586.8317323277
 21
562.5136502583
 31
0.0
  0
LINE
  5
DF
330
1F
100
AcDbEntity
  8
0
  6
Continuous
 62
     7
370
    25
100
AcDbLine
 10
586.8317323277
 20
562.5136502583
 30
0.0
 11
587.069168031
 21
562.0736226606
 31
0.0
  0
LINE
  5
E0
330
1F
100
AcDbEntity
  8
0
  6
Continuous
 62
     7
370
    25
100
AcDbLine
 10
574.9052780248
 20
551.2891040587
 30
0.0
 11
574.9555595415
 21
553.0356681443
 31
0.0
  0
LINE
  5
E1
330
1F
100
AcDbEntity
  8
0
  6
Continuous
 62
     7
370
    25
100
AcDbLine
 10
574.9555595415
 20
553.0356681443
 30
0.0
 11
575.4553524712
 21
553.0212796963
 31
0.0
  0
LINE
  5
E2
330
1F
100
AcDbEntity
  8
0
  6
Continuous
 62
     7
370
    25
100
AcDbLine
 10
603.0439221899
 20
552.2270373653
 30
0.0
 11
603.5437151195
 21
552.2126489173
 31
0.0
  0
LINE
  5
E3
330
1F
100
AcDbEntity
  8
0
  6
Continuous
 62
     7
370
    25
100
AcDbLine
 10
603.5437151195
 20
552.2126489173
 30
0.0
 11
603.4934336028
 21
550.4660848317
 31
0.0
  0
LINE
  5
E4
330
1F
100
AcDbEntity
  8
0
  6
Continuous
 62
     7
370
    25
100
AcDbLine
 10
592.2324797832
 20
562.3581691191
 30
0.0
 11
593.7199078923
 21
561.4413420055
 31
0.0
  0
LINE
  5
E5
330
1F
100
AcDbEntity
  8
0
  6
Continuous
 62
     7
370
    25
100
AcDbLine
 10
592.2324797832
 20
562.3581691191
 30
0.0
 11
591.9701225568
 21
561.9325299694
 31
0.0
  0
LINE
  5
E6
330
1F
100
AcDbEntity
  8
0
  6
Continuous
 62
     7
370
    25
100
AcDbLine
 10
577.7905838856
 20
557.6351120706
 30
0.0
 11
579.3282935115
 21
558.4648490426
 31
0.0
  0
LINE
  5
E7
330
1F
100
AcDbEntity
  8
0
  6
Continuous
 62
     7
370
    25
100
AcDbLine
 10
578.028019589
 20
557.1950844729
 30
0.0
 11
577.7905838856
 21
557.6351120706
 31
0.0
  0
LINE
  5
E8
330
1F
100
AcDbEntity
  8
0
  6
Continuous
 62
     7
370
    25
100
AcDbLine
 10
574.6599233244
 20
542.7665348202
 30
0.0
 11
574.7102048411
 21
544.5130989058
 31
0.0
  0
ARC
  5
E9
330
1F
100
AcDbEntity
  8
0
  6
Continuous
 62
     7
370
    25
100
AcDbCircle
 10
589.101819222
 20
547.4895918688
 30
0.0
 40
15.49999999999989
100
AcDbArc
 50
25.4371674189
 51
31.2647879017
  0
LINE
  5
EA
330
1F
100
AcDbEntity
  8
0
  6
Continuous
 62
     7
370
    25
100
AcDbLine
 10
602.7782663913
 20
555.7934941337
 30
0.0
 11
602.3508774172
 21
555.5339971879
 31
0.0
  0
ARC
  5
EB
330
1F
100
AcDbEntity
  8
0
  6
Continuous
 62
     7
370
    25
100
AcDbCircle
 10
589.101819222
 20
547.4895918688
 30
0.0
 40
16.00000000000005
100
AcDbArc
 50
25.4371674189
 51
31.2647879017
  0
LINE
  5
EC
330
1F
100
AcDbEntity
  8
0
  6
Continuous
 62
     7
370
    25
100
AcDbLine
 10
603.0992004782
 20
554.1471678516
 30
0.0
 11
603.5507289059
 21
554.3619283671
 31
0.0
  0
LINE
  5
ED
330
1F
100
AcDbEntity
  8
0
  6
Continuous
 62
     7
370
    25
100
AcDbLine
 10
602.3508774172
 20
555.5339971879
 30
0.0
 11
600.7156347818
 21
556.5419348331
 31
0.0
  0
LINE
  5
EE
330
1F
100
AcDbEntity
  8
0
  6
Continuous
 62
     7
370
    25
100
AcDbLine
 10
603.0439221899
 20
552.2270373653
 30
0.0
 11
603.0992004782
 21
554.1471678516
 31
0.0
  0
ARC
  5
EF
330
1F
100
AcDbEntity
  8
0
  6
Continuous
 62
     7
370
    25
100
AcDbCircle
 10
603.0992004782
 20
554.1471678516
 30
0.0
 40
0.4999999999999873
100
AcDbArc
 50
358.3509776603
 51
25.4371674189
  0
LINE
  5
F0
330
1F
100
AcDbEntity
  8
0
  6
Continuous
 62
     7
370
    25
100
AcDbLine
 10
603.0992004782
 20
554.1471678516
 30
0.0
 11
603.5989934079
 21
554.1327794035
 31
0.0
  0
LINE
  5
F1
330
1F
100
AcDbEntity
  8
0
  6
Continuous
 62
     7
370
    25
100
AcDbLine
 10
603.5989934079
 20
554.1327794035
 30
0.0
 11
603.5437151195
 21
552.2126489173
 31
0.0
  0
LINE
  5
F2
330
1F
100
AcDbEntity
  8
0
  6
Continuous
 62
     7
370
    25
100
AcDbLine
 10
600.9779920081
 20
556.9675739828
 30
0.0
 11
602.6132346436
 21
555.9596363377
 31
0.0
  0
LINE
  5
F3
330
1F
100
AcDbEntity
  8
0
  6
Continuous
 62
     7
370
    25
100
AcDbLine
 10
602.6132346436
 20
555.9596363377
 30
0.0
 11
602.3508774172
 21
555.5339971879
 31
0.0
  0
ARC
  5
F4
330
1F
100
AcDbEntity
  8
0
  6
Continuous
 62
     7
370
    25
100
AcDbCircle
 10
602.3508774172
 20
555.5339971879
 30
0.0
 40
0.500000000000097
100
AcDbArc
 50
31.2647879017
 51
58.3509776603
  0
LINE
  5
F5
330
1F
100
AcDbEntity
  8
0
  6
Continuous
 62
     7
370
    25
100
AcDbLine
 10
603.2480789024
 20
541.9435155933
 30
0.0
 11
603.192800614
 21
540.023385107
 31
0.0
  0
ARC
  5
F6
330
1F
100
AcDbEntity
  8
0
  6
Continuous
 62
     7
370
    25
100
AcDbCircle
 10
602.6930076843
 20
540.0377735551
 30
0.0
 40
0.4999999999999873
100
AcDbArc
 50
331.2647879017
 51
358.3509776603
  0
ARC
  5
F7
330
1F
100
AcDbEntity
  8
0
  6
Continuous
 62
     7
370
    25
100
AcDbCircle
 10
589.101819222
 20
547.4895918688
 30
0.0
 40
16.00000000000002
100
AcDbArc
 50
329.3818616168
 51
331.2647879017
  0
LINE
  5
F8
330
1F
100
AcDbEntity
  8
0
  6
Continuous
 62
     7
370
    25
100
AcDbLine
 10
590.5972371477
 20
563.3661067643
 30
0.0
 11
592.2324797832
 21
562.3581691191
 31
0.0
  0
LINE
  5
F9
330
1F
100
AcDbEntity
  8
0
  6
Continuous
 62
     7
370
    25
100
AcDbLine
 10
591.9701225568
 20
561.9325299694
 30
0.0
 11
590.3348799214
 21
562.9404676146
 31
0.0
  0
LINE
  5
FA
330
1F
100
AcDbEntity
  8
0
  6
Continuous
 62
     7
370
    25
100
AcDbLine
 10
590.5972371477
 20
563.3661067643
 30
0.0
 11
590.3348799214
 21
562.9404676146
 31
0.0
  0
LINE
  5
FB
330
1F
100
AcDbEntity
  8
0
  6
Continuous
 62
     7
370
    25
100
AcDbLine
 10
588.7596889549
 20
562.9858155017
 30
0.0
 11
587.069168031
 21
562.0736226606
 31
0.0
  0
ARC
  5
FC
330
1F
100
AcDbEntity
  8
0
  6
Continuous
 62
     7
370
    25
100
AcDbCircle
 10
589.101819222
 20
547.4895918688
 30
0.0
 40
15.50000000000003
100
AcDbArc
 50
85.4371674189
 51
91.2647879017
  0
LINE
  5
FD
330
1F
100
AcDbEntity
  8
0
  6
Continuous
 62
     7
370
    25
100
AcDbLine
 10
590.374656073
 20
563.4388829612
 30
0.0
 11
590.3348799214
 21
562.9404676146
 31
0.0
  0
ARC
  5
FE
330
1F
100
AcDbEntity
  8
0
  6
Continuous
 62
     7
370
    25
100
AcDbCircle
 10
590.3348799214
 20
562.9404676146
 30
0.0
 40
0.4999999999999343
100
AcDbArc
 50
58.3509776603
 51
85.4371674189
  0
ARC
  5
FF
330
1F
100
AcDbEntity
  8
0
  6
Continuous
 62
     7
370
    25
100
AcDbCircle
 10
589.101819222
 20
547.4895918688
 30
0.0
 40
16.0
100
AcDbArc
 50
85.4371674189
 51
91.2647879017
  0
LINE
  5
100
330
1F
100
AcDbEntity
  8
0
  6
Continuous
 62
     7
370
    25
100
AcDbLine
 10
588.7486524946
 20
563.4856936834
 30
0.0
 11
588.7596889549
 21
562.9858155017
 31
0.0
  0
LINE
  5
101
330
1F
100
AcDbEntity
  8
0
  6
Continuous
 62
     7
370
    25
100
AcDbLine
 10
586.8317323277
 20
562.5136502583
 30
0.0
 11
588.5222532515
 21
563.4258430994
 31
0.0
  0
LINE
  5
102
330
1F
100
AcDbEntity
  8
0
  6
Continuous
 62
     7
370
    25
100
AcDbLine
 10
588.5222532515
 20
563.4258430994
 30
0.0
 11
588.7596889549
 21
562.9858155017
 31
0.0
  0
ARC
  5
103
330
1F
100
AcDbEntity
  8
0
  6
Continuous
 62
     7
370
    25
100
AcDbCircle
 10
588.7596889549
 20
562.9858155017
 30
0.0
 40
0.5000000000000758
100
AcDbArc
 50
91.2647879017
 51
118.3509776603
  0
LINE
  5
104
330
1F
100
AcDbEntity
  8
0
  6
Continuous
 62
     7
370
    25
100
AcDbLine
 10
578.028019589
 20
557.1950844729
 30
0.0
 11
576.3374986651
 21
556.2828916318
 31
0.0
  0
LINE
  5
105
330
1F
100
AcDbEntity
  8
0
  6
Continuous
 62
     7
370
    25
100
AcDbLine
 10
576.3374986651
 20
556.2828916318
 30
0.0
 11
576.1000629618
 21
556.7229192295
 31
0.0
  0
LINE
  5
106
330
1F
100
AcDbEntity
  8
0
  6
Continuous
 62
     7
370
    25
100
AcDbLine
 10
576.1000629618
 20
556.7229192295
 30
0.0
 11
577.7905838856
 21
557.6351120706
 31
0.0
  0
LINE
  5
107
330
1F
100
AcDbEntity
  8
0
  6
Continuous
 62
     7
370
    25
100
AcDbLine
 10
575.5106307596
 20
554.9414101825
 30
0.0
 11
575.4553524712
 21
553.0212796963
 31
0.0
  0
ARC
  5
108
330
1F
100
AcDbEntity
  8
0
  6
Continuous
 62
     7
370
    25
100
AcDbCircle
 10
589.101819222
 20
547.4895918688
 30
0.0
 40
15.49999999999998
100
AcDbArc
 50
145.4371674189
 51
151.2647879017
  0
ARC
  5
109
330
1F
100
AcDbEntity
  8
0
  6
Continuous
 62
     7
370
    25
100
AcDbCircle
 10
576.3374986651
 20
556.2828916318
 30
0.0
 40
0.5000000000000682
100
AcDbArc
 50
118.3509776603
 51
145.4371674189
  0
LINE
  5
10A
330
1F
100
AcDbEntity
  8
0
  6
Continuous
 62
     7
370
    25
100
AcDbLine
 10
575.9257463891
 20
556.5665464628
 30
0.0
 11
576.3374986651
 21
556.2828916318
 31
0.0
  0
ARC
  5
10B
330
1F
100
AcDbEntity
  8
0
  6
Continuous
 62
     7
370
    25
100
AcDbCircle
 10
589.101819222
 20
547.4895918688
 30
0.0
 40
16.00000000000001
100
AcDbArc
 50
145.4371674189
 51
151.2647879017
  0
LINE
  5
10C
330
1F
100
AcDbEntity
  8
0
  6
Continuous
 62
     7
370
    25
100
AcDbLine
 10
575.0722053253
 20
555.1817914184
 30
0.0
 11
575.5106307596
 21
554.9414101825
 31
0.0
  0
LINE
  5
10D
330
1F
100
AcDbEntity
  8
0
  6
Continuous
 62
     7
370
    25
100
AcDbLine
 10
575.0108378299
 20
554.9557986305
 30
0.0
 11
575.5106307596
 21
554.9414101825
 31
0.0
  0
ARC
  5
10E
330
1F
100
AcDbEntity
  8
0
  6
Continuous
 62
     7
370
    25
100
AcDbCircle
 10
575.5106307596
 20
554.9414101825
 30
0.0
 40
0.5000000000000598
100
AcDbArc
 50
151.2647879017
 51
178.3509776603
  0
LINE
  5
10F
330
1F
100
AcDbEntity
  8
0
  6
Continuous
 62
     7
370
    25
100
AcDbLine
 10
574.9555595415
 20
553.0356681443
 30
0.0
 11
575.0108378299
 21
554.9557986305
 31
0.0
  0
ARC
  5
110
330
1F
100
AcDbEntity
  8
0
  6
Continuous
 62
     7
370
    25
100
AcDbCircle
 10
589.101819222
 20
547.4895918688
 30
0.0
 40
16.00000000000009
100
AcDbArc
 50
205.4371674189
 51
211.2647879017
  0
LINE
  5
111
330
1F
100
AcDbEntity
  8
0
  6
Continuous
 62
     7
370
    25
100
AcDbLine
 10
574.6529095381
 20
540.6172553704
 30
0.0
 11
575.1044379657
 21
540.832015886
 31
0.0
  0
ARC
  5
112
330
1F
100
AcDbEntity
  8
0
  6
Continuous
 62
     7
370
    25
100
AcDbCircle
 10
575.1044379657
 20
540.832015886
 30
0.0
 40
0.5000000000000471
100
AcDbArc
 50
178.3509776603
 51
205.4371674189
  0
LINE
  5
113
330
1F
100
AcDbEntity
  8
0
  6
Continuous
 62
     7
370
    25
100
AcDbLine
 10
575.1044379657
 20
540.832015886
 30
0.0
 11
574.604645036
 21
540.846404334
 31
0.0
  0
LINE
  5
114
330
1F
100
AcDbEntity
  8
0
  6
Continuous
 62
     7
370
    25
100
AcDbLine
 10
574.604645036
 20
540.846404334
 30
0.0
 11
574.6599233244
 21
542.7665348202
 31
0.0
  0
CIRCLE
  5
115
330
1F
100
AcDbEntity
  8
0
  6
Continuous
 62
     7
370
    25
100
AcDbCircle
 10
639.901819222
 20
547.4895918688
 30
0.0
 40
5.328914336627577
  0
CIRCLE
  5
116
330
1F
100
AcDbEntity
  8
0
  6
Continuous
 62
     7
370
    25
100
AcDbCircle
 10
639.901819222
 20
547.4895918688
 30
0.0
 40
5.074569253689106
  0
CIRCLE
  5
117
330
1F
100
AcDbEntity
  8
0
  6
Continuous
 62
     7
370
    25
100
AcDbCircle
 10
639.901819222
 20
547.4895918688
 30
0.0
 40
5.925127771161328
  0
CIRCLE
  5
118
330
1F
100
AcDbEntity
  8
0
  6
Continuous
 62
     7
370
    25
100
AcDbCircle
 10
639.901819222
 20
547.4895918688
 30
0.0
 40
7.149999999999977
  0
LINE
  5
119
330
1F
100
AcDbEntity
  8
0
  6
Continuous
 62
     7
370
    25
100
AcDbLine
 10
535.9417814987
 20
546.244512777
 30
0.0
 11
535.6348405429
 21
547.4045934853
 31
0.0
  0
LINE
  5
11A
330
1F
100
AcDbEntity
  8
0
  6
Continuous
 62
     7
370
    25
100
AcDbLine
 10
537.1501989031
 20
546.5642429393
 30
0.0
 11
535.9417814987
 21
546.244512777
 31
0.0
  0
SPLINE
  5
11B
330
1F
100
AcDbEntity
  8
0
  6
Continuous
 62
     7
370
    25
100
AcDbSpline
210
0.0
220
0.0
230
1.0
 70
     8
 71
     3
 72
    12
 73
     8
 74
     0
 42
0.00000001
 43
0.00000001
 40
0.0
 40
0.0
 40
0.0
 40
0.0
 40
0.2133534395476129
 40
0.4267919313634445
 40
0.6383539739091494
 40
0.8490950351927571
 40
1.0
 40
1.0
 40
1.0
 40
1.0
 10
538.0670874431551
 20
546.0310305940832
 30
0.0
 10
538.037899004205
 20
546.1096746209944
 30
0.0
 10
537.9795104904815
 20
546.2669940258597
 30
0.0
 10
537.7990936097368
 20
546.4507974307252
 30
0.0
 10
537.5746840135074
 20
546.5663259177835
 30
0.0
 10
537.3470249696057
 20
546.6019406975313
 30
0.0
 10
537.208148319198
 20
546.5753418913947
 30
0.0
 10
537.1501989031107
 20
546.564242939341
 30
0.0
  0
LINE
  5
11C
330
1F
100
AcDbEntity
  8
0
  6
Continuous
 62
     7
370
    25
100
AcDbLine
 10
538.3868176055
 20
544.8226131897
 30
0.0
 11
538.0670874432
 21
546.0310305941
 31
0.0
  0
LINE
  5
11D
330
1F
100
AcDbEntity
  8
0
  6
Continuous
 62
     7
370
    25
100
AcDbLine
 10
539.5468983137
 20
545.1295541455
 30
0.0
 11
538.3868176055
 21
544.8226131897
 31
0.0
  0
LINE
  5
11E
330
1F
100
AcDbEntity
  8
0
  6
Continuous
 62
     7
370
    25
100
AcDbLine
 10
539.2271681514
 20
546.3379715499
 30
0.0
 11
539.5468983137
 21
545.1295541455
 31
0.0
  0
SPLINE
  5
11F
330
1F
100
AcDbEntity
  8
0
  6
Continuous
 62
     7
370
    25
100
AcDbSpline
210
0.0
220
0.0
230
1.0
 70
     8
 71
     3
 72
    12
 73
     8
 74
     0
 42
0.00000001
 43
0.00000001
 40
0.0
 40
0.0
 40
0.0
 40
0.0
 40
0.2133534395476105
 40
0.4267919313634458
 40
0.6383539739091507
 40
0.8490950351927564
 40
1.0
 40
1.0
 40
1.0
 40
1.0
 10
539.7603804966545
 20
547.2548600899567
 30
0.0
 10
539.6817364697433
 20
547.2256716510067
 30
0.0
 10
539.524417064878
 20
547.1672831372832
 30
0.0
 10
539.3406136600125
 20
546.9868662565385
 30
0.0
 10
539.2250851729542
 20
546.7624566603091
 30
0.0
 10
539.1894703932063
 20
546.5347976164074
 30
0.0
 10
539.2160691993431
 20
546.3959209659997
 30
0.0
 10
539.2271681513967
 20
546.3379715499124
 30
0.0
  0
LINE
  5
120
330
1F
100
AcDbEntity
  8
0
  6
Continuous
 62
     7
370
    25
100
AcDbLine
 10
540.9687979011
 20
547.5745902523
 30
0.0
 11
539.7603804967
 21
547.25486009
 31
0.0
  0
LINE
  5
121
330
1F
100
AcDbEntity
  8
0
  6
Continuous
 62
     7
370
    25
100
AcDbLine
 10
540.6618569452
 20
548.7346709605
 30
0.0
 11
540.9687979011
 21
547.5745902523
 31
0.0
  0
LINE
  5
122
330
1F
100
AcDbEntity
  8
0
  6
Continuous
 62
     7
370
    25
100
AcDbLine
 10
539.4534395408
 20
548.4149407982
 30
0.0
 11
540.6618569452
 21
548.7346709605
 31
0.0
  0
SPLINE
  5
123
330
1F
100
AcDbEntity
  8
0
  6
Continuous
 62
     7
370
    25
100
AcDbSpline
210
0.0
220
0.0
230
1.0
 70
     8
 71
     3
 72
    12
 73
     8
 74
     0
 42
0.00000001
 43
0.00000001
 40
0.0
 40
0.0
 40
0.0
 40
0.0
 40
0.2133534395476133
 40
0.4267919313634492
 40
0.6383539739091546
 40
0.8490950351927566
 40
1.0
 40
1.0
 40
1.0
 40
1.0
 10
538.5365510007811
 20
548.9481531434562
 30
0.0
 10
538.565739439731
 20
548.869509116545
 30
0.0
 10
538.6241279534544
 20
548.7121897116797
 30
0.0
 10
538.8045448341993
 20
548.5283863068142
 30
0.0
 10
539.0289544304286
 20
548.4128578197558
 30
0.0
 10
539.2566134743302
 20
548.377243040008
 30
0.0
 10
539.3954901247379
 20
548.4038418461448
 30
0.0
 10
539.4534395408253
 20
548.4149407981984
 30
0.0
  0
LINE
  5
124
330
1F
100
AcDbEntity
  8
0
  6
Continuous
 62
     7
370
    25
100
AcDbLine
 10
538.2168208385
 20
550.1565705479
 30
0.0
 11
538.5365510008
 21
548.9481531435
 31
0.0
  0
LINE
  5
125
330
1F
100
AcDbEntity
  8
0
  6
Continuous
 62
     7
370
    25
100
AcDbLine
 10
537.0567401302
 20
549.849629592
 30
0.0
 11
538.2168208385
 21
550.1565705479
 31
0.0
  0
LINE
  5
126
330
1F
100
AcDbEntity
  8
0
  6
Continuous
 62
     7
370
    25
100
AcDbLine
 10
537.3764702925
 20
548.6412121876
 30
0.0
 11
537.0567401302
 21
549.849629592
 31
0.0
  0
SPLINE
  5
127
330
1F
100
AcDbEntity
  8
0
  6
Continuous
 62
     7
370
    25
100
AcDbSpline
210
0.0
220
0.0
230
1.0
 70
     8
 71
     3
 72
    12
 73
     8
 74
     0
 42
0.00000001
 43
0.00000001
 40
0.0
 40
0.0
 40
0.0
 40
0.0
 40
0.2133534395476105
 40
0.4267919313634458
 40
0.6383539739091508
 40
0.8490950351927568
 40
1.0
 40
1.0
 40
1.0
 40
1.0
 10
536.8432579472815
 20
547.7243236475828
 30
0.0
 10
536.9219019741927
 20
547.7535120865327
 30
0.0
 10
537.079221379058
 20
547.8119006002561
 30
0.0
 10
537.2630247839235
 20
547.9923174810009
 30
0.0
 10
537.3785532709819
 20
548.2167270772302
 30
0.0
 10
537.4141680507296
 20
548.4443861211319
 30
0.0
 10
537.387569244593
 20
548.5832627715396
 30
0.0
 10
537.3764702925394
 20
548.641212187627
 30
0.0
  0
LINE
  5
128
330
1F
100
AcDbEntity
  8
0
  6
Continuous
 62
     7
370
    25
100
AcDbLine
 10
535.6348405429
 20
547.4045934853
 30
0.0
 11
536.8432579473
 21
547.7243236476
 31
0.0
  0
CIRCLE
  5
129
330
1F
100
AcDbEntity
  8
0
  6
Continuous
 62
     7
370
    25
100
AcDbCircle
 10
538.301819222
 20
547.4895918688
 30
0.0
 40
4.197433366238903
  0
CIRCLE
  5
12A
330
1F
100
AcDbEntity
  8
0
  6
Continuous
 62
     7
370
    25
100
AcDbCircle
 10
538.301819222
 20
547.4895918688
 30
0.0
 40
4.50000000000006
  0
LINE
  5
12B
330
1F
100
AcDbEntity
  8
0
  6
Continuous
 62
     7
370
    25
100
AcDbLine
 10
637.2348405429
 20
547.5745902523
 30
0.0
 11
637.5417814987
 21
548.7346709605
 31
0.0
  0
LINE
  5
12C
330
1F
100
AcDbEntity
  8
0
  6
Continuous
 62
     7
370
    25
100
AcDbLine
 10
638.4432579473
 20
547.25486009
 30
0.0
 11
637.2348405429
 21
547.5745902523
 31
0.0
  0
LINE
  5
12D
330
1F
100
AcDbEntity
  8
0
  6
Continuous
 62
     7
370
    25
100
AcDbLine
 10
638.6567401302
 20
545.1295541455
 30
0.0
 11
638.9764702925
 21
546.3379715499
 31
0.0
  0
LINE
  5
12E
330
1F
100
AcDbEntity
  8
0
  6
Continuous
 62
     7
370
    25
100
AcDbLine
 10
639.8168208385
 20
544.8226131897
 30
0.0
 11
638.6567401302
 21
545.1295541455
 31
0.0
  0
LINE
  5
12F
330
1F
100
AcDbEntity
  8
0
  6
Continuous
 62
     7
370
    25
100
AcDbLine
 10
640.1365510008
 20
546.0310305941
 30
0.0
 11
639.8168208385
 21
544.8226131897
 31
0.0
  0
LINE
  5
130
330
1F
100
AcDbEntity
  8
0
  6
Continuous
 62
     7
370
    25
100
AcDbLine
 10
642.2618569452
 20
546.244512777
 30
0.0
 11
641.0534395408
 21
546.5642429393
 31
0.0
  0
LINE
  5
131
330
1F
100
AcDbEntity
  8
0
  6
Continuous
 62
     7
370
    25
100
AcDbLine
 10
642.5687979011
 20
547.4045934853
 30
0.0
 11
642.2618569452
 21
546.244512777
 31
0.0
  0
LINE
  5
132
330
1F
100
AcDbEntity
  8
0
  6
Continuous
 62
     7
370
    25
100
AcDbLine
 10
641.3603804967
 20
547.7243236476
 30
0.0
 11
642.5687979011
 21
547.4045934853
 31
0.0
  0
LINE
  5
133
330
1F
100
AcDbEntity
  8
0
  6
Continuous
 62
     7
370
    25
100
AcDbLine
 10
641.1468983137
 20
549.849629592
 30
0.0
 11
640.8271681514
 21
548.6412121876
 31
0.0
  0
LINE
  5
134
330
1F
100
AcDbEntity
  8
0
  6
Continuous
 62
     7
370
    25
100
AcDbLine
 10
639.9868176055
 20
550.1565705479
 30
0.0
 11
641.1468983137
 21
549.849629592
 31
0.0
  0
LINE
  5
135
330
1F
100
AcDbEntity
  8
0
  6
Continuous
 62
     7
370
    25
100
AcDbLine
 10
639.6670874432
 20
548.9481531435
 30
0.0
 11
639.9868176055
 21
550.1565705479
 31
0.0
  0
LINE
  5
136
330
1F
100
AcDbEntity
  8
0
  6
Continuous
 62
     7
370
    25
100
AcDbLine
 10
637.5417814987
 20
548.7346709605
 30
0.0
 11
638.7501989031
 21
548.4149407982
 31
0.0
  0
CIRCLE
  5
137
330
1F
100
AcDbEntity
  8
0
  6
Continuous
 62
     7
370
    25
100
AcDbCircle
 10
639.901819222
 20
547.4895918688
 30
0.0
 40
4.197433366238931
  0
SPLINE
  5
138
330
1F
100
AcDbEntity
  8
0
  6
Continuous
 62
     7
370
    25
100
AcDbSpline
210
0.0
220
0.0
230
1.0
 70
     8
 71
     3
 72
    12
 73
     8
 74
     0
 42
0.00000001
 43
0.00000001
 40
0.0
 40
0.0
 40
0.0
 40
0.0
 40
0.2133534395476122
 40
0.4267919313634442
 40
0.6383539739091508
 40
0.8490950351927531
 40
0.9999999999999999
 40
0.9999999999999999
 40
0.9999999999999999
 40
0.9999999999999999
 10
640.8271681513967
 20
548.641212187627
 30
0.0
 10
640.8136438184422
 20
548.5584236597064
 30
0.0
 10
640.7865897611262
 20
548.3928136006376
 30
0.0
 10
640.8524988592801
 20
548.1438358239619
 30
0.0
 10
640.9904095675377
 20
547.9324425063056
 30
0.0
 10
641.1706658850394
 20
547.7888990884578
 30
0.0
 10
641.3045248309791
 20
547.7433359113492
 30
0.0
 10
641.3603804966546
 20
547.7243236475828
 30
0.0
  0
SPLINE
  5
139
330
1F
100
AcDbEntity
  8
0
  6
Continuous
 62
     7
370
    25
100
AcDbSpline
210
0.0
220
0.0
230
1.0
 70
     8
 71
     3
 72
    12
 73
     8
 74
     0
 42
0.00000001
 43
0.00000001
 40
0.0
 40
0.0
 40
0.0
 40
0.0
 40
0.2133534395476116
 40
0.4267919313634462
 40
0.6383539739091479
 40
0.8490950351927574
 40
1.0
 40
1.0
 40
1.0
 40
1.0
 10
638.7501989031107
 20
548.4149407981984
 30
0.0
 10
638.8329874310314
 20
548.4014164652438
 30
0.0
 10
638.9985974901001
 20
548.3743624079278
 30
0.0
 10
639.2475752667758
 20
548.4402715060818
 30
0.0
 10
639.4589685844321
 20
548.5781822143393
 30
0.0
 10
639.6025120022798
 20
548.7584385318411
 30
0.0
 10
639.6480751793886
 20
548.8922974777807
 30
0.0
 10
639.6670874431551
 20
548.9481531434562
 30
0.0
  0
SPLINE
  5
13A
330
1F
100
AcDbEntity
  8
0
  6
Continuous
 62
     7
370
    25
100
AcDbSpline
210
0.0
220
0.0
230
1.0
 70
     8
 71
     3
 72
    12
 73
     8
 74
     0
 42
0.00000001
 43
0.00000001
 40
0.0
 40
0.0
 40
0.0
 40
0.0
 40
0.2133534395476124
 40
0.4267919313634466
 40
0.6383539739091505
 40
0.8490950351927581
 40
1.0
 40
1.0
 40
1.0
 40
1.0
 10
638.9764702925394
 20
546.3379715499124
 30
0.0
 10
638.989994625494
 20
546.420760077833
 30
0.0
 10
639.0170486828099
 20
546.5863701369018
 30
0.0
 10
638.951139584656
 20
546.8353479135775
 30
0.0
 10
638.8132288763985
 20
547.0467412312338
 30
0.0
 10
638.6329725588968
 20
547.1902846490815
 30
0.0
 10
638.499113612957
 20
547.2358478261903
 30
0.0
 10
638.4432579472815
 20
547.2548600899567
 30
0.0
  0
SPLINE
  5
13B
330
1F
100
AcDbEntity
  8
0
  6
Continuous
 62
     7
370
    25
100
AcDbSpline
210
0.0
220
0.0
230
1.0
 70
     8
 71
     3
 72
    12
 73
     8
 74
     0
 42
0.00000001
 43
0.00000001
 40
0.0
 40
0.0
 40
0.0
 40
0.0
 40
0.2133534395476112
 40
0.4267919313634456
 40
0.6383539739091519
 40
0.8490950351927574
 40
1.0
 40
1.0
 40
1.0
 40
1.0
 10
641.0534395408254
 20
546.564242939341
 30
0.0
 10
640.9706510129047
 20
546.5777672722955
 30
0.0
 10
640.8050409538359
 20
546.6048213296116
 30
0.0
 10
640.5560631771602
 20
546.5389122314575
 30
0.0
 10
640.344669859504
 20
546.4010015232001
 30
0.0
 10
640.2011264416562
 20
546.2207452056984
 30
0.0
 10
640.1555632645475
 20
546.0868862597586
 30
0.0
 10
640.1365510007811
 20
546.0310305940832
 30
0.0
  0
CIRCLE
  5
13C
330
1F
100
AcDbEntity
  8
0
  6
Continuous
 62
     7
370
    25
100
AcDbCircle
 10
639.901819222
 20
547.4895918688
 30
0.0
 40
4.500000000000089
  0
CIRCLE
  5
13D
330
1F
100
AcDbEntity
  8
0
  6
Continuous
 62
     7
370
    25
100
AcDbCircle
 10
538.301819222
 20
547.4895918688
 30
0.0
 40
5.328914336627577
  0
CIRCLE
  5
13E
330
1F
100
AcDbEntity
  8
0
  6
Continuous
 62
     7
370
    25
100
AcDbCircle
 10
538.301819222
 20
547.4895918688
 30
0.0
 40
5.074569253689219
  0
CIRCLE
  5
13F
330
1F
100
AcDbEntity
  8
0
  6
Continuous
 62
     7
370
    25
100
AcDbCircle
 10
538.301819222
 20
547.4895918688
 30
0.0
 40
5.925127771161442
  0
CIRCLE
  5
140
330
1F
100
AcDbEntity
  8
0
  6
Continuous
 62
     7
370
    25
100
AcDbCircle
 10
538.301819222
 20
547.4895918688
 30
0.0
 40
7.149999999999977
  0
SPLINE
  5
141
330
1F
100
AcDbEntity
  8
0
  6
Continuous
 62
     7
370
    25
100
AcDbSpline
210
0.0
220
0.0
230
1.0
 70
     8
 71
     3
 72
    11
 73
     7
 74
     0
 42
0.00000001
 43
0.00000001
 40
0.0
 40
0.0
 40
0.0
 40
0.0
 40
0.2200386424382248
 40
0.6637869905998172
 40
0.8890365590789576
 40
1.0
 40
1.0
 40
1.0
 40
1.0
 10
531.6242290773762
 20
541.714694850647
 30
0.0
 10
531.4200076143746
 20
541.9797134619059
 30
0.0
 10
530.8039360514911
 20
542.7791907922106
 30
0.0
 10
530.280386700474
 20
544.0423600627385
 30
0.0
 10
530.0287575007128
 20
545.2089298760626
 30
0.0
 10
530.0494646954352
 20
545.720209674722
 30
0.0
 10
530.0562988794611
 20
545.8889520021943
 30
0.0
  0
SPLINE
  5
142
330
1F
100
AcDbEntity
  8
0
  6
Continuous
 62
     7
370
    25
100
AcDbSpline
210
0.0
220
0.0
230
1.0
 70
     8
 71
     3
 72
     9
 73
     5
 74
     0
 42
0.00000001
 43
0.00000001
 40
0.0
 40
0.0
 40
0.0
 40
0.0
 40
0.9209630919903058
 40
1.0
 40
1.0
 40
1.0
 40
1.0
 10
529.9841867141288
 20
542.0350181262806
 30
0.0
 10
530.4986082520016
 20
541.978191067362
 30
0.0
 10
531.0571773655164
 20
541.9164871191659
 30
0.0
 10
531.5826938771859
 20
541.729475658278
 30
0.0
 10
531.6242290773762
 20
541.714694850647
 30
0.0
  0
SPLINE
  5
143
330
1F
100
AcDbEntity
  8
0
  6
Continuous
 62
     7
370
    25
100
AcDbSpline
210
0.0
220
0.0
230
1.0
 70
     8
 71
     3
 72
    10
 73
     6
 74
     0
 42
0.00000001
 43
0.00000001
 40
0.0
 40
0.0
 40
0.0
 40
0.0
 40
0.2596150688488839
 40
0.6297606444810658
 40
1.0
 40
1.0
 40
1.0
 40
1.0
 10
482.8090257601916
 20
544.6265756952696
 30
0.0
 10
486.8868459789146
 20
544.3268215581712
 30
0.0
 10
496.7786088122799
 20
543.5996936630071
 30
0.0
 10
512.5081814949532
 20
542.7738467931171
 30
0.0
 10
524.1583597562177
 20
542.2813151438512
 30
0.0
 10
529.9841867141288
 20
542.0350181262806
 30
0.0
  0
SPLINE
  5
144
330
1F
100
AcDbEntity
  8
0
  6
Continuous
 62
     7
370
    25
100
AcDbSpline
210
0.0
220
0.0
230
1.0
 70
     8
 71
     3
 72
    11
 73
     7
 74
     0
 42
0.00000001
 43
0.00000001
 40
0.0
 40
0.0
 40
0.0
 40
0.0
 40
0.0614641195413919
 40
0.4999988937835378
 40
0.9375097801832796
 40
1.0
 40
1.0
 40
1.0
 40
1.0
 10
482.8090257601918
 20
550.3526080422716
 30
0.0
 10
482.7973565639894
 20
550.2361510698195
 30
0.0
 10
482.7024298777201
 20
549.2887958024883
 30
0.0
 10
482.6187270504539
 20
547.4915516040401
 30
0.0
 10
482.7022969739741
 20
545.6923535797993
 30
0.0
 10
482.7971686790193
 20
544.7449787553661
 30
0.0
 10
482.8090257601916
 20
544.6265756952696
 30
0.0
  0
SPLINE
  5
145
330
1F
100
AcDbEntity
  8
0
  6
Continuous
 62
     7
370
    25
100
AcDbSpline
210
0.0
220
0.0
230
1.0
 70
     8
 71
     3
 72
    11
 73
     7
 74
     0
 42
0.00000001
 43
0.00000001
 40
0.0
 40
0.0
 40
0.0
 40
0.0
 40
0.2594589277291888
 40
0.6296002946237422
 40
0.8147836738016292
 40
1.0
 40
1.0
 40
1.0
 40
1.0
 10
529.9841867141288
 20
552.9441656112588
 30
0.0
 10
525.9011860647838
 20
552.7786670248379
 30
0.0
 10
515.9934197979794
 20
552.3770699023863
 30
0.0
 10
503.1782828390184
 20
551.698817086363
 30
0.0
 10
491.5340105727588
 20
551.0213961941508
 30
0.0
 10
485.7175264896262
 20
550.5755506455386
 30
0.0
 10
482.8090257601918
 20
550.3526080422716
 30
0.0
  0
SPLINE
  5
146
330
1F
100
AcDbEntity
  8
0
  6
Continuous
 62
     7
370
    25
100
AcDbSpline
210
0.0
220
0.0
230
1.0
 70
     8
 71
     3
 72
     9
 73
     5
 74
     0
 42
0.00000001
 43
0.00000001
 40
0.0
 40
0.0
 40
0.0
 40
0.0
 40
0.0790369080192175
 40
1.0
 40
1.0
 40
1.0
 40
1.0
 10
531.6242290773754
 20
553.2644888868922
 30
0.0
 10
531.5826938771801
 20
553.2497080792593
 30
0.0
 10
531.0571773655107
 20
553.0626966183714
 30
0.0
 10
530.4986082519961
 20
553.0009926701762
 30
0.0
 10
529.9841867141288
 20
552.9441656112588
 30
0.0
  0
SPLINE
  5
147
330
1F
100
AcDbEntity
  8
0
  6
Continuous
 62
     7
370
    25
100
AcDbSpline
210
0.0
220
0.0
230
1.0
 70
     8
 71
     3
 72
    11
 73
     7
 74
     0
 42
0.00000001
 43
0.00000001
 40
0.0
 40
0.0
 40
0.0
 40
0.0
 40
0.0728838064943292
 40
0.4140719411596028
 40
0.9209668754550557
 40
1.0
 40
1.0
 40
1.0
 40
1.0
 10
530.056298879465
 20
549.0902317353302
 30
0.0
 10
530.0485837303272
 20
549.2006781695693
 30
0.0
 10
530.0047519529627
 20
549.8281532099003
 30
0.0
 10
530.3492436644008
 20
551.2111452403653
 30
0.0
 10
530.9889330138872
 20
552.4810767581429
 30
0.0
 10
531.5487217633199
 20
553.1713774243159
 30
0.0
 10
531.6242290773754
 20
553.2644888868922
 30
0.0
  0
SPLINE
  5
148
330
1F
100
AcDbEntity
  8
0
  6
Continuous
 62
     7
370
    25
100
AcDbSpline
210
0.0
220
0.0
230
1.0
 70
     8
 71
     3
 72
    10
 73
     6
 74
     0
 42
0.00000001
 43
0.00000001
 40
0.0
 40
0.0
 40
0.0
 40
0.0
 40
0.3880207377811387
 40
0.979063776650686
 40
1.0
 40
1.0
 40
1.0
 40
1.0
 10
530.0562988794611
 20
545.8889520021943
 30
0.0
 10
530.1296134102206
 20
546.2997918640501
 30
0.0
 10
530.3146024955438
 20
547.3364334338984
 30
0.0
 10
530.2188955697128
 20
548.4302027554696
 30
0.0
 10
530.061677418465
 20
549.0683986241891
 30
0.0
 10
530.056298879465
 20
549.0902317353302
 30
0.0
  0
ARC
  5
149
330
1F
100
AcDbEntity
  8
0
  6
Continuous
 62
     7
370
    25
100
AcDbCircle
 10
538.301819222
 20
547.4895918688
 30
0.0
 40
8.399443654264694
100
AcDbArc
 50
190.985757993
 51
169.0142420071
  0
SPLINE
  5
14A
330
1F
100
AcDbEntity
  8
0
  6
Continuous
 62
     7
370
    25
100
AcDbSpline
210
0.0
220
0.0
230
1.0
 70
     8
 71
     3
 72
     9
 73
     5
 74
     0
 42
0.00000001
 43
0.00000001
 40
0.0
 40
0.0
 40
0.0
 40
0.0
 40
0.6817923421274298
 40
1.0
 40
1.0
 40
1.0
 40
1.0
 10
531.6242290773754
 20
553.2644888868922
 30
0.0
 10
531.7664926380185
 20
553.4543992419973
 30
0.0
 10
531.9751537681789
 20
553.7329449858707
 30
0.0
 10
532.2045796020592
 20
553.9658493588138
 30
0.0
 10
532.2775846593138
 20
554.0399613138362
 30
0.0
  0
ARC
  5
14B
330
1F
100
AcDbEntity
  8
0
  6
Continuous
 62
     7
370
    25
100
AcDbCircle
 10
538.301819222
 20
547.4895918688
 30
0.0
 40
8.899367501836373
100
AcDbArc
 50
227.3959191961
 51
132.6040808039
  0
LINE
  5
14C
330
1F
100
AcDbEntity
  8
0
  6
Continuous
 62
     7
370
    25
100
AcDbLine
 10
532.2775846593
 20
540.9392224237
 30
0.0
 11
531.6242290774
 21
541.7146948506
 31
0.0
  0
SPLINE
  5
14D
330
1F
100
AcDbEntity
  8
0
  6
Continuous
 62
     7
370
    25
100
AcDbSpline
210
0.0
220
0.0
230
1.0
 70
     8
 71
     3
 72
    10
 73
     6
 74
     0
 42
0.00000001
 43
0.00000001
 40
0.0
 40
0.0
 40
0.0
 40
0.0
 40
0.3702896688583042
 40
0.7405318123903297
 40
0.9999999999999999
 40
0.9999999999999999
 40
0.9999999999999999
 40
0.9999999999999999
 10
482.7975062970133
 20
550.7954676231049
 30
0.0
 10
488.6175701432318
 20
551.1156586376311
 30
0.0
 10
500.2569508517354
 20
551.7559995713367
 30
0.0
 10
515.9758192585102
 20
552.6252339032
 30
0.0
 10
525.87299307452
 20
553.1739749048091
 30
0.0
 10
529.9510613949841
 20
553.4000801886409
 30
0.0
  0
ARC
  5
14E
330
1F
100
AcDbEntity
  8
0
  6
Continuous
 62
     7
370
    25
100
AcDbCircle
 10
522.7359721877
 20
552.646693822
 30
0.0
 40
7.254316183211497
100
AcDbArc
 50
2.3501399448
 51
5.9611177314
  0
ARC
  5
14F
330
1F
100
AcDbEntity
  8
0
  6
Continuous
 62
     7
370
    25
100
AcDbCircle
 10
487.0580288382
 20
550.6847107991
 30
0.0
 40
4.261961918920444
100
AcDbArc
 50
178.5108705387
 51
184.4691613064
  0
SPLINE
  5
150
330
1F
100
AcDbEntity
  8
0
  6
Continuous
 62
     7
370
    25
100
AcDbSpline
210
0.0
220
0.0
230
1.0
 70
     8
 71
     3
 72
    10
 73
     6
 74
     0
 42
0.00000001
 43
0.00000001
 40
0.0
 40
0.0
 40
0.0
 40
0.0
 40
0.3702717503651156
 40
0.7405122151371748
 40
1.0
 40
1.0
 40
1.0
 40
1.0
 10
529.9510613949841
 20
541.5791035488985
 30
0.0
 10
524.1313893333149
 20
541.9016320345664
 30
0.0
 10
512.492536935018
 20
542.5466617543094
 30
0.0
 10
496.7733973510635
 20
543.4154762417884
 30
0.0
 10
486.8758999273647
 20
543.9595311525552
 30
0.0
 10
482.7975062970168
 20
544.1837161144344
 30
0.0
  0
ARC
  5
151
330
1F
100
AcDbEntity
  8
0
  6
Continuous
 62
     7
370
    25
100
AcDbCircle
 10
487.0580288412
 20
544.2944729384
 30
0.0
 40
4.261961921853577
100
AcDbArc
 50
175.5308386961
 51
181.4891294598
  0
ARC
  5
152
330
1F
100
AcDbEntity
  8
0
  6
Continuous
 62
     7
370
    25
100
AcDbCircle
 10
522.7359721877
 20
542.3324899156
 30
0.0
 40
7.254316183254343
100
AcDbArc
 50
354.0388822686
 51
357.6498600552
  0
SPLINE
  5
153
330
1F
100
AcDbEntity
  8
0
  6
Continuous
 62
     7
370
    25
100
AcDbSpline
210
0.0
220
0.0
230
1.0
 70
     8
 71
     3
 72
    12
 73
     8
 74
     0
 42
0.00000001
 43
0.00000001
 40
0.0
 40
0.0
 40
0.0
 40
0.0
 40
0.1224290494151362
 40
0.3423522449770489
 40
0.5614228816909436
 40
0.7807229538533521
 40
1.0
 40
1.0
 40
1.0
 40
1.0
 10
480.8732983273441
 20
544.7372500649259
 30
0.0
 10
480.8823024032082
 20
544.734891380485
 30
0.0
 10
480.9074807869393
 20
544.7282957161602
 30
0.0
 10
481.1234684705839
 20
544.711287748421
 30
0.0
 10
481.559366600313
 20
544.6857767742665
 30
0.0
 10
482.1432922137432
 20
544.6562245917073
 30
0.0
 10
482.5871223453113
 20
544.6364583148282
 30
0.0
 10
482.8090257601916
 20
544.6265756952696
 30
0.0
  0
SPLINE
  5
154
330
1F
100
AcDbEntity
  8
0
  6
Continuous
 62
     7
370
    25
100
AcDbSpline
210
0.0
220
0.0
230
1.0
 70
     8
 71
     3
 72
    11
 73
     7
 74
     0
 42
0.00000001
 43
0.00000001
 40
0.0
 40
0.0
 40
0.0
 40
0.0
 40
0.0800485240044433
 40
0.5000005853538798
 40
0.9209248322279645
 40
1.0
 40
1.0
 40
1.0
 40
1.0
 10
480.8732983273441
 20
544.7372500649259
 30
0.0
 10
480.8735845717583
 20
544.8834944900265
 30
0.0
 10
480.8753725169628
 20
545.7969691488597
 30
0.0
 10
480.8766082137928
 20
547.4913787366181
 30
0.0
 10
480.875370515698
 20
549.1840055884728
 30
0.0
 10
480.8735812937299
 20
550.0974689641167
 30
0.0
 10
480.8732983273441
 20
550.241933672608
 30
0.0
  0
SPLINE
  5
155
330
1F
100
AcDbEntity
  8
0
  6
Continuous
 62
     7
370
    25
100
AcDbSpline
210
0.0
220
0.0
230
1.0
 70
     8
 71
     3
 72
    12
 73
     8
 74
     0
 42
0.00000001
 43
0.00000001
 40
0.0
 40
0.0
 40
0.0
 40
0.0
 40
0.1130367476169282
 40
0.3328594693547963
 40
0.5544127937944965
 40
0.7774207483513224
 40
1.0
 40
1.0
 40
1.0
 40
1.0
 10
482.8090257601918
 20
550.3526080422716
 30
0.0
 10
482.6949549202049
 20
550.3475927965702
 30
0.0
 10
482.359050357597
 20
550.3328243955143
 30
0.0
 10
481.8249825012023
 20
550.3072321914051
 30
0.0
 10
481.3084568633151
 20
550.2793569285341
 30
0.0
 10
480.9515621461607
 20
550.2559150549436
 30
0.0
 10
480.8993695286422
 20
550.2465911431839
 30
0.0
 10
480.8732983273441
 20
550.241933672608
 30
0.0
  0
SPLINE
  5
156
330
1F
100
AcDbEntity
  8
0
  6
Continuous
 62
     7
370
    25
100
AcDbSpline
210
0.0
220
0.0
230
1.0
 70
     8
 71
     3
 72
     9
 73
     5
 74
     0
 42
0.00000001
 43
0.00000001
 40
0.0
 40
0.0
 40
0.0
 40
0.0
 40
0.5000106123815449
 40
1.0
 40
1.0
 40
1.0
 40
1.0
 10
532.7771925081566
 20
540.5073907344567
 30
0.0
 10
532.3474711413359
 20
540.79523127255
 30
0.0
 10
531.4880466487753
 20
541.3709001303015
 30
0.0
 10
530.463382563497
 20
541.5097033913883
 30
0.0
 10
529.9510613949841
 20
541.5791035488985
 30
0.0
  0
SPLINE
  5
157
330
1F
100
AcDbEntity
  8
0
  6
Continuous
 62
     7
370
    25
100
AcDbSpline
210
0.0
220
0.0
230
1.0
 70
     8
 71
     3
 72
     9
 73
     5
 74
     0
 42
0.00000001
 43
0.00000001
 40
0.0
 40
0.0
 40
0.0
 40
0.0
 40
0.9838702326459322
 40
1.0
 40
1.0
 40
1.0
 40
1.0
 10
532.2775846593138
 20
540.9392224237031
 30
0.0
 10
532.4389254742481
 20
540.7943900106841
 30
0.0
 10
532.6029113430963
 20
540.6471831858272
 30
0.0
 10
532.7744260163788
 20
540.5096097617808
 30
0.0
 10
532.7771925081566
 20
540.5073907344567
 30
0.0
  0
SPLINE
  5
158
330
1F
100
AcDbEntity
  8
0
  6
Continuous
 62
     7
370
    25
100
AcDbSpline
210
0.0
220
0.0
230
1.0
 70
     8
 71
     3
 72
     9
 73
     5
 74
     0
 42
0.00000001
 43
0.00000001
 40
0.0
 40
0.0
 40
0.0
 40
0.0
 40
0.5055561057107315
 40
1.0
 40
1.0
 40
1.0
 40
1.0
 10
529.9510613949841
 20
553.4000801886409
 30
0.0
 10
530.4691209123172
 20
553.470736222911
 30
0.0
 10
531.4938529083925
 20
553.6104952594884
 30
0.0
 10
532.3525934771541
 20
554.1868285342841
 30
0.0
 10
532.7771925081566
 20
554.4717930030826
 30
0.0
  0
SPLINE
  5
159
330
1F
100
AcDbEntity
  8
0
  6
Continuous
 62
     7
370
    25
100
AcDbSpline
210
0.0
220
0.0
230
1.0
 70
     8
 71
     3
 72
     9
 73
     5
 74
     0
 42
0.00000001
 43
0.00000001
 40
0.0
 40
0.0
 40
0.0
 40
0.0
 40
0.0161297673533178
 40
1.0
 40
1.0
 40
1.0
 40
1.0
 10
532.7771925081566
 20
554.4717930030826
 30
0.0
 10
532.7744260163789
 20
554.4695739757586
 30
0.0
 10
532.6029113430922
 20
554.3320005517091
 30
0.0
 10
532.438925474246
 20
554.1847937268539
 30
0.0
 10
532.2775846593138
 20
554.0399613138362
 30
0.0
  0
SPLINE
  5
15A
330
1F
100
AcDbEntity
  8
0
  6
Continuous
 62
     7
370
    25
100
AcDbSpline
210
0.0
220
0.0
230
1.0
 70
     8
 71
     3
 72
    12
 73
     8
 74
     0
 42
0.00000001
 43
0.00000001
 40
0.0
 40
0.0
 40
0.0
 40
0.0
 40
0.2230315344150378
 40
0.4461337558340359
 40
0.6675099896777023
 40
0.8870667292265011
 40
1.0
 40
1.0
 40
1.0
 40
1.0
 10
481.3456525924286
 20
550.7410967436564
 30
0.0
 10
481.3651863785545
 20
550.7392064963617
 30
0.0
 10
481.404260141791
 20
550.7354254026823
 30
0.0
 10
481.6718493238471
 20
550.742368238953
 30
0.0
 10
482.0593784076723
 20
550.7579570614427
 30
0.0
 10
482.4601005201353
 20
550.7772943415071
 30
0.0
 10
482.7119599423932
 20
550.7908599426834
 30
0.0
 10
482.7975062970133
 20
550.7954676231049
 30
0.0
  0
ARC
  5
15B
330
1F
100
AcDbEntity
  8
0
  6
Continuous
 62
     7
370
    25
100
AcDbCircle
 10
481.3733982149
 20
550.2417670873
 30
0.0
 40
0.500099915347071
100
AcDbArc
 50
93.1804119247
 51
179.9809145383
  0
SPLINE
  5
15C
330
1F
100
AcDbEntity
  8
0
  6
Continuous
 62
     7
370
    25
100
AcDbSpline
210
0.0
220
0.0
230
1.0
 70
     8
 71
     3
 72
    12
 73
     8
 74
     0
 42
0.00000001
 43
0.00000001
 40
0.0
 40
0.0
 40
0.0
 40
0.0
 40
0.2190444340109337
 40
0.4380981679380299
 40
0.6571027493691836
 40
0.8772791087290026
 40
1.0
 40
1.0
 40
1.0
 40
1.0
 10
482.7975062970168
 20
544.1837161144344
 30
0.0
 10
482.6310885562459
 20
544.1925449273841
 30
0.0
 10
482.2982460091468
 20
544.2102029281264
 30
0.0
 10
481.8600875665036
 20
544.2297214175354
 30
0.0
 10
481.5331217397442
 20
544.2410272011678
 30
0.0
 10
481.3712778627299
 20
544.2428510692445
 30
0.0
 10
481.3524065303178
 20
544.2393426399195
 30
0.0
 10
481.3456525924286
 20
544.238086993883
 30
0.0
  0
ARC
  5
15D
330
1F
100
AcDbEntity
  8
0
  6
Continuous
 62
     7
370
    25
100
AcDbCircle
 10
481.3733982149
 20
544.7374166503
 30
0.0
 40
0.500099915347029
100
AcDbArc
 50
180.0190854623
 51
266.8195880753
  0
LINE
  5
15E
330
1F
100
AcDbEntity
  8
0
  6
Continuous
 62
     7
370
    25
100
AcDbLine
 10
529.951061395
 20
553.4000801886
 30
0.0
 11
529.9240752133
 21
553.471370464
 31
0.0
  0
LINE
  5
15F
330
1F
100
AcDbEntity
  8
0
  6
Continuous
 62
     7
370
    25
100
AcDbLine
 10
481.3409622318
 20
550.7455351967
 30
0.0
 11
481.3456525924
 21
550.7410967437
 31
0.0
  0
ELLIPSE
  5
160
330
1F
100
AcDbEntity
  8
0
  6
Continuous
 62
     7
370
    25
100
AcDbEllipse
 10
482.8407337745
 20
550.8288276467
 30
0.0
 11
1.499999304622804
 21
0.0828726334386829
 31
0.0
210
0.0
220
0.0
230
1.0
 40
0.0174284859
 41
2.255125316696395
 42
3.158083049610984
  0
LINE
  5
161
330
1F
100
AcDbEntity
  8
0
  6
Continuous
 62
     7
370
    25
100
AcDbLine
 10
485.3563484435
 20
551.0375872347
 30
0.0
 11
481.8913852341
 21
550.7966959558
 31
0.0
  0
LINE
  5
162
330
1F
100
AcDbEntity
  8
0
  6
Continuous
 62
     7
370
    25
100
AcDbLine
 10
485.3563484435
 20
551.0374888435
 30
0.0
 11
485.3563484435
 21
551.0375872347
 31
0.0
  0
ELLIPSE
  5
163
330
1F
100
AcDbEntity
  8
0
  6
Continuous
 62
     7
370
    25
100
AcDbEllipse
 10
494.8058348645
 20
551.367134895
 30
0.0
 11
14.49999327802044
 21
0.8011021232407529
 31
0.0
210
0.0
220
0.0
230
1.0
 40
0.0174284859
 41
1.543516838852422
 42
2.27964217540771
  0
ELLIPSE
  5
164
330
1F
100
AcDbEntity
  8
0
  6
Continuous
 62
     7
370
    25
100
AcDbEllipse
 10
496.12684478
 20
552.3174184443
 30
0.0
 11
35.70262504606006
 21
1.972514619921981
 31
0.0
210
0.0
220
0.0
230
1.0
 40
0.0174284859
 41
4.685109492442209
 42
5.167309992308033
  0
ELLIPSE
  5
165
330
1F
100
AcDbEntity
  8
0
  6
Continuous
 62
     7
370
    25
100
AcDbEllipse
 10
515.1470722521
 20
552.689814504
 30
0.0
 11
7.499996523113964
 21
0.4143631671934145
 31
0.0
210
0.0
220
0.0
230
1.0
 40
0.0174284859
 41
1.834826681008196
 42
2.025717338718135
  0
LINE
  5
166
330
1F
100
AcDbEntity
  8
0
  6
Continuous
 62
     7
370
    25
100
AcDbLine
 10
513.202419851
 20
552.5574700528
 30
0.0
 11
513.1828015936
 21
552.7078605974
 31
0.0
  0
SPLINE
  5
167
330
1F
100
AcDbEntity
  8
0
  6
Continuous
 62
     7
370
    25
100
AcDbSpline
210
0.0
220
0.0
230
1.0
 70
     8
 71
     3
 72
    10
 73
     6
 74
     0
 42
0.00000001
 43
0.00000001
 40
0.0
 40
0.0
 40
0.0
 40
0.0
 40
0.0186368637457406
 40
0.3939469944633167
 40
1.0
 40
1.0
 40
1.0
 40
1.0
 10
513.3861911367144
 20
552.5579564200449
 30
0.0
 10
513.3837349294656
 20
552.5578686695654
 30
0.0
 10
513.3318154929884
 20
552.5560137953727
 30
0.0
 10
513.2278166445108
 20
552.5533338139944
 30
0.0
 10
513.2121159871614
 20
552.555890895392
 30
0.0
 10
513.2024198510179
 20
552.5574700527999
 30
0.0
  0
LINE
  5
168
330
1F
100
AcDbEntity
  8
0
  6
Continuous
 62
     7
370
    25
100
AcDbLine
 10
529.9240752133
 20
553.471370464
 30
0.0
 11
513.3861911367
 21
552.55795642
 31
0.0
  0
LINE
  5
169
330
1F
100
AcDbEntity
  8
0
  6
Continuous
 62
     7
370
    25
100
AcDbLine
 10
513.3841254048
 20
542.4050236687
 30
0.0
 11
529.9180338282
 21
541.4918292065
 31
0.0
  0
SPLINE
  5
16A
330
1F
100
AcDbEntity
  8
0
  6
Continuous
 62
     7
370
    25
100
AcDbSpline
210
0.0
220
0.0
230
1.0
 70
     8
 71
     3
 72
    11
 73
     7
 74
     0
 42
0.00000001
 43
0.00000001
 40
0.0
 40
0.0
 40
0.0
 40
0.0
 40
0.417746929449536
 40
0.8392770662410924
 40
0.9817832068819766
 40
1.0
 40
1.0
 40
1.0
 40
1.0
 10
513.200419964146
 20
542.406373113953
 30
0.0
 10
513.2050569921779
 20
542.4074563051366
 30
0.0
 10
513.2143730421792
 20
542.4096324971197
 30
0.0
 10
513.2898695079293
 20
542.4084303202284
 30
0.0
 10
513.3601297085014
 20
542.4059597928883
 30
0.0
 10
513.381682545159
 20
542.4051189699313
 30
0.0
 10
513.3841254047891
 20
542.4050236686728
 30
0.0
  0
LINE
  5
16B
330
1F
100
AcDbEntity
  8
0
  6
Continuous
 62
     7
370
    25
100
AcDbLine
 10
513.1828015936
 20
542.2713231402
 30
0.0
 11
513.2004199641
 21
542.406373114
 31
0.0
  0
ELLIPSE
  5
16C
330
1F
100
AcDbEntity
  8
0
  6
Continuous
 62
     7
370
    25
100
AcDbEllipse
 10
515.1470722521
 20
542.2893692335
 30
0.0
 11
7.499996523113964
 21
-0.4143631671934145
 31
0.0
210
0.0
220
0.0
230
1.0
 40
0.0174284859
 41
4.257467968461606
 42
4.448358626171672
  0
ELLIPSE
  5
16D
330
1F
100
AcDbEntity
  8
0
  6
Continuous
 62
     7
370
    25
100
AcDbEllipse
 10
496.12684478
 20
542.6617652933
 30
0.0
 11
35.70262504606018
 21
-1.972514619921867
 31
0.0
210
0.0
220
0.0
230
1.0
 40
0.0174284859
 41
1.115875314871752
 42
1.598075814737379
  0
ELLIPSE
  5
16E
330
1F
100
AcDbEntity
  8
0
  6
Continuous
 62
     7
370
    25
100
AcDbEllipse
 10
494.8058348645
 20
543.6120488426
 30
0.0
 11
14.49999327802044
 21
-0.8011021232408666
 31
0.0
210
0.0
220
0.0
230
1.0
 40
0.0174284859
 41
4.003543131772627
 42
4.739668468327141
  0
LINE
  5
16F
330
1F
100
AcDbEntity
  8
0
  6
Continuous
 62
     7
370
    25
100
AcDbLine
 10
485.3563484435
 20
543.9415965028
 30
0.0
 11
485.3563484435
 21
543.941694894
 31
0.0
  0
LINE
  5
170
330
1F
100
AcDbEntity
  8
0
  6
Continuous
 62
     7
370
    25
100
AcDbLine
 10
481.8913852341
 20
544.1824877818
 30
0.0
 11
485.3563484435
 21
543.9415965028
 31
0.0
  0
ELLIPSE
  5
171
330
1F
100
AcDbEntity
  8
0
  6
Continuous
 62
     7
370
    25
100
AcDbEllipse
 10
482.8407337745
 20
544.1503560908
 30
0.0
 11
1.499999304622804
 21
-0.08287263343856921
 31
0.0
210
0.0
220
0.0
230
1.0
 40
0.0174284859
 41
3.644539868567062
 42
4.028059990476914
  0
LINE
  5
172
330
1F
100
AcDbEntity
  8
0
  6
Continuous
 62
     7
370
    25
100
AcDbLine
 10
481.3456525924
 20
544.2380869939
 30
0.0
 11
481.3409622318
 21
544.2336485408
 31
0.0
  0
LINE
  5
173
330
1F
100
AcDbEntity
  8
0
  6
Continuous
 62
     7
370
    25
100
AcDbLine
 10
529.9180338282
 20
541.4918292065
 30
0.0
 11
529.951061395
 21
541.5791035489
 31
0.0
  0
SPLINE
  5
174
330
1F
100
AcDbEntity
  8
0
  6
Continuous
 62
     7
370
    25
100
AcDbSpline
210
0.0
220
0.0
230
1.0
 70
     8
 71
     3
 72
     9
 73
     5
 74
     0
 42
0.00000001
 43
0.00000001
 40
0.0
 40
0.0
 40
0.0
 40
0.0
 40
0.5001021276704715
 40
0.9999999999999999
 40
0.9999999999999999
 40
0.9999999999999999
 40
0.9999999999999999
 10
532.7439736421012
 20
554.5374844500427
 30
0.0
 10
532.3150258663939
 20
554.2509588159542
 30
0.0
 10
531.4573055089434
 20
553.6780245726565
 30
0.0
 10
530.4350823803283
 20
553.5402457862023
 30
0.0
 10
529.9240752132876
 20
553.4713704640018
 30
0.0
  0
LINE
  5
175
330
1F
100
AcDbEntity
  8
0
  6
Continuous
 62
     7
370
    25
100
AcDbLine
 10
532.7439736421
 20
554.53748445
 30
0.0
 11
532.7771925082
 21
554.4717930031
 31
0.0
  0
SPLINE
  5
176
330
1F
100
AcDbEntity
  8
0
  6
Continuous
 62
     7
370
    25
100
AcDbSpline
210
0.0
220
0.0
230
1.0
 70
     8
 71
     3
 72
     9
 73
     5
 74
     0
 42
0.00000001
 43
0.00000001
 40
0.0
 40
0.0
 40
0.0
 40
0.0
 40
0.4007227371565292
 40
1.0
 40
1.0
 40
1.0
 40
1.0
 10
529.9180338282359
 20
541.4918292064583
 30
0.0
 10
530.3267199516451
 20
541.4434219443926
 30
0.0
 10
531.3465925106849
 20
541.3226220556488
 30
0.0
 10
532.2156685545109
 20
540.7625147822952
 30
0.0
 10
532.7364860672576
 20
540.4268552286211
 30
0.0
  0
LINE
  5
177
330
1F
100
AcDbEntity
  8
0
  6
Continuous
 62
     7
370
    25
100
AcDbLine
 10
532.7771925082
 20
540.5073907345
 30
0.0
 11
532.7364860673
 21
540.4268552286
 31
0.0
  0
ARC
  5
178
330
1F
100
AcDbEntity
  8
0
  6
Continuous
 62
     7
370
    25
100
AcDbCircle
 10
538.301819222
 20
547.4895918688
 30
0.0
 40
8.975658044222124
100
AcDbArc
 50
65.1648853947
 51
128.2586979829
  0
LWPOLYLINE
  5
179
330
1F
100
AcDbEntity
  8
0
  6
Continuous
 62
     7
370
    25
100
AcDbPolyline
 90
        3
 70
   128
 43
0.0
 10
542.2371326462
 20
555.7402515921
 10
542.1325510821
 20
555.6739991808
 10
542.0716705394
 20
555.6351832145
  0
ARC
  5
17A
330
1F
100
AcDbEntity
  8
0
  6
Continuous
 62
     7
370
    25
100
AcDbCircle
 10
538.301819222
 20
547.4895918688
 30
0.0
 40
9.141120151092158
100
AcDbArc
 50
295.4997164176
 51
64.5002794289
  0
LWPOLYLINE
  5
17B
330
1F
100
AcDbEntity
  8
0
  6
Continuous
 62
     7
370
    25
100
AcDbPolyline
 90
        3
 70
   128
 43
0.0
 10
542.0879634498
 20
539.3335944523
 10
542.1325510821
 20
539.3051845567
 10
542.2371326465
 20
539.2389321453
  0
ARC
  5
17C
330
1F
100
AcDbEntity
  8
0
  6
Continuous
 62
     7
370
    25
100
AcDbCircle
 10
538.301819222
 20
547.4895918688
 30
0.0
 40
8.991950954660766
100
AcDbArc
 50
231.762407147
 51
294.9014811666
  0
LINE
  5
17D
330
1F
100
AcDbEntity
  8
0
  6
Continuous
 62
     7
370
    25
100
AcDbLine
 10
480.8686079667
 20
544.7328116119
 30
0.0
 11
480.8732983273
 21
544.7372500649
 31
0.0
  0
LINE
  5
17E
330
1F
100
AcDbEntity
  8
0
  6
Continuous
 62
     7
370
    25
100
AcDbLine
 10
480.8686079667
 20
550.2463721257
 30
0.0
 11
480.8686079667
 21
544.7328116119
 31
0.0
  0
LINE
  5
17F
330
1F
100
AcDbEntity
  8
0
  6
Continuous
 62
     7
370
    25
100
AcDbLine
 10
480.8732983273
 20
550.2419336726
 30
0.0
 11
480.8686079667
 21
550.2463721257
 31
0.0
  0
ARC
  5
180
330
1F
100
AcDbEntity
  8
0
  6
Continuous
 62
     7
370
    25
100
AcDbCircle
 10
481.3687078543
 20
544.7329781972
 30
0.0
 40
0.5000999153468345
100
AcDbArc
 50
180.0190854617
 51
266.8195880753
  0
ARC
  5
181
330
1F
100
AcDbEntity
  8
0
  6
Continuous
 62
     7
370
    25
100
AcDbCircle
 10
481.3687078543
 20
550.2462055403
 30
0.0
 40
0.5000999153468566
100
AcDbArc
 50
93.1804119247
 51
179.9809145383
  0
LINE
  5
182
330
1F
100
AcDbEntity
  8
0
  6
Continuous
 62
     7
370
    25
100
AcDbLine
 10
481.8913852341
 20
550.7966959558
 30
0.0
 11
481.8842775033
 21
550.7963289191
 31
0.0
  0
LINE
  5
183
330
1F
100
AcDbEntity
  8
0
  6
Continuous
 62
     7
370
    25
100
AcDbLine
 10
481.8913852341
 20
544.1824877818
 30
0.0
 11
481.8842775033
 21
544.1828548184
 31
0.0
  0
SPLINE
  5
184
330
1F
100
AcDbEntity
  8
0
  6
Continuous
 62
     7
370
    25
100
AcDbSpline
210
0.0
220
0.0
230
1.0
 70
     8
 71
     3
 72
    12
 73
     8
 74
     0
 42
0.00000001
 43
0.00000001
 40
0.0
 40
0.0
 40
0.0
 40
0.0
 40
0.1345419440893856
 40
0.4125227334043401
 40
0.6966514762099312
 40
0.8475579366075728
 40
1.0
 40
1.0
 40
1.0
 40
1.0
 10
542.072449145792
 20
555.63598983159
 30
0.0
 10
541.643091722362
 20
555.8268152781825
 30
0.0
 10
540.3266271869375
 20
556.4119103975088
 30
0.0
 10
537.9529992429151
 20
557.0368590462997
 30
0.0
 10
535.4280528108413
 20
557.3382146817922
 30
0.0
 10
533.2831150920642
 20
557.4438013513967
 30
0.0
 10
532.1467673853786
 20
557.4494343190934
 30
0.0
 10
531.5757173371564
 20
557.4522650604729
 30
0.0
  0
ARC
  5
185
330
1F
100
AcDbEntity
  8
0
  6
Continuous
 62
     7
370
    25
100
AcDbCircle
 10
536.0682483302
 20
556.8324410159
 30
0.0
 40
4.535087272524614
100
AcDbArc
 50
149.0284626407
 51
172.1446266983
  0
SPLINE
  5
186
330
1F
100
AcDbEntity
  8
0
  6
Continuous
 62
     7
370
    25
100
AcDbSpline
210
0.0
220
0.0
230
1.0
 70
     8
 71
     3
 72
    12
 73
     8
 74
     0
 42
0.00000001
 43
0.00000001
 40
0.0
 40
0.0
 40
0.0
 40
0.0
 40
0.1662426524176543
 40
0.3368059756191302
 40
0.6054181071254584
 40
0.8801435087136191
 40
1.0
 40
1.0
 40
1.0
 40
1.0
 10
532.1797599746575
 20
559.1662522504407
 30
0.0
 10
532.8174414951936
 20
559.0107670749577
 30
0.0
 10
534.1093779719941
 20
558.6957556416024
 30
0.0
 10
536.2935643543436
 20
558.0327905366039
 30
0.0
 10
538.6555386979034
 20
557.1805956197985
 30
0.0
 10
540.6210762597959
 20
556.3379669411864
 30
0.0
 10
541.7348512445915
 20
555.8001088484912
 30
0.0
 10
542.0731667227491
 20
555.636731397664
 30
0.0
  0
LINE
  5
187
330
1F
100
AcDbEntity
  8
0
  6
Continuous
 62
     7
370
    25
100
AcDbLine
 10
542.0731667227
 20
555.6367313977
 30
0.0
 11
542.0724491458
 21
555.6359898316
 31
0.0
  0
LINE
  5
188
330
1F
100
AcDbEntity
  8
0
  6
Continuous
 62
     7
370
    25
100
AcDbLine
 10
532.1797599747
 20
559.1662522504
 30
0.0
 11
532.1956180516
 21
559.235725782
 31
0.0
  0
ARC
  5
189
330
1F
100
AcDbEntity
  8
0
  6
Continuous
 62
     7
370
    25
100
AcDbCircle
 10
521.4738398151
 20
512.2640909698
 30
0.0
 40
48.17977797259051
100
AcDbArc
 50
64.4718479123
 51
77.1419190681
  0
LWPOLYLINE
  5
18A
330
1F
100
AcDbEntity
  8
0
  6
Continuous
 62
     7
370
    25
100
AcDbPolyline
 90
        3
 70
   128
 43
0.0
 10
542.0731667227
 20
555.6367313977
 10
542.1325545731
 20
555.6742551012
 10
542.2371326459
 20
555.7402531311
  0
LINE
  5
18B
330
1F
100
AcDbEntity
  8
0
  6
Continuous
 62
     7
370
    25
100
AcDbLine
 10
532.7439736421
 20
554.53748445
 30
0.0
 11
530.5461017219
 21
557.3246013244
 31
0.0
  0
ARC
  5
18C
330
1F
100
AcDbEntity
  8
0
  6
Continuous
 62
     7
370
    25
100
AcDbCircle
 10
538.301819222
 20
547.4895918688
 30
0.0
 40
12.52511736202738
100
AcDbArc
 50
127.8583068702
 51
128.2586979829
  0
LINE
  5
18D
330
1F
100
AcDbEntity
  8
0
  6
Continuous
 62
     7
370
    25
100
AcDbLine
 10
531.5757173372
 20
557.4522650605
 30
0.0
 11
530.6150189883
 21
557.3785588067
 31
0.0
  0
LINE
  5
18E
330
1F
100
AcDbEntity
  8
0
  6
Continuous
 62
     7
370
    25
100
AcDbLine
 10
542.0716705394
 20
555.6351832145
 30
0.0
 11
542.0724491458
 21
555.6359898316
 31
0.0
  0
LINE
  5
18F
330
1F
100
AcDbEntity
  8
0
  6
Continuous
 62
     7
370
    25
100
AcDbLine
 10
527.6282486615
 20
556.8994373197
 30
0.0
 11
529.7283311776
 21
557.0154282684
 31
0.0
  0
LINE
  5
190
330
1F
100
AcDbEntity
  8
0
  6
Continuous
 62
     7
370
    25
100
AcDbLine
 10
529.9240752133
 20
553.471370464
 30
0.0
 11
529.7283311776
 21
557.0154282684
 31
0.0
  0
SPLINE
  5
191
330
1F
100
AcDbEntity
  8
0
  6
Continuous
 62
     7
370
    25
100
AcDbSpline
210
0.0
220
0.0
230
1.0
 70
     8
 71
     3
 72
    17
 73
    13
 74
     0
 42
0.00000001
 43
0.00000001
 40
0.0
 40
0.0
 40
0.0
 40
0.0
 40
0.2859834379244693
 40
0.521592264412223
 40
0.7592399016809378
 40
0.8521492405060498
 40
0.926670863383602
 40
0.960505839319536
 40
0.9835417153308589
 40
0.9930790992390832
 40
0.9972256067114875
 40
1.0
 40
1.0
 40
1.0
 40
1.0
 10
526.1875802994085
 20
556.3752936377548
 30
0.0
 10
524.9588021156611
 20
555.8434255137345
 30
0.0
 10
522.7176891338304
 20
554.8733752856868
 30
0.0
 10
519.3787404469285
 20
553.8311446149021
 30
0.0
 10
516.8760850802217
 20
553.2133260539756
 30
0.0
 10
515.1057787961856
 20
552.8593507447573
 30
0.0
 10
514.2406579608482
 20
552.7046497101445
 30
0.0
 10
513.7150705315728
 20
552.6161497193128
 30
0.0
 10
513.4814084179155
 20
552.5770379564902
 30
0.0
 10
513.4037582584263
 20
552.5627181897283
 30
0.0
 10
513.387676604226
 20
552.5589844374109
 30
0.0
 10
513.3866162162501
 20
552.5582505962159
 30
0.0
 10
513.3861911367144
 20
552.5579564200449
 30
0.0
  0
LINE
  5
192
330
1F
100
AcDbEntity
  8
0
  6
Continuous
 62
     7
370
    25
100
AcDbLine
 10
527.6282486615
 20
556.8994373197
 30
0.0
 11
526.1875802994
 21
556.3752936378
 31
0.0
  0
ARC
  5
193
330
1F
100
AcDbEntity
  8
0
  6
Continuous
 62
     7
370
    25
100
AcDbCircle
 10
520.3841475083
 20
552.7661912569
 30
0.0
 40
6.834138728211687
100
AcDbArc
 50
31.8771071303
 51
46.9488007428
  0
SPLINE
  5
194
330
1F
100
AcDbEntity
  8
0
  6
Continuous
 62
     7
370
    25
100
AcDbSpline
210
0.0
220
0.0
230
1.0
 70
     8
 71
     3
 72
    10
 73
     6
 74
     0
 42
0.00000001
 43
0.00000001
 40
0.0
 40
0.0
 40
0.0
 40
0.0
 40
0.5975855365574454
 40
0.9790563563181981
 40
1.0
 40
1.0
 40
1.0
 40
1.0
 10
513.2761658170266
 20
552.5670833173842
 30
0.0
 10
513.2736466776732
 20
552.5633440196577
 30
0.0
 10
513.2695194368927
 20
552.5572177281343
 30
0.0
 10
513.3438905634479
 20
552.5568411692778
 30
0.0
 10
513.3840985155524
 20
552.5579012482782
 30
0.0
 10
513.3861911367144
 20
552.5579564200449
 30
0.0
  0
SPLINE
  5
195
330
1F
100
AcDbEntity
  8
0
  6
Continuous
 62
     7
370
    25
100
AcDbSpline
210
0.0
220
0.0
230
1.0
 70
     8
 71
     3
 72
    15
 73
    11
 74
     0
 42
0.00000001
 43
0.00000001
 40
0.0
 40
0.0
 40
0.0
 40
0.0
 40
0.0128981401598393
 40
0.0519443541565596
 40
0.131832795201433
 40
0.2279057212361197
 40
0.4677439605522729
 40
0.7076088995729001
 40
0.8538517081976984
 40
1.0
 40
1.0
 40
1.0
 40
1.0
 10
513.2761658170266
 20
552.5670833173842
 30
0.0
 10
513.3096344205509
 20
552.5749282146718
 30
0.0
 10
513.4444216823613
 20
552.6065217714154
 30
0.0
 10
513.883692062328
 20
552.7089125147243
 30
0.0
 10
514.6951476823126
 20
552.9112340102129
 30
0.0
 10
516.3484140141014
 20
553.3788829094433
 30
0.0
 10
518.6947731448656
 20
554.2104696874783
 30
0.0
 10
521.2383689866929
 20
555.4040602825534
 30
0.0
 10
523.3571464063341
 20
556.6109823272437
 30
0.0
 10
524.4854926479144
 20
557.3772079937459
 30
0.0
 10
525.0494833970431
 20
557.7601969839401
 30
0.0
  0
LWPOLYLINE
  5
196
330
1F
100
AcDbEntity
  8
0
  6
Continuous
 62
     7
370
    25
100
AcDbPolyline
 90
        4
 70
   128
 43
0.0
 10
513.256639003
 20
552.7181788936
 10
513.2588836386
 20
552.7008207468
 10
513.2678586726
 20
552.6313880006
 10
513.276165817
 20
552.5670833174
  0
LINE
  5
197
330
1F
100
AcDbEntity
  8
0
  6
Continuous
 62
     7
370
    25
100
AcDbLine
 10
515.0447632867
 20
553.1477063969
 30
0.0
 11
513.256639003
 21
552.7181788936
 31
0.0
  0
ARC
  5
198
330
1F
100
AcDbEntity
  8
0
  6
Continuous
 62
     7
370
    25
100
AcDbCircle
 10
506.8592048882
 20
583.5733999908
 30
0.0
 40
31.5075577752834
100
AcDbArc
 50
285.0579972479
 51
305.1719294169
  0
LINE
  5
199
330
1F
100
AcDbEntity
  8
0
  6
Continuous
 62
     7
370
    25
100
AcDbLine
 10
525.049483397
 20
557.7601969839
 30
0.0
 11
525.0085635108
 21
557.818264997
 31
0.0
  0
SPLINE
  5
19A
330
1F
100
AcDbEntity
  8
0
  6
Continuous
 62
     7
370
    25
100
AcDbSpline
210
0.0
220
0.0
230
1.0
 70
     8
 71
     3
 72
     9
 73
     5
 74
     0
 42
0.00000001
 43
0.00000001
 40
0.0
 40
0.0
 40
0.0
 40
0.0
 40
0.4998978730609696
 40
0.9999999999999999
 40
0.9999999999999999
 40
0.9999999999999999
 40
0.9999999999999999
 10
529.7283311775823
 20
557.0154282684456
 30
0.0
 10
529.876526093478
 20
557.0353946064479
 30
0.0
 10
530.17297647641
 20
557.0753354405226
 30
0.0
 10
530.4217097051867
 20
557.2415013830931
 30
0.0
 10
530.5461017219383
 20
557.3246013243976
 30
0.0
  0
ARC
  5
19B
330
1F
100
AcDbEntity
  8
0
  6
Continuous
 62
     7
370
    25
100
AcDbCircle
 10
513.1748305021
 20
553.0567847572
 30
0.0
 40
0.5000763403693881
100
AcDbArc
 50
273.1626296399
 51
281.6913635618
  0
SPLINE
  5
19C
330
1F
100
AcDbEntity
  8
0
  6
Continuous
 62
     7
370
    25
100
AcDbSpline
210
0.0
220
0.0
230
1.0
 70
     8
 71
     3
 72
    13
 73
     9
 74
     0
 42
0.00000001
 43
0.00000001
 40
0.0
 40
0.0
 40
0.0
 40
0.0
 40
0.0460329529079877
 40
0.2492425848193723
 40
0.4775225570272882
 40
0.7051721168687842
 40
0.852680826381466
 40
1.0
 40
1.0
 40
1.0
 40
1.0
 10
542.0891976964392
 20
539.3323201086672
 30
0.0
 10
541.9608630444009
 20
539.2698111402307
 30
0.0
 10
541.2660029849153
 20
538.9313601853532
 30
0.0
 10
539.9063397503387
 20
538.3133827613242
 30
0.0
 10
537.8983671335203
 20
537.5029104346112
 30
0.0
 10
535.8838568716172
 20
536.8102856333466
 30
0.0
 10
534.0215735903718
 20
536.2600518316484
 30
0.0
 10
532.9292040271332
 20
535.9925357205425
 30
0.0
 10
532.3833703711261
 20
535.8588636539822
 30
0.0
  0
LINE
  5
19D
330
1F
100
AcDbEntity
  8
0
  6
Continuous
 62
     7
370
    25
100
AcDbLine
 10
531.9299102932
 20
537.8064661832
 30
0.0
 11
532.3833703711
 21
535.858863654
 31
0.0
  0
SPLINE
  5
19E
330
1F
100
AcDbEntity
  8
0
  6
Continuous
 62
     7
370
    25
100
AcDbSpline
210
0.0
220
0.0
230
1.0
 70
     8
 71
     3
 72
    13
 73
     9
 74
     0
 42
0.00000001
 43
0.00000001
 40
0.0
 40
0.0
 40
0.0
 40
0.0
 40
0.2574896950994369
 40
0.4890886589321034
 40
0.7206004760683484
 40
0.9447506334961274
 40
0.9460032291293298
 40
0.9999999999999999
 40
0.9999999999999999
 40
0.9999999999999999
 40
0.9999999999999999
 10
531.9299102932391
 20
537.8064661831961
 30
0.0
 10
532.848635869227
 20
537.7784032190814
 30
0.0
 10
534.5937086563652
 20
537.725099037416
 30
0.0
 10
537.0882739022784
 20
537.8896631562541
 30
0.0
 10
539.4039237082801
 20
538.3030371512642
 30
0.0
 10
540.881032309882
 20
538.8025943378275
 30
0.0
 10
541.7522937544245
 20
539.1768371927575
 30
0.0
 10
541.9223401632471
 20
539.2558176112426
 30
0.0
 10
542.0885313353024
 20
539.3330074114173
 30
0.0
  0
LINE
  5
19F
330
1F
100
AcDbEntity
  8
0
  6
Continuous
 62
     7
370
    25
100
AcDbLine
 10
542.0885313353
 20
539.3330074114
 30
0.0
 11
542.0891976964
 21
539.3323201087
 31
0.0
  0
ARC
  5
1A0
330
1F
100
AcDbEntity
  8
0
  6
Continuous
 62
     7
370
    25
100
AcDbCircle
 10
521.4738398151
 20
582.7150927678
 30
0.0
 40
48.10950076354634
100
AcDbArc
 50
282.8580809319
 51
283.1066633214
  0
LWPOLYLINE
  5
1A1
330
1F
100
AcDbEntity
  8
0
  6
Continuous
 62
     7
370
    25
100
AcDbPolyline
 90
        3
 70
   128
 43
0.0
 10
542.0891976964
 20
539.3323201087
 10
542.1325545731
 20
539.3049286363
 10
542.2371326462
 20
539.2389306062
  0
ARC
  5
1A2
330
1F
100
AcDbEntity
  8
0
  6
Continuous
 62
     7
370
    25
100
AcDbCircle
 10
521.4738398151
 20
582.7150927678
 30
0.0
 40
48.17977797259061
100
AcDbArc
 50
282.8580809319
 51
295.5281512988
  0
LINE
  5
1A3
330
1F
100
AcDbEntity
  8
0
  6
Continuous
 62
     7
370
    25
100
AcDbLine
 10
532.1799787796
 20
535.8119729122
 30
0.0
 11
532.1956180516
 21
535.7434579555
 31
0.0
  0
LINE
  5
1A4
330
1F
100
AcDbEntity
  8
0
  6
Continuous
 62
     7
370
    25
100
AcDbLine
 10
529.9180338282
 20
541.4918292065
 30
0.0
 11
529.7746719993
 21
538.896181237
 31
0.0
  0
LINE
  5
1A5
330
1F
100
AcDbEntity
  8
0
  6
Continuous
 62
     7
370
    25
100
AcDbLine
 10
529.7746719993
 20
538.896181237
 30
0.0
 11
525.8245909775
 21
539.1143505907
 31
0.0
  0
SPLINE
  5
1A6
330
1F
100
AcDbEntity
  8
0
  6
Continuous
 62
     7
370
    25
100
AcDbSpline
210
0.0
220
0.0
230
1.0
 70
     8
 71
     3
 72
    17
 73
    13
 74
     0
 42
0.00000001
 43
0.00000001
 40
0.0
 40
0.0
 40
0.0
 40
0.0
 40
0.0068264277560522
 40
0.0088450004853823
 40
0.0223994102884418
 40
0.0309598270239211
 40
0.056322844823068
 40
0.1198844474831657
 40
0.1957493698893797
 40
0.555871606010061
 40
0.776984075093909
 40
1.0
 40
1.0
 40
1.0
 40
1.0
 10
513.3841254047891
 20
542.4050236686728
 30
0.0
 10
513.3877455499581
 20
542.4039854856281
 30
0.0
 10
513.3924361710154
 20
542.4026403121549
 30
0.0
 10
513.4359688836472
 20
542.3950503240765
 30
0.0
 10
513.5105008076065
 20
542.3832988173455
 30
0.0
 10
513.6773330458902
 20
542.3575799217646
 30
0.0
 10
514.058909292142
 20
542.2990653491435
 30
0.0
 10
514.7418088184476
 20
542.189868293183
 30
0.0
 10
516.8468246194798
 20
541.8226968775465
 30
0.0
 10
519.6549508878824
 20
541.1895299751907
 30
0.0
 10
523.05451657314
 20
540.1770840987151
 30
0.0
 10
524.8985983731021
 20
539.4696058023478
 30
0.0
 10
525.8245909774623
 20
539.1143505906782
 30
0.0
  0
LINE
  5
1A7
330
1F
100
AcDbEntity
  8
0
  6
Continuous
 62
     7
370
    25
100
AcDbLine
 10
525.8245909775
 20
539.1143505907
 30
0.0
 11
524.69511556
 21
537.464178801
 31
0.0
  0
SPLINE
  5
1A8
330
1F
100
AcDbEntity
  8
0
  6
Continuous
 62
     7
370
    25
100
AcDbSpline
210
0.0
220
0.0
230
1.0
 70
     8
 71
     3
 72
    15
 73
    11
 74
     0
 42
0.00000001
 43
0.00000001
 40
0.0
 40
0.0
 40
0.0
 40
0.0
 40
0.2255198391625378
 40
0.4515645943751949
 40
0.6337799820516976
 40
0.815879032447355
 40
0.8946729146060263
 40
0.9638048440471929
 40
0.9940832206369724
 40
1.0
 40
1.0
 40
1.0
 40
1.0
 10
524.6951155599704
 20
537.4641788010395
 30
0.0
 10
523.8496670191164
 20
538.0091864703809
 30
0.0
 10
522.1568020861085
 20
539.1004703594234
 30
0.0
 10
519.6804858924291
 20
540.3175737490161
 30
0.0
 10
517.352074977718
 20
541.2484735574513
 30
0.0
 10
515.6115954878956
 20
541.8042641022648
 30
0.0
 10
514.353926631526
 20
542.1408169292292
 30
0.0
 10
513.7097937336135
 20
542.2961640355536
 30
0.0
 10
513.3818484435316
 20
542.3717174338211
 30
0.0
 10
513.2893109999073
 20
542.3932381418712
 30
0.0
 10
513.274184013372
 20
542.3967561065799
 30
0.0
  0
SPLINE
  5
1A9
330
1F
100
AcDbEntity
  8
0
  6
Continuous
 62
     7
370
    25
100
AcDbSpline
210
0.0
220
0.0
230
1.0
 70
     8
 71
     3
 72
    11
 73
     7
 74
     0
 42
0.00000001
 43
0.00000001
 40
0.0
 40
0.0
 40
0.0
 40
0.0
 40
0.0195561212295929
 40
0.1681891996744423
 40
0.5898876540792745
 40
1.0
 40
1.0
 40
1.0
 40
1.0
 10
513.3841254047891
 20
542.4050236686728
 30
0.0
 10
513.3821666916409
 20
542.4050817823886
 30
0.0
 10
513.3653211018183
 20
542.4055815798293
 30
0.0
 10
513.3134205380591
 20
542.4064279972428
 30
0.0
 10
513.2641359059935
 20
542.4043386987207
 30
0.0
 10
513.27086589107
 20
542.3992600575373
 30
0.0
 10
513.274184013372
 20
542.3967561065799
 30
0.0
  0
LINE
  5
1AA
330
1F
100
AcDbEntity
  8
0
  6
Continuous
 62
     7
370
    25
100
AcDbLine
 10
532.7364860673
 20
540.4268552286
 30
0.0
 11
531.127529074
 21
538.3849937276
 31
0.0
  0
LINE
  5
1AB
330
1F
100
AcDbEntity
  8
0
  6
Continuous
 62
     7
370
    25
100
AcDbLine
 10
542.0885313353
 20
539.3330074114
 30
0.0
 11
542.0879634498
 21
539.3335944523
 31
0.0
  0
ARC
  5
1AC
330
1F
100
AcDbEntity
  8
0
  6
Continuous
 62
     7
370
    25
100
AcDbCircle
 10
538.301819222
 20
547.4895918688
 30
0.0
 40
11.59155496206749
100
AcDbArc
 50
231.762407147
 51
236.6533814372
  0
LWPOLYLINE
  5
1AD
330
1F
100
AcDbEntity
  8
0
  6
Continuous
 62
     7
370
    25
100
AcDbPolyline
 90
        4
 70
   128
 43
0.0
 10
513.2741840134
 20
542.3967561066
 10
513.2719417671
 20
542.3793978516
 10
513.2629692842
 20
542.30996499
 10
513.256639003
 20
542.2610048439
  0
ARC
  5
1AE
330
1F
100
AcDbEntity
  8
0
  6
Continuous
 62
     7
370
    25
100
AcDbCircle
 10
506.8592048882
 20
511.4057837468
 30
0.0
 40
31.57783498432761
100
AcDbArc
 50
54.8280705831
 51
55.6099480104
  0
LINE
  5
1AF
330
1F
100
AcDbEntity
  8
0
  6
Continuous
 62
     7
370
    25
100
AcDbLine
 10
525.0490454257
 20
537.2183652434
 30
0.0
 11
525.0085635108
 21
537.1609187406
 31
0.0
  0
ARC
  5
1B0
330
1F
100
AcDbEntity
  8
0
  6
Continuous
 62
     7
370
    25
100
AcDbCircle
 10
506.8592048882
 20
511.4057837468
 30
0.0
 40
31.5075577752834
100
AcDbArc
 50
54.8280705831
 51
74.9420027521
  0
LINE
  5
1B1
330
1F
100
AcDbEntity
  8
0
  6
Continuous
 62
     7
370
    25
100
AcDbLine
 10
513.256639003
 20
542.2610048439
 30
0.0
 11
515.0447632867
 21
541.8314773406
 31
0.0
  0
LINE
  5
1B2
330
1F
100
AcDbEntity
  8
0
  6
Continuous
 62
     7
370
    25
100
AcDbLine
 10
513.1828015936
 20
552.7078605974
 30
0.0
 11
513.256639003
 21
552.7181788936
 31
0.0
  0
SPLINE
  5
1B3
330
1F
100
AcDbEntity
  8
0
  6
Continuous
 62
     7
370
    25
100
AcDbSpline
210
0.0
220
0.0
230
1.0
 70
     8
 71
     3
 72
    10
 73
     6
 74
     0
 42
0.00000001
 43
0.00000001
 40
0.0
 40
0.0
 40
0.0
 40
0.0
 40
0.0490769085761621
 40
0.5995805843665267
 40
1.0
 40
1.0
 40
1.0
 40
1.0
 10
531.1275290739992
 20
538.3849937276448
 30
0.0
 10
531.1085815356302
 20
538.3996164632462
 30
0.0
 10
530.8770963737234
 20
538.5782648054352
 30
0.0
 10
530.4312225989063
 20
538.8123167988565
 30
0.0
 10
529.9692160220219
 20
538.8713311718741
 30
0.0
 10
529.7746719992682
 20
538.8961812370064
 30
0.0
  0
ARC
  5
1B4
330
1F
100
AcDbEntity
  8
0
  6
Continuous
 62
     7
370
    25
100
AcDbCircle
 10
513.1728306124
 20
541.9070584095
 30
0.0
 40
0.5000763405406586
100
AcDbArc
 50
78.3065203381
 51
86.8373700343
  0
SPLINE
  5
1B5
330
1F
100
AcDbEntity
  8
0
  6
Continuous
 62
     7
370
    25
100
AcDbSpline
210
0.0
220
0.0
230
1.0
 70
     8
 71
     3
 72
     9
 73
     5
 74
     0
 42
0.00000001
 43
0.00000001
 40
0.0
 40
0.0
 40
0.0
 40
0.0
 40
0.8458911907784387
 40
0.9999999999999999
 40
0.9999999999999999
 40
0.9999999999999999
 40
0.9999999999999999
 10
513.2566390029615
 20
542.2610048438936
 30
0.0
 10
513.2357984068504
 20
542.2648196508859
 30
0.0
 10
513.2111609637155
 20
542.2693294590433
 30
0.0
 10
513.1865884365393
 20
542.2710569227943
 30
0.0
 10
513.1828015936366
 20
542.2713231401759
 30
0.0
  0
LINE
  5
1B6
330
1F
100
AcDbEntity
  8
0
  6
Continuous
 62
     7
370
    25
100
AcDbLine
 10
495.187381396
 20
543.3375789934
 30
0.0
 11
495.1878394158
 21
543.337553907
 31
0.0
  0
LINE
  5
1B7
330
1F
100
AcDbEntity
  8
0
  6
Continuous
 62
     7
370
    25
100
AcDbLine
 10
525.049483397
 20
557.7601969839
 30
0.0
 11
526.8882242464
 21
558.7571632196
 31
0.0
  0
LINE
  5
1B8
330
1F
100
AcDbEntity
  8
0
  6
Continuous
 62
     7
370
    25
100
AcDbLine
 10
527.6282486615
 20
556.8994373197
 30
0.0
 11
526.8882242464
 21
558.7571632196
 31
0.0
  0
LINE
  5
1B9
330
1F
100
AcDbEntity
  8
0
  6
Continuous
 62
     7
370
    25
100
AcDbLine
 10
530.6150189883
 20
557.3785588067
 30
0.0
 11
530.7368527349
 21
559.3745393157
 31
0.0
  0
LINE
  5
1BA
330
1F
100
AcDbEntity
  8
0
  6
Continuous
 62
     7
370
    25
100
AcDbLine
 10
530.7368527349
 20
559.3745393157
 30
0.0
 11
532.1797599747
 21
559.1662522504
 31
0.0
  0
ARC
  5
1BB
330
1F
100
AcDbEntity
  8
0
  6
Continuous
 62
     7
370
    25
100
AcDbCircle
 10
530.1928040167
 20
550.4614863446
 30
0.0
 40
6.929946387144418
100
AcDbArc
 50
86.5070253286
 51
111.7198462835
  0
ARC
  5
1BC
330
1F
100
AcDbEntity
  8
0
  6
Continuous
 62
     7
370
    25
100
AcDbCircle
 10
530.1928040167
 20
550.4614863446
 30
0.0
 40
8.929641777457114
100
AcDbArc
 50
86.5070253286
 51
111.7198462835
  0
ARC
  5
1BD
330
1F
100
AcDbEntity
  8
0
  6
Continuous
 62
     7
370
    25
100
AcDbCircle
 10
506.8592048882
 20
511.4057837468
 30
0.0
 40
33.57753037464038
100
AcDbArc
 50
54.8280705831
 51
55.6099480104
  0
LINE
  5
1BE
330
1F
100
AcDbEntity
  8
0
  6
Continuous
 62
     7
370
    25
100
AcDbLine
 10
526.2009337768
 20
538.8529706638
 30
0.0
 11
525.0490454257
 21
537.2183652434
 31
0.0
  0
ARC
  5
1BF
330
1F
100
AcDbEntity
  8
0
  6
Continuous
 62
     7
370
    25
100
AcDbCircle
 10
521.4738398151
 20
582.7150927678
 30
0.0
 40
46.10980537323368
100
AcDbArc
 50
282.8580809319
 51
283.1066633214
  0
ARC
  5
1C0
330
1F
100
AcDbEntity
  8
0
  6
Continuous
 62
     7
370
    25
100
AcDbCircle
 10
530.1928040167
 20
544.517697393
 30
0.0
 40
6.92994638714431
100
AcDbArc
 50
234.8280705831
 51
282.8580809319
  0
LINE
  5
1C1
330
1F
100
AcDbEntity
  8
0
  6
Continuous
 62
     7
370
    25
100
AcDbLine
 10
531.7349727747
 20
537.7615244785
 30
0.0
 11
532.1799787796
 21
535.8119729122
 31
0.0
  0
ARC
  5
1C2
330
1F
100
AcDbEntity
  8
0
  6
Continuous
 62
     7
370
    25
100
AcDbCircle
 10
530.1928040167
 20
544.517697393
 30
0.0
 40
8.929641777456935
100
AcDbArc
 50
234.8280705831
 51
282.8580809319
  0
ARC
  5
1C3
330
1F
100
AcDbEntity
  8
0
  6
Continuous
 62
     7
370
    25
100
AcDbCircle
 10
530.1928040167
 20
550.4614863446
 30
0.0
 40
8.999918986501244
100
AcDbArc
 50
77.1419190681
 51
125.1719294169
  0
ARC
  5
1C4
330
1F
100
AcDbEntity
  8
0
  6
Continuous
 62
     7
370
    25
100
AcDbCircle
 10
530.1928040167
 20
544.517697393
 30
0.0
 40
8.999918986501134
100
AcDbArc
 50
234.8280705831
 51
282.8580809319
  0
SPLINE
  5
1C5
330
1F
100
AcDbEntity
  8
0
  6
Continuous
 62
     7
370
    25
100
AcDbSpline
210
0.0
220
0.0
230
1.0
 70
     8
 71
     3
 72
    11
 73
     7
 74
     0
 42
0.00000001
 43
0.00000001
 40
0.0
 40
0.0
 40
0.0
 40
0.0
 40
0.2200386424382247
 40
0.6637869905998173
 40
0.8890365590789576
 40
1.0
 40
1.0
 40
1.0
 40
1.0
 10
646.5794093665598
 20
553.5099101757206
 30
0.0
 10
646.7836308295614
 20
553.2448915644619
 30
0.0
 10
647.399702392445
 20
552.445414234157
 30
0.0
 10
647.9232517434621
 20
551.1822449636293
 30
0.0
 10
648.1748809432233
 20
550.0156751503051
 30
0.0
 10
648.154173748501
 20
549.5043953516457
 30
0.0
 10
648.1473395644749
 20
549.3356530241734
 30
0.0
  0
SPLINE
  5
1C6
330
1F
100
AcDbEntity
  8
0
  6
Continuous
 62
     7
370
    25
100
AcDbSpline
210
0.0
220
0.0
230
1.0
 70
     8
 71
     3
 72
     9
 73
     5
 74
     0
 42
0.00000001
 43
0.00000001
 40
0.0
 40
0.0
 40
0.0
 40
0.0
 40
0.9209630919903095
 40
0.9999999999999999
 40
0.9999999999999999
 40
0.9999999999999999
 40
0.9999999999999999
 10
648.2194517298072
 20
553.1895869000871
 30
0.0
 10
647.7050301919344
 20
553.2464139590057
 30
0.0
 10
647.1464610784195
 20
553.3081179072017
 30
0.0
 10
646.6209445667503
 20
553.4951293680897
 30
0.0
 10
646.5794093665598
 20
553.5099101757206
 30
0.0
  0
SPLINE
  5
1C7
330
1F
100
AcDbEntity
  8
0
  6
Continuous
 62
     7
370
    25
100
AcDbSpline
210
0.0
220
0.0
230
1.0
 70
     8
 71
     3
 72
    10
 73
     6
 74
     0
 42
0.00000001
 43
0.00000001
 40
0.0
 40
0.0
 40
0.0
 40
0.0
 40
0.2596150688488839
 40
0.629760644481066
 40
1.0
 40
1.0
 40
1.0
 40
1.0
 10
695.3946126837445
 20
550.598029331098
 30
0.0
 10
691.3167924650214
 20
550.8977834681965
 30
0.0
 10
681.4250296316562
 20
551.6249113633605
 30
0.0
 10
665.695456948983
 20
552.4507582332508
 30
0.0
 10
654.0452786877183
 20
552.9432898825164
 30
0.0
 10
648.2194517298072
 20
553.1895869000871
 30
0.0
  0
SPLINE
  5
1C8
330
1F
100
AcDbEntity
  8
0
  6
Continuous
 62
     7
370
    25
100
AcDbSpline
210
0.0
220
0.0
230
1.0
 70
     8
 71
     3
 72
    11
 73
     7
 74
     0
 42
0.00000001
 43
0.00000001
 40
0.0
 40
0.0
 40
0.0
 40
0.0
 40
0.061464119541392
 40
0.4999988937835378
 40
0.9375097801832794
 40
1.0
 40
1.0
 40
1.0
 40
1.0
 10
695.3946126837443
 20
544.8719969840962
 30
0.0
 10
695.4062818799466
 20
544.9884539565481
 30
0.0
 10
695.501208566216
 20
545.9358092238795
 30
0.0
 10
695.5849113934821
 20
547.7330534223277
 30
0.0
 10
695.5013414699621
 20
549.5322514465685
 30
0.0
 10
695.4064697649168
 20
550.4796262710015
 30
0.0
 10
695.3946126837445
 20
550.598029331098
 30
0.0
  0
SPLINE
  5
1C9
330
1F
100
AcDbEntity
  8
0
  6
Continuous
 62
     7
370
    25
100
AcDbSpline
210
0.0
220
0.0
230
1.0
 70
     8
 71
     3
 72
    11
 73
     7
 74
     0
 42
0.00000001
 43
0.00000001
 40
0.0
 40
0.0
 40
0.0
 40
0.0
 40
0.259458927729189
 40
0.6296002946237427
 40
0.8147836738016297
 40
1.0
 40
1.0
 40
1.0
 40
1.0
 10
648.2194517298072
 20
542.280439415109
 30
0.0
 10
652.3024523791522
 20
542.4459380015298
 30
0.0
 10
662.2102186459566
 20
542.8475351239814
 30
0.0
 10
675.0253556049176
 20
543.5257879400049
 30
0.0
 10
686.6696278711772
 20
544.203208832217
 30
0.0
 10
692.4861119543099
 20
544.6490543808292
 30
0.0
 10
695.3946126837443
 20
544.8719969840962
 30
0.0
  0
SPLINE
  5
1CA
330
1F
100
AcDbEntity
  8
0
  6
Continuous
 62
     7
370
    25
100
AcDbSpline
210
0.0
220
0.0
230
1.0
 70
     8
 71
     3
 72
     9
 73
     5
 74
     0
 42
0.00000001
 43
0.00000001
 40
0.0
 40
0.0
 40
0.0
 40
0.0
 40
0.0790369080192211
 40
1.0
 40
1.0
 40
1.0
 40
1.0
 10
646.5794093665606
 20
541.9601161394756
 30
0.0
 10
646.620944566756
 20
541.9748969471083
 30
0.0
 10
647.1464610784252
 20
542.1619084079962
 30
0.0
 10
647.7050301919398
 20
542.2236123561916
 30
0.0
 10
648.2194517298072
 20
542.280439415109
 30
0.0
  0
SPLINE
  5
1CB
330
1F
100
AcDbEntity
  8
0
  6
Continuous
 62
     7
370
    25
100
AcDbSpline
210
0.0
220
0.0
230
1.0
 70
     8
 71
     3
 72
    11
 73
     7
 74
     0
 42
0.00000001
 43
0.00000001
 40
0.0
 40
0.0
 40
0.0
 40
0.0
 40
0.0728838064943292
 40
0.4140719411596023
 40
0.9209668754550557
 40
1.0
 40
1.0
 40
1.0
 40
1.0
 10
648.1473395644712
 20
546.1343732910374
 30
0.0
 10
648.1550547136088
 20
546.0239268567984
 30
0.0
 10
648.1988864909733
 20
545.3964518164674
 30
0.0
 10
647.8543947795354
 20
544.0134597860025
 30
0.0
 10
647.2147054300489
 20
542.743528268225
 30
0.0
 10
646.6549166806161
 20
542.0532276020518
 30
0.0
 10
646.5794093665606
 20
541.9601161394756
 30
0.0
  0
SPLINE
  5
1CC
330
1F
100
AcDbEntity
  8
0
  6
Continuous
 62
     7
370
    25
100
AcDbSpline
210
0.0
220
0.0
230
1.0
 70
     8
 71
     3
 72
    10
 73
     6
 74
     0
 42
0.00000001
 43
0.00000001
 40
0.0
 40
0.0
 40
0.0
 40
0.0
 40
0.3880207377811387
 40
0.9790637766506859
 40
1.0
 40
1.0
 40
1.0
 40
1.0
 10
648.1473395644749
 20
549.3356530241734
 30
0.0
 10
648.0740250337154
 20
548.9248131623177
 30
0.0
 10
647.8890359483922
 20
547.8881715924693
 30
0.0
 10
647.9847428742233
 20
546.7944022708981
 30
0.0
 10
648.141961025471
 20
546.1562064021787
 30
0.0
 10
648.1473395644712
 20
546.1343732910374
 30
0.0
  0
ARC
  5
1CD
330
1F
100
AcDbEntity
  8
0
  6
Continuous
 62
     7
370
    25
100
AcDbCircle
 10
639.901819222
 20
547.7350131576
 30
0.0
 40
8.399443654264582
100
AcDbArc
 50
10.985757993
 51
349.0142420071
  0
SPLINE
  5
1CE
330
1F
100
AcDbEntity
  8
0
  6
Continuous
 62
     7
370
    25
100
AcDbSpline
210
0.0
220
0.0
230
1.0
 70
     8
 71
     3
 72
     9
 73
     5
 74
     0
 42
0.00000001
 43
0.00000001
 40
0.0
 40
0.0
 40
0.0
 40
0.0
 40
0.6817923421274255
 40
1.0
 40
1.0
 40
1.0
 40
1.0
 10
646.5794093665606
 20
541.9601161394756
 30
0.0
 10
646.4371458059176
 20
541.7702057843704
 30
0.0
 10
646.2284846757573
 20
541.4916600404969
 30
0.0
 10
645.9990588418768
 20
541.2587556675538
 30
0.0
 10
645.9260537846224
 20
541.1846437125315
 30
0.0
  0
ARC
  5
1CF
330
1F
100
AcDbEntity
  8
0
  6
Continuous
 62
     7
370
    25
100
AcDbCircle
 10
639.901819222
 20
547.7350131576
 30
0.0
 40
8.89936750183629
100
AcDbArc
 50
47.3959191961
 51
312.6040808039
  0
LINE
  5
1D0
330
1F
100
AcDbEntity
  8
0
  6
Continuous
 62
     7
370
    25
100
AcDbLine
 10
645.9260537846
 20
554.2853826027
 30
0.0
 11
646.5794093666
 21
553.5099101757
 31
0.0
  0
SPLINE
  5
1D1
330
1F
100
AcDbEntity
  8
0
  6
Continuous
 62
     7
370
    25
100
AcDbSpline
210
0.0
220
0.0
230
1.0
 70
     8
 71
     3
 72
    10
 73
     6
 74
     0
 42
0.00000001
 43
0.00000001
 40
0.0
 40
0.0
 40
0.0
 40
0.0
 40
0.3702896688583041
 40
0.7405318123903295
 40
1.0
 40
1.0
 40
1.0
 40
1.0
 10
695.4061321469227
 20
544.429137403263
 30
0.0
 10
689.5860683007043
 20
544.1089463887366
 30
0.0
 10
677.9466875922006
 20
543.468605455031
 30
0.0
 10
662.2278191854258
 20
542.5993711231678
 30
0.0
 10
652.3306453694161
 20
542.0506301215586
 30
0.0
 10
648.252577048952
 20
541.8245248377268
 30
0.0
  0
ARC
  5
1D2
330
1F
100
AcDbEntity
  8
0
  6
Continuous
 62
     7
370
    25
100
AcDbCircle
 10
655.4676662562
 20
542.5779112044
 30
0.0
 40
7.254316183209976
100
AcDbArc
 50
182.3501399448
 51
185.9611177314
  0
ARC
  5
1D3
330
1F
100
AcDbEntity
  8
0
  6
Continuous
 62
     7
370
    25
100
AcDbCircle
 10
691.1456096056
 20
544.5398942273
 30
0.0
 40
4.261961918981148
100
AcDbArc
 50
358.5108705387
 51
4.4691613064
  0
SPLINE
  5
1D4
330
1F
100
AcDbEntity
  8
0
  6
Continuous
 62
     7
370
    25
100
AcDbSpline
210
0.0
220
0.0
230
1.0
 70
     8
 71
     3
 72
    10
 73
     6
 74
     0
 42
0.00000001
 43
0.00000001
 40
0.0
 40
0.0
 40
0.0
 40
0.0
 40
0.3702717503651154
 40
0.740512215137175
 40
1.0
 40
1.0
 40
1.0
 40
1.0
 10
648.252577048952
 20
553.6455014774692
 30
0.0
 10
654.0722491106211
 20
553.3229729918013
 30
0.0
 10
665.711101508918
 20
552.6779432720583
 30
0.0
 10
681.4302410928726
 20
551.8091287845793
 30
0.0
 10
691.3277385165713
 20
551.2650738738125
 30
0.0
 10
695.4061321469193
 20
551.0408889119334
 30
0.0
  0
ARC
  5
1D5
330
1F
100
AcDbEntity
  8
0
  6
Continuous
 62
     7
370
    25
100
AcDbCircle
 10
691.1456096027
 20
550.930132088
 30
0.0
 40
4.261961921870134
100
AcDbArc
 50
355.5308386961
 51
1.4891294598
  0
ARC
  5
1D6
330
1F
100
AcDbEntity
  8
0
  6
Continuous
 62
     7
370
    25
100
AcDbCircle
 10
655.4676662562
 20
552.8921151108
 30
0.0
 40
7.254316183253835
100
AcDbArc
 50
174.0388822686
 51
177.6498600552
  0
SPLINE
  5
1D7
330
1F
100
AcDbEntity
  8
0
  6
Continuous
 62
     7
370
    25
100
AcDbSpline
210
0.0
220
0.0
230
1.0
 70
     8
 71
     3
 72
    12
 73
     8
 74
     0
 42
0.00000001
 43
0.00000001
 40
0.0
 40
0.0
 40
0.0
 40
0.0
 40
0.122429049415135
 40
0.3423522449770488
 40
0.5614228816909436
 40
0.7807229538533572
 40
1.0
 40
1.0
 40
1.0
 40
1.0
 10
697.3303401165919
 20
550.4873549614418
 30
0.0
 10
697.3213360407278
 20
550.4897136458827
 30
0.0
 10
697.2961576569968
 20
550.4963093102075
 30
0.0
 10
697.0801699733522
 20
550.5133172779467
 30
0.0
 10
696.644271843623
 20
550.5388282521011
 30
0.0
 10
696.0603462301929
 20
550.5683804346605
 30
0.0
 10
695.6165160986247
 20
550.5881467115395
 30
0.0
 10
695.3946126837445
 20
550.598029331098
 30
0.0
  0
SPLINE
  5
1D8
330
1F
100
AcDbEntity
  8
0
  6
Continuous
 62
     7
370
    25
100
AcDbSpline
210
0.0
220
0.0
230
1.0
 70
     8
 71
     3
 72
    11
 73
     7
 74
     0
 42
0.00000001
 43
0.00000001
 40
0.0
 40
0.0
 40
0.0
 40
0.0
 40
0.0800485240044433
 40
0.5000005853538798
 40
0.9209248322279645
 40
1.0
 40
1.0
 40
1.0
 40
1.0
 10
697.3303401165919
 20
550.4873549614418
 30
0.0
 10
697.3300538721778
 20
550.3411105363411
 30
0.0
 10
697.3282659269731
 20
549.4276358775081
 30
0.0
 10
697.3270302301434
 20
547.7332262897495
 30
0.0
 10
697.3282679282381
 20
546.0405994378949
 30
0.0
 10
697.3300571502061
 20
545.127136062251
 30
0.0
 10
697.330340116592
 20
544.9826713537598
 30
0.0
  0
SPLINE
  5
1D9
330
1F
100
AcDbEntity
  8
0
  6
Continuous
 62
     7
370
    25
100
AcDbSpline
210
0.0
220
0.0
230
1.0
 70
     8
 71
     3
 72
    12
 73
     8
 74
     0
 42
0.00000001
 43
0.00000001
 40
0.0
 40
0.0
 40
0.0
 40
0.0
 40
0.1130367476169276
 40
0.3328594693547989
 40
0.5544127937945017
 40
0.7774207483513241
 40
1.0
 40
1.0
 40
1.0
 40
1.0
 10
695.3946126837443
 20
544.8719969840962
 30
0.0
 10
695.5086835237311
 20
544.8770122297975
 30
0.0
 10
695.844588086339
 20
544.8917806308533
 30
0.0
 10
696.3786559427336
 20
544.9173728349626
 30
0.0
 10
696.895181580621
 20
544.9452480978338
 30
0.0
 10
697.2520762977754
 20
544.9686899714242
 30
0.0
 10
697.3042689152938
 20
544.9780138831838
 30
0.0
 10
697.330340116592
 20
544.9826713537598
 30
0.0
  0
SPLINE
  5
1DA
330
1F
100
AcDbEntity
  8
0
  6
Continuous
 62
     7
370
    25
100
AcDbSpline
210
0.0
220
0.0
230
1.0
 70
     8
 71
     3
 72
     9
 73
     5
 74
     0
 42
0.00000001
 43
0.00000001
 40
0.0
 40
0.0
 40
0.0
 40
0.0
 40
0.500010612381545
 40
1.0
 40
1.0
 40
1.0
 40
1.0
 10
645.4264459357794
 20
554.7172142919109
 30
0.0
 10
645.8561673026002
 20
554.4293737538176
 30
0.0
 10
646.7155917951608
 20
553.8537048960662
 30
0.0
 10
647.740255880439
 20
553.7149016349795
 30
0.0
 10
648.252577048952
 20
553.6455014774692
 30
0.0
  0
SPLINE
  5
1DB
330
1F
100
AcDbEntity
  8
0
  6
Continuous
 62
     7
370
    25
100
AcDbSpline
210
0.0
220
0.0
230
1.0
 70
     8
 71
     3
 72
     9
 73
     5
 74
     0
 42
0.00000001
 43
0.00000001
 40
0.0
 40
0.0
 40
0.0
 40
0.0
 40
0.9838702326459388
 40
1.0
 40
1.0
 40
1.0
 40
1.0
 10
645.9260537846224
 20
554.2853826026645
 30
0.0
 10
645.7647129696878
 20
554.4302150156835
 30
0.0
 10
645.6007271008395
 20
554.5774218405404
 30
0.0
 10
645.4292124275572
 20
554.7149952645871
 30
0.0
 10
645.4264459357794
 20
554.7172142919109
 30
0.0
  0
SPLINE
  5
1DC
330
1F
100
AcDbEntity
  8
0
  6
Continuous
 62
     7
370
    25
100
AcDbSpline
210
0.0
220
0.0
230
1.0
 70
     8
 71
     3
 72
     9
 73
     5
 74
     0
 42
0.00000001
 43
0.00000001
 40
0.0
 40
0.0
 40
0.0
 40
0.0
 40
0.5055561057107295
 40
1.0
 40
1.0
 40
1.0
 40
1.0
 10
648.252577048952
 20
541.8245248377268
 30
0.0
 10
647.734517531619
 20
541.7538688034567
 30
0.0
 10
646.7097855355436
 20
541.6141097668794
 30
0.0
 10
645.8510449667821
 20
541.0377764920836
 30
0.0
 10
645.4264459357794
 20
540.7528120232852
 30
0.0
  0
SPLINE
  5
1DD
330
1F
100
AcDbEntity
  8
0
  6
Continuous
 62
     7
370
    25
100
AcDbSpline
210
0.0
220
0.0
230
1.0
 70
     8
 71
     3
 72
     9
 73
     5
 74
     0
 42
0.00000001
 43
0.00000001
 40
0.0
 40
0.0
 40
0.0
 40
0.0
 40
0.016129767353325
 40
1.0
 40
1.0
 40
1.0
 40
1.0
 10
645.4264459357794
 20
540.7528120232852
 30
0.0
 10
645.4292124275571
 20
540.7550310506091
 30
0.0
 10
645.600727100844
 20
540.8926044746586
 30
0.0
 10
645.76471296969
 20
541.0398112995139
 30
0.0
 10
645.9260537846224
 20
541.1846437125315
 30
0.0
  0
SPLINE
  5
1DE
330
1F
100
AcDbEntity
  8
0
  6
Continuous
 62
     7
370
    25
100
AcDbSpline
210
0.0
220
0.0
230
1.0
 70
     8
 71
     3
 72
    12
 73
     8
 74
     0
 42
0.00000001
 43
0.00000001
 40
0.0
 40
0.0
 40
0.0
 40
0.0
 40
0.2230315344150424
 40
0.446133755834037
 40
0.6675099896776974
 40
0.8870667292264951
 40
1.0
 40
1.0
 40
1.0
 40
1.0
 10
696.8579858515075
 20
544.4835082827113
 30
0.0
 10
696.8384520653815
 20
544.4853985300061
 30
0.0
 10
696.799378302145
 20
544.4891796236855
 30
0.0
 10
696.5317891200889
 20
544.4822367874148
 30
0.0
 10
696.1442600362637
 20
544.466647964925
 30
0.0
 10
695.7435379238007
 20
544.4473106848608
 30
0.0
 10
695.4916785015428
 20
544.4337450836842
 30
0.0
 10
695.4061321469227
 20
544.429137403263
 30
0.0
  0
ARC
  5
1DF
330
1F
100
AcDbEntity
  8
0
  6
Continuous
 62
     7
370
    25
100
AcDbCircle
 10
696.830240229
 20
544.9828379391
 30
0.0
 40
0.5000999153470272
100
AcDbArc
 50
273.1804119247
 51
359.9809145383
  0
SPLINE
  5
1E0
330
1F
100
AcDbEntity
  8
0
  6
Continuous
 62
     7
370
    25
100
AcDbSpline
210
0.0
220
0.0
230
1.0
 70
     8
 71
     3
 72
    12
 73
     8
 74
     0
 42
0.00000001
 43
0.00000001
 40
0.0
 40
0.0
 40
0.0
 40
0.0
 40
0.2190444340109335
 40
0.4380981679380244
 40
0.6571027493691858
 40
0.8772791087290026
 40
1.0
 40
1.0
 40
1.0
 40
1.0
 10
695.4061321469193
 20
551.0408889119334
 30
0.0
 10
695.5725498876901
 20
551.0320600989836
 30
0.0
 10
695.9053924347892
 20
551.0144020982414
 30
0.0
 10
696.3435508774323
 20
550.9948836088323
 30
0.0
 10
696.670516704192
 20
550.9835778251999
 30
0.0
 10
696.8323605812061
 20
550.9817539571234
 30
0.0
 10
696.8512319136183
 20
550.9852623864482
 30
0.0
 10
696.8579858515074
 20
550.9865180324847
 30
0.0
  0
ARC
  5
1E1
330
1F
100
AcDbEntity
  8
0
  6
Continuous
 62
     7
370
    25
100
AcDbCircle
 10
696.830240229
 20
550.4871883761
 30
0.0
 40
0.5000999153465948
100
AcDbArc
 50
0.0190854623
 51
86.8195880753
  0
LINE
  5
1E2
330
1F
100
AcDbEntity
  8
0
  6
Continuous
 62
     7
370
    25
100
AcDbLine
 10
648.252577049
 20
541.8245248377
 30
0.0
 11
648.2795632306
 21
541.7532345624
 31
0.0
  0
LINE
  5
1E3
330
1F
100
AcDbEntity
  8
0
  6
Continuous
 62
     7
370
    25
100
AcDbLine
 10
696.8626762122
 20
544.4790698296
 30
0.0
 11
696.8579858515
 21
544.4835082827
 31
0.0
  0
ELLIPSE
  5
1E4
330
1F
100
AcDbEntity
  8
0
  6
Continuous
 62
     7
370
    25
100
AcDbEllipse
 10
695.3629046694
 20
544.3957773796
 30
0.0
 11
1.499999304622861
 21
0.0828726334386829
 31
0.0
210
0.0
220
0.0
230
1.0
 40
0.0174284859
 41
5.396717970286584
 42
6.299675703199956
  0
LINE
  5
1E5
330
1F
100
AcDbEntity
  8
0
  6
Continuous
 62
     7
370
    25
100
AcDbLine
 10
692.8472900004
 20
544.1870177916
 30
0.0
 11
696.3122532099
 21
544.4279090706
 31
0.0
  0
LINE
  5
1E6
330
1F
100
AcDbEntity
  8
0
  6
Continuous
 62
     7
370
    25
100
AcDbLine
 10
692.8472900004
 20
544.1871161828
 30
0.0
 11
692.8472900004
 21
544.1870177916
 31
0.0
  0
ELLIPSE
  5
1E7
330
1F
100
AcDbEntity
  8
0
  6
Continuous
 62
     7
370
    25
100
AcDbEllipse
 10
683.3978035795
 20
543.8574701314
 30
0.0
 11
14.49999327802038
 21
0.8011021232406392
 31
0.0
210
0.0
220
0.0
230
1.0
 40
0.0174284859
 41
4.685109492442225
 42
5.42123482899781
  0
ELLIPSE
  5
1E8
330
1F
100
AcDbEntity
  8
0
  6
Continuous
 62
     7
370
    25
100
AcDbEllipse
 10
682.0767936639
 20
542.9071865821
 30
0.0
 11
35.70262504606023
 21
1.972514619921981
 31
0.0
210
0.0
220
0.0
230
1.0
 40
0.0174284859
 41
1.543516838852421
 42
2.025717338718006
  0
ELLIPSE
  5
1E9
330
1F
100
AcDbEntity
  8
0
  6
Continuous
 62
     7
370
    25
100
AcDbEllipse
 10
663.0565661919
 20
542.5347905224
 30
0.0
 11
7.499996523114078
 21
0.4143631671935282
 31
0.0
210
0.0
220
0.0
230
1.0
 40
0.0174284859
 41
4.976419334597975
 42
5.167309992308257
  0
LINE
  5
1EA
330
1F
100
AcDbEntity
  8
0
  6
Continuous
 62
     7
370
    25
100
AcDbLine
 10
665.0012185929
 20
542.6671349736
 30
0.0
 11
665.0208368503
 21
542.516744429
 31
0.0
  0
SPLINE
  5
1EB
330
1F
100
AcDbEntity
  8
0
  6
Continuous
 62
     7
370
    25
100
AcDbSpline
210
0.0
220
0.0
230
1.0
 70
     8
 71
     3
 72
    10
 73
     6
 74
     0
 42
0.00000001
 43
0.00000001
 40
0.0
 40
0.0
 40
0.0
 40
0.0
 40
0.0186368637457253
 40
0.3939469944633057
 40
1.0
 40
1.0
 40
1.0
 40
1.0
 10
664.8174473072218
 20
542.6666486063228
 30
0.0
 10
664.8199035144704
 20
542.6667363568022
 30
0.0
 10
664.8718229509474
 20
542.668591230995
 30
0.0
 10
664.9758217994255
 20
542.6712712123733
 30
0.0
 10
664.9915224567746
 20
542.6687141309757
 30
0.0
 10
665.0012185929181
 20
542.6671349735678
 30
0.0
  0
LINE
  5
1EC
330
1F
100
AcDbEntity
  8
0
  6
Continuous
 62
     7
370
    25
100
AcDbLine
 10
648.2795632306
 20
541.7532345624
 30
0.0
 11
664.8174473072
 21
542.6666486063
 31
0.0
  0
LINE
  5
1ED
330
1F
100
AcDbEntity
  8
0
  6
Continuous
 62
     7
370
    25
100
AcDbLine
 10
664.8195130391
 20
552.8195813577
 30
0.0
 11
648.2856046157
 21
553.7327758199
 31
0.0
  0
SPLINE
  5
1EE
330
1F
100
AcDbEntity
  8
0
  6
Continuous
 62
     7
370
    25
100
AcDbSpline
210
0.0
220
0.0
230
1.0
 70
     8
 71
     3
 72
    11
 73
     7
 74
     0
 42
0.00000001
 43
0.00000001
 40
0.0
 40
0.0
 40
0.0
 40
0.0
 40
0.4177469294495335
 40
0.8392770662410767
 40
0.9817832068819767
 40
1.0
 40
1.0
 40
1.0
 40
1.0
 10
665.00321847979
 20
552.8182319124147
 30
0.0
 10
664.9985814517581
 20
552.8171487212311
 30
0.0
 10
664.9892654017567
 20
552.814972529248
 30
0.0
 10
664.9137689360067
 20
552.8161747061395
 30
0.0
 10
664.8435087354346
 20
552.8186452334794
 30
0.0
 10
664.821955898777
 20
552.8194860564364
 30
0.0
 10
664.819513039147
 20
552.8195813576948
 30
0.0
  0
LINE
  5
1EF
330
1F
100
AcDbEntity
  8
0
  6
Continuous
 62
     7
370
    25
100
AcDbLine
 10
665.0208368503
 20
552.9532818862
 30
0.0
 11
665.0032184798
 21
552.8182319124
 31
0.0
  0
ELLIPSE
  5
1F0
330
1F
100
AcDbEntity
  8
0
  6
Continuous
 62
     7
370
    25
100
AcDbEllipse
 10
663.0565661919
 20
552.9352357928
 30
0.0
 11
7.499996523114078
 21
-0.4143631671934145
 31
0.0
210
0.0
220
0.0
230
1.0
 40
0.0174284859
 41
1.115875314871656
 42
1.306765972581824
  0
ELLIPSE
  5
1F1
330
1F
100
AcDbEntity
  8
0
  6
Continuous
 62
     7
370
    25
100
AcDbEllipse
 10
682.0767936639
 20
552.5628397331
 30
0.0
 11
35.70262504606012
 21
-1.972514619921867
 31
0.0
210
0.0
220
0.0
230
1.0
 40
0.0174284859
 41
4.257467968461693
 42
4.739668468327165
  0
ELLIPSE
  5
1F2
330
1F
100
AcDbEntity
  8
0
  6
Continuous
 62
     7
370
    25
100
AcDbEllipse
 10
683.3978035795
 20
551.6125561838
 30
0.0
 11
14.49999327802038
 21
-0.801102123240753
 31
0.0
210
0.0
220
0.0
230
1.0
 40
0.0174284859
 41
0.8619504781817974
 42
1.598075814737387
  0
LINE
  5
1F3
330
1F
100
AcDbEntity
  8
0
  6
Continuous
 62
     7
370
    25
100
AcDbLine
 10
692.8472900004
 20
551.2830085236
 30
0.0
 11
692.8472900004
 21
551.2829101324
 31
0.0
  0
LINE
  5
1F4
330
1F
100
AcDbEntity
  8
0
  6
Continuous
 62
     7
370
    25
100
AcDbLine
 10
696.3122532099
 20
551.0421172446
 30
0.0
 11
692.8472900004
 21
551.2830085236
 31
0.0
  0
ELLIPSE
  5
1F5
330
1F
100
AcDbEntity
  8
0
  6
Continuous
 62
     7
370
    25
100
AcDbEllipse
 10
695.3629046694
 20
551.0742489356
 30
0.0
 11
1.499999304622861
 21
-0.08287263343879658
 31
0.0
210
0.0
220
0.0
230
1.0
 40
0.0174284859
 41
0.5029472149868208
 42
0.8864673368944395
  0
LINE
  5
1F6
330
1F
100
AcDbEntity
  8
0
  6
Continuous
 62
     7
370
    25
100
AcDbLine
 10
696.8579858515
 20
550.9865180325
 30
0.0
 11
696.8626762122
 21
550.9909564856
 31
0.0
  0
LINE
  5
1F7
330
1F
100
AcDbEntity
  8
0
  6
Continuous
 62
     7
370
    25
100
AcDbLine
 10
648.2856046157
 20
553.7327758199
 30
0.0
 11
648.252577049
 21
553.6455014775
 31
0.0
  0
SPLINE
  5
1F8
330
1F
100
AcDbEntity
  8
0
  6
Continuous
 62
     7
370
    25
100
AcDbSpline
210
0.0
220
0.0
230
1.0
 70
     8
 71
     3
 72
     9
 73
     5
 74
     0
 42
0.00000001
 43
0.00000001
 40
0.0
 40
0.0
 40
0.0
 40
0.0
 40
0.5001021276704715
 40
0.9999999999999999
 40
0.9999999999999999
 40
0.9999999999999999
 40
0.9999999999999999
 10
645.4596648018348
 20
540.6871205763249
 30
0.0
 10
645.8886125775422
 20
540.9736462104136
 30
0.0
 10
646.7463329349927
 20
541.5465804537113
 30
0.0
 10
647.7685560636079
 20
541.6843592401655
 30
0.0
 10
648.2795632306485
 20
541.7532345623661
 30
0.0
  0
LINE
  5
1F9
330
1F
100
AcDbEntity
  8
0
  6
Continuous
 62
     7
370
    25
100
AcDbLine
 10
645.4596648018
 20
540.6871205763
 30
0.0
 11
645.4264459358
 21
540.7528120233
 31
0.0
  0
SPLINE
  5
1FA
330
1F
100
AcDbEntity
  8
0
  6
Continuous
 62
     7
370
    25
100
AcDbSpline
210
0.0
220
0.0
230
1.0
 70
     8
 71
     3
 72
     9
 73
     5
 74
     0
 42
0.00000001
 43
0.00000001
 40
0.0
 40
0.0
 40
0.0
 40
0.0
 40
0.4007227371565293
 40
1.0
 40
1.0
 40
1.0
 40
1.0
 10
648.2856046157002
 20
553.7327758199094
 30
0.0
 10
647.8769184922909
 20
553.781183081975
 30
0.0
 10
646.8570459332511
 20
553.9019829707189
 30
0.0
 10
645.9879698894252
 20
554.4620902440726
 30
0.0
 10
645.4671523766784
 20
554.7977497977466
 30
0.0
  0
LINE
  5
1FB
330
1F
100
AcDbEntity
  8
0
  6
Continuous
 62
     7
370
    25
100
AcDbLine
 10
645.4264459358
 20
554.7172142919
 30
0.0
 11
645.4671523767
 21
554.7977497977
 31
0.0
  0
ARC
  5
1FC
330
1F
100
AcDbEntity
  8
0
  6
Continuous
 62
     7
370
    25
100
AcDbCircle
 10
639.901819222
 20
547.7350131576
 30
0.0
 40
8.975658044222143
100
AcDbArc
 50
245.1648853947
 51
308.2586979829
  0
LWPOLYLINE
  5
1FD
330
1F
100
AcDbEntity
  8
0
  6
Continuous
 62
     7
370
    25
100
AcDbPolyline
 90
        3
 70
   128
 43
0.0
 10
635.9665057977
 20
539.4843534343
 10
636.0710873619
 20
539.5506058456
 10
636.1319679046
 20
539.5894218119
  0
ARC
  5
1FE
330
1F
100
AcDbEntity
  8
0
  6
Continuous
 62
     7
370
    25
100
AcDbCircle
 10
639.901819222
 20
547.7350131576
 30
0.0
 40
9.14112015109221
100
AcDbArc
 50
115.4997164176
 51
244.5002794289
  0
LWPOLYLINE
  5
1FF
330
1F
100
AcDbEntity
  8
0
  6
Continuous
 62
     7
370
    25
100
AcDbPolyline
 90
        3
 70
   128
 43
0.0
 10
636.1156749941
 20
555.891010574
 10
636.0710873619
 20
555.9194204696
 10
635.9665057974
 20
555.9856728811
  0
ARC
  5
200
330
1F
100
AcDbEntity
  8
0
  6
Continuous
 62
     7
370
    25
100
AcDbCircle
 10
639.901819222
 20
547.7350131576
 30
0.0
 40
8.991950954660814
100
AcDbArc
 50
51.762407147
 51
114.9014811666
  0
LINE
  5
201
330
1F
100
AcDbEntity
  8
0
  6
Continuous
 62
     7
370
    25
100
AcDbLine
 10
697.3350304773
 20
550.4917934145
 30
0.0
 11
697.3303401166
 21
550.4873549614
 31
0.0
  0
LINE
  5
202
330
1F
100
AcDbEntity
  8
0
  6
Continuous
 62
     7
370
    25
100
AcDbLine
 10
697.3350304773
 20
544.9782329007
 30
0.0
 11
697.3350304773
 21
550.4917934145
 31
0.0
  0
LINE
  5
203
330
1F
100
AcDbEntity
  8
0
  6
Continuous
 62
     7
370
    25
100
AcDbLine
 10
697.3303401166
 20
544.9826713538
 30
0.0
 11
697.3350304773
 21
544.9782329007
 31
0.0
  0
ARC
  5
204
330
1F
100
AcDbEntity
  8
0
  6
Continuous
 62
     7
370
    25
100
AcDbCircle
 10
696.8349305897
 20
550.4916268292
 30
0.0
 40
0.5000999153470679
100
AcDbArc
 50
0.0190854617
 51
86.8195880753
  0
ARC
  5
205
330
1F
100
AcDbEntity
  8
0
  6
Continuous
 62
     7
370
    25
100
AcDbCircle
 10
696.8349305897
 20
544.978399486
 30
0.0
 40
0.5000999153470679
100
AcDbArc
 50
273.1804119247
 51
359.9809145383
  0
LINE
  5
206
330
1F
100
AcDbEntity
  8
0
  6
Continuous
 62
     7
370
    25
100
AcDbLine
 10
696.3122532099
 20
551.0421172446
 30
0.0
 11
696.3193609406
 21
551.0417502079
 31
0.0
  0
LINE
  5
207
330
1F
100
AcDbEntity
  8
0
  6
Continuous
 62
     7
370
    25
100
AcDbLine
 10
696.3122532099
 20
544.4279090706
 30
0.0
 11
696.3193609406
 21
544.4282761073
 31
0.0
  0
SPLINE
  5
208
330
1F
100
AcDbEntity
  8
0
  6
Continuous
 62
     7
370
    25
100
AcDbSpline
210
0.0
220
0.0
230
1.0
 70
     8
 71
     3
 72
    12
 73
     8
 74
     0
 42
0.00000001
 43
0.00000001
 40
0.0
 40
0.0
 40
0.0
 40
0.0
 40
0.1345419440893861
 40
0.4125227334043404
 40
0.6966514762099311
 40
0.8475579366075734
 40
1.0
 40
1.0
 40
1.0
 40
1.0
 10
636.131189298144
 20
539.5886151947777
 30
0.0
 10
636.5605467215739
 20
539.3977897481853
 30
0.0
 10
637.8770112569987
 20
538.8126946288589
 30
0.0
 10
640.2506392010209
 20
538.187745980068
 30
0.0
 10
642.7755856330947
 20
537.8863903445754
 30
0.0
 10
644.9205233518718
 20
537.7808036749709
 30
0.0
 10
646.0568710585575
 20
537.7751707072745
 30
0.0
 10
646.6279211067796
 20
537.772339965895
 30
0.0
  0
ARC
  5
209
330
1F
100
AcDbEntity
  8
0
  6
Continuous
 62
     7
370
    25
100
AcDbCircle
 10
642.1353901138
 20
538.3921640105
 30
0.0
 40
4.535087272520737
100
AcDbArc
 50
329.0284626407
 51
352.1446266983
  0
SPLINE
  5
20A
330
1F
100
AcDbEntity
  8
0
  6
Continuous
 62
     7
370
    25
100
AcDbSpline
210
0.0
220
0.0
230
1.0
 70
     8
 71
     3
 72
    12
 73
     8
 74
     0
 42
0.00000001
 43
0.00000001
 40
0.0
 40
0.0
 40
0.0
 40
0.0
 40
0.1662426524176549
 40
0.3368059756191304
 40
0.6054181071254592
 40
0.8801435087136196
 40
1.0
 40
1.0
 40
1.0
 40
1.0
 10
646.0238784692785
 20
536.058352775927
 30
0.0
 10
645.3861969487424
 20
536.2138379514101
 30
0.0
 10
644.0942604719419
 20
536.5288493847653
 30
0.0
 10
641.9100740895924
 20
537.1918144897638
 30
0.0
 10
639.5480997460327
 20
538.0440094065692
 30
0.0
 10
637.5825621841401
 20
538.8866380851813
 30
0.0
 10
636.4687871993445
 20
539.4244961778764
 30
0.0
 10
636.130471721187
 20
539.5878736287037
 30
0.0
  0
LINE
  5
20B
330
1F
100
AcDbEntity
  8
0
  6
Continuous
 62
     7
370
    25
100
AcDbLine
 10
636.1304717212
 20
539.5878736287
 30
0.0
 11
636.1311892981
 21
539.5886151948
 31
0.0
  0
LINE
  5
20C
330
1F
100
AcDbEntity
  8
0
  6
Continuous
 62
     7
370
    25
100
AcDbLine
 10
646.0238784693
 20
536.0583527759
 30
0.0
 11
646.0080203923
 21
535.9888792444
 31
0.0
  0
ARC
  5
20D
330
1F
100
AcDbEntity
  8
0
  6
Continuous
 62
     7
370
    25
100
AcDbCircle
 10
656.7297986288
 20
582.9605140566
 30
0.0
 40
48.17977797259059
100
AcDbArc
 50
244.4718479123
 51
257.1419190681
  0
LWPOLYLINE
  5
20E
330
1F
100
AcDbEntity
  8
0
  6
Continuous
 62
     7
370
    25
100
AcDbPolyline
 90
        3
 70
   128
 43
0.0
 10
636.1304717212
 20
539.5878736287
 10
636.0710838708
 20
539.5503499251
 10
635.966505798
 20
539.4843518952
  0
LINE
  5
20F
330
1F
100
AcDbEntity
  8
0
  6
Continuous
 62
     7
370
    25
100
AcDbLine
 10
645.4596648018
 20
540.6871205763
 30
0.0
 11
647.657536722
 21
537.900003702
 31
0.0
  0
ARC
  5
210
330
1F
100
AcDbEntity
  8
0
  6
Continuous
 62
     7
370
    25
100
AcDbCircle
 10
639.901819222
 20
547.7350131576
 30
0.0
 40
12.52511736202722
100
AcDbArc
 50
307.8583068702
 51
308.2586979829
  0
LINE
  5
211
330
1F
100
AcDbEntity
  8
0
  6
Continuous
 62
     7
370
    25
100
AcDbLine
 10
646.6279211068
 20
537.7723399659
 30
0.0
 11
647.5886194557
 21
537.8460462196
 31
0.0
  0
LINE
  5
212
330
1F
100
AcDbEntity
  8
0
  6
Continuous
 62
     7
370
    25
100
AcDbLine
 10
636.1319679046
 20
539.5894218119
 30
0.0
 11
636.1311892981
 21
539.5886151948
 31
0.0
  0
LINE
  5
213
330
1F
100
AcDbEntity
  8
0
  6
Continuous
 62
     7
370
    25
100
AcDbLine
 10
650.5753897824
 20
538.3251677066
 30
0.0
 11
648.4753072664
 21
538.2091767579
 31
0.0
  0
LINE
  5
214
330
1F
100
AcDbEntity
  8
0
  6
Continuous
 62
     7
370
    25
100
AcDbLine
 10
648.2795632306
 20
541.7532345624
 30
0.0
 11
648.4753072664
 21
538.2091767579
 31
0.0
  0
SPLINE
  5
215
330
1F
100
AcDbEntity
  8
0
  6
Continuous
 62
     7
370
    25
100
AcDbSpline
210
0.0
220
0.0
230
1.0
 70
     8
 71
     3
 72
    17
 73
    13
 74
     0
 42
0.00000001
 43
0.00000001
 40
0.0
 40
0.0
 40
0.0
 40
0.0
 40
0.2859834379244695
 40
0.5215922644122232
 40
0.7592399016809382
 40
0.8521492405060503
 40
0.9266708633836017
 40
0.9605058393195365
 40
0.9835417153308587
 40
0.9930790992390833
 40
0.9972256067114874
 40
1.0
 40
1.0
 40
1.0
 40
1.0
 10
652.0160581445276
 20
538.8493113886129
 30
0.0
 10
653.2448363282749
 20
539.3811795126334
 30
0.0
 10
655.4859493101056
 20
540.351229740681
 30
0.0
 10
658.8248979970075
 20
541.3934604114655
 30
0.0
 10
661.3275533637143
 20
542.0112789723922
 30
0.0
 10
663.0978596477505
 20
542.3652542816104
 30
0.0
 10
663.9629804830878
 20
542.5199553162232
 30
0.0
 10
664.4885679123632
 20
542.6084553070549
 30
0.0
 10
664.7222300260205
 20
542.6475670698775
 30
0.0
 10
664.7998801855099
 20
542.6618868366394
 30
0.0
 10
664.8159618397099
 20
542.6656205889568
 30
0.0
 10
664.8170222276859
 20
542.6663544301517
 30
0.0
 10
664.8174473072218
 20
542.6666486063228
 30
0.0
  0
LINE
  5
216
330
1F
100
AcDbEntity
  8
0
  6
Continuous
 62
     7
370
    25
100
AcDbLine
 10
650.5753897824
 20
538.3251677066
 30
0.0
 11
652.0160581445
 21
538.8493113886
 31
0.0
  0
ARC
  5
217
330
1F
100
AcDbEntity
  8
0
  6
Continuous
 62
     7
370
    25
100
AcDbCircle
 10
657.8194909357
 20
542.4584137694
 30
0.0
 40
6.834138728218392
100
AcDbArc
 50
211.8771071303
 51
226.9488007428
  0
SPLINE
  5
218
330
1F
100
AcDbEntity
  8
0
  6
Continuous
 62
     7
370
    25
100
AcDbSpline
210
0.0
220
0.0
230
1.0
 70
     8
 71
     3
 72
    10
 73
     6
 74
     0
 42
0.00000001
 43
0.00000001
 40
0.0
 40
0.0
 40
0.0
 40
0.0
 40
0.5975855365574468
 40
0.9790563563182108
 40
1.0
 40
1.0
 40
1.0
 40
1.0
 10
664.9274726269094
 20
542.6575217089835
 30
0.0
 10
664.9299917662628
 20
542.6612610067099
 30
0.0
 10
664.9341190070434
 20
542.6673872982334
 30
0.0
 10
664.8597478804882
 20
542.6677638570899
 30
0.0
 10
664.8195399283836
 20
542.6667037780894
 30
0.0
 10
664.8174473072218
 20
542.6666486063228
 30
0.0
  0
SPLINE
  5
219
330
1F
100
AcDbEntity
  8
0
  6
Continuous
 62
     7
370
    25
100
AcDbSpline
210
0.0
220
0.0
230
1.0
 70
     8
 71
     3
 72
    15
 73
    11
 74
     0
 42
0.00000001
 43
0.00000001
 40
0.0
 40
0.0
 40
0.0
 40
0.0
 40
0.0128981401598393
 40
0.0519443541565597
 40
0.1318327952014331
 40
0.2279057212361199
 40
0.4677439605522724
 40
0.7076088995729
 40
0.8538517081976991
 40
1.0
 40
1.0
 40
1.0
 40
1.0
 10
664.9274726269094
 20
542.6575217089835
 30
0.0
 10
664.8940040233852
 20
542.6496768116959
 30
0.0
 10
664.7592167615747
 20
542.6180832549524
 30
0.0
 10
664.319946381608
 20
542.5156925116434
 30
0.0
 10
663.5084907616234
 20
542.3133710161547
 30
0.0
 10
661.8552244298346
 20
541.8457221169245
 30
0.0
 10
659.5088652990704
 20
541.0141353388893
 30
0.0
 10
656.9652694572432
 20
539.8205447438144
 30
0.0
 10
654.8464920376019
 20
538.6136226991241
 30
0.0
 10
653.7181457960218
 20
537.8473970326219
 30
0.0
 10
653.1541550468929
 20
537.4644080424275
 30
0.0
  0
LWPOLYLINE
  5
21A
330
1F
100
AcDbEntity
  8
0
  6
Continuous
 62
     7
370
    25
100
AcDbPolyline
 90
        4
 70
   128
 43
0.0
 10
664.946999441
 20
542.5064261327
 10
664.9447548053
 20
542.5237842796
 10
664.9357797714
 20
542.5932170258
 10
664.9274726269
 20
542.657521709
  0
LINE
  5
21B
330
1F
100
AcDbEntity
  8
0
  6
Continuous
 62
     7
370
    25
100
AcDbLine
 10
663.1588751572
 20
542.0768986294
 30
0.0
 11
664.946999441
 21
542.5064261327
 31
0.0
  0
ARC
  5
21C
330
1F
100
AcDbEntity
  8
0
  6
Continuous
 62
     7
370
    25
100
AcDbCircle
 10
671.3444335558
 20
511.6512050356
 30
0.0
 40
31.50755777528337
100
AcDbArc
 50
105.0579972479
 51
125.1719294169
  0
LINE
  5
21D
330
1F
100
AcDbEntity
  8
0
  6
Continuous
 62
     7
370
    25
100
AcDbLine
 10
653.1541550469
 20
537.4644080424
 30
0.0
 11
653.1950749331
 21
537.4063400294
 31
0.0
  0
SPLINE
  5
21E
330
1F
100
AcDbEntity
  8
0
  6
Continuous
 62
     7
370
    25
100
AcDbSpline
210
0.0
220
0.0
230
1.0
 70
     8
 71
     3
 72
     9
 73
     5
 74
     0
 42
0.00000001
 43
0.00000001
 40
0.0
 40
0.0
 40
0.0
 40
0.0
 40
0.499897873060973
 40
0.9999999999999999
 40
0.9999999999999999
 40
0.9999999999999999
 40
0.9999999999999999
 10
648.4753072663539
 20
538.2091767579221
 30
0.0
 10
648.327112350458
 20
538.1892104199198
 30
0.0
 10
648.030661967526
 20
538.1492695858452
 30
0.0
 10
647.7819287387495
 20
537.9831036432746
 30
0.0
 10
647.6575367219978
 20
537.9000037019703
 30
0.0
  0
ARC
  5
21F
330
1F
100
AcDbEntity
  8
0
  6
Continuous
 62
     7
370
    25
100
AcDbCircle
 10
665.0288079418
 20
542.1678202692
 30
0.0
 40
0.5000763403843842
100
AcDbArc
 50
93.16262964
 51
101.6913635617
  0
SPLINE
  5
220
330
1F
100
AcDbEntity
  8
0
  6
Continuous
 62
     7
370
    25
100
AcDbSpline
210
0.0
220
0.0
230
1.0
 70
     8
 71
     3
 72
    13
 73
     9
 74
     0
 42
0.00000001
 43
0.00000001
 40
0.0
 40
0.0
 40
0.0
 40
0.0
 40
0.0460329529079877
 40
0.2492425848193723
 40
0.4775225570272884
 40
0.7051721168687842
 40
0.852680826381466
 40
1.0
 40
1.0
 40
1.0
 40
1.0
 10
636.1144407474968
 20
555.8922849177005
 30
0.0
 10
636.2427753995353
 20
555.9547938861372
 30
0.0
 10
636.9376354590206
 20
556.2932448410145
 30
0.0
 10
638.2972986935974
 20
556.9112222650434
 30
0.0
 10
640.3052713104157
 20
557.7216945917565
 30
0.0
 10
642.3197815723188
 20
558.4143193930212
 30
0.0
 10
644.1820648535644
 20
558.9645531947194
 30
0.0
 10
645.2744344168029
 20
559.2320693058252
 30
0.0
 10
645.8202680728099
 20
559.3657413723856
 30
0.0
  0
LINE
  5
221
330
1F
100
AcDbEntity
  8
0
  6
Continuous
 62
     7
370
    25
100
AcDbLine
 10
646.2737281507
 20
557.4181388432
 30
0.0
 11
645.8202680728
 21
559.3657413724
 31
0.0
  0
SPLINE
  5
222
330
1F
100
AcDbEntity
  8
0
  6
Continuous
 62
     7
370
    25
100
AcDbSpline
210
0.0
220
0.0
230
1.0
 70
     8
 71
     3
 72
    13
 73
     9
 74
     0
 42
0.00000001
 43
0.00000001
 40
0.0
 40
0.0
 40
0.0
 40
0.0
 40
0.2574896950994369
 40
0.4890886589321034
 40
0.7206004760683483
 40
0.9447506334961274
 40
0.9460032291293298
 40
0.9999999999999999
 40
0.9999999999999999
 40
0.9999999999999999
 40
0.9999999999999999
 10
646.2737281506969
 20
557.4181388431716
 30
0.0
 10
645.355002574709
 20
557.4462018072863
 30
0.0
 10
643.6099297875709
 20
557.4995059889517
 30
0.0
 10
641.1153645416575
 20
557.3349418701137
 30
0.0
 10
638.7997147356564
 20
556.9215678751036
 30
0.0
 10
637.3226061340531
 20
556.42201068854
 30
0.0
 10
636.4513446895118
 20
556.0477678336104
 30
0.0
 10
636.2812982806889
 20
555.9687874151251
 30
0.0
 10
636.1151071086338
 20
555.8915976149505
 30
0.0
  0
LINE
  5
223
330
1F
100
AcDbEntity
  8
0
  6
Continuous
 62
     7
370
    25
100
AcDbLine
 10
636.1151071086
 20
555.891597615
 30
0.0
 11
636.1144407475
 21
555.8922849177
 31
0.0
  0
ARC
  5
224
330
1F
100
AcDbEntity
  8
0
  6
Continuous
 62
     7
370
    25
100
AcDbCircle
 10
656.7297986288
 20
512.5095122586
 30
0.0
 40
48.10950076354645
100
AcDbArc
 50
102.8580809319
 51
103.1066633214
  0
LWPOLYLINE
  5
225
330
1F
100
AcDbEntity
  8
0
  6
Continuous
 62
     7
370
    25
100
AcDbPolyline
 90
        3
 70
   128
 43
0.0
 10
636.1144407475
 20
555.8922849177
 10
636.0710838708
 20
555.9196763901
 10
635.9665057977
 20
555.9856744201
  0
ARC
  5
226
330
1F
100
AcDbEntity
  8
0
  6
Continuous
 62
     7
370
    25
100
AcDbCircle
 10
656.7297986288
 20
512.5095122586
 30
0.0
 40
48.17977797259062
100
AcDbArc
 50
102.8580809319
 51
115.5281512988
  0
LINE
  5
227
330
1F
100
AcDbEntity
  8
0
  6
Continuous
 62
     7
370
    25
100
AcDbLine
 10
646.0236596643
 20
559.4126321142
 30
0.0
 11
646.0080203923
 21
559.4811470708
 31
0.0
  0
LINE
  5
228
330
1F
100
AcDbEntity
  8
0
  6
Continuous
 62
     7
370
    25
100
AcDbLine
 10
648.2856046157
 20
553.7327758199
 30
0.0
 11
648.4289664447
 21
556.3284237894
 31
0.0
  0
LINE
  5
229
330
1F
100
AcDbEntity
  8
0
  6
Continuous
 62
     7
370
    25
100
AcDbLine
 10
648.4289664447
 20
556.3284237894
 30
0.0
 11
652.3790474665
 21
556.1102544357
 31
0.0
  0
SPLINE
  5
22A
330
1F
100
AcDbEntity
  8
0
  6
Continuous
 62
     7
370
    25
100
AcDbSpline
210
0.0
220
0.0
230
1.0
 70
     8
 71
     3
 72
    17
 73
    13
 74
     0
 42
0.00000001
 43
0.00000001
 40
0.0
 40
0.0
 40
0.0
 40
0.0
 40
0.0068264277560522
 40
0.0088450004853823
 40
0.0223994102884411
 40
0.0309598270239204
 40
0.0563228448230682
 40
0.1198844474831659
 40
0.1957493698893789
 40
0.5558716060100601
 40
0.7769840750939091
 40
1.0
 40
1.0
 40
1.0
 40
1.0
 10
664.819513039147
 20
552.8195813576948
 30
0.0
 10
664.8158928939778
 20
552.8206195407396
 30
0.0
 10
664.8112022729206
 20
552.8219647142129
 30
0.0
 10
664.7676695602888
 20
552.8295547022913
 30
0.0
 10
664.6931376363294
 20
552.8413062090223
 30
0.0
 10
664.5263053980458
 20
552.867025104603
 30
0.0
 10
664.1447291517941
 20
552.9255396772243
 30
0.0
 10
663.4618296254885
 20
553.0347367331846
 30
0.0
 10
661.3568138244563
 20
553.4019081488212
 30
0.0
 10
658.5486875560537
 20
554.0350750511772
 30
0.0
 10
655.1491218707961
 20
555.0475209276526
 30
0.0
 10
653.3050400708339
 20
555.7549992240199
 30
0.0
 10
652.3790474664737
 20
556.1102544356895
 30
0.0
  0
LINE
  5
22B
330
1F
100
AcDbEntity
  8
0
  6
Continuous
 62
     7
370
    25
100
AcDbLine
 10
652.3790474665
 20
556.1102544357
 30
0.0
 11
653.508522884
 21
557.7604262253
 31
0.0
  0
SPLINE
  5
22C
330
1F
100
AcDbEntity
  8
0
  6
Continuous
 62
     7
370
    25
100
AcDbSpline
210
0.0
220
0.0
230
1.0
 70
     8
 71
     3
 72
    15
 73
    11
 74
     0
 42
0.00000001
 43
0.00000001
 40
0.0
 40
0.0
 40
0.0
 40
0.0
 40
0.2255198391625371
 40
0.4515645943751955
 40
0.6337799820516983
 40
0.8158790324473555
 40
0.8946729146060259
 40
0.9638048440471934
 40
0.9940832206369729
 40
1.0
 40
1.0
 40
1.0
 40
1.0
 10
653.5085228839656
 20
557.7604262253283
 30
0.0
 10
654.3539714248196
 20
557.2154185559867
 30
0.0
 10
656.0468363578275
 20
556.1241346669443
 30
0.0
 10
658.523152551507
 20
554.9070312773516
 30
0.0
 10
660.8515634662181
 20
553.9761314689165
 30
0.0
 10
662.5920429560405
 20
553.420340924103
 30
0.0
 10
663.8497118124102
 20
553.0837880971385
 30
0.0
 10
664.4938447103225
 20
552.9284409908141
 30
0.0
 10
664.8217900004046
 20
552.8528875925466
 30
0.0
 10
664.9143274440287
 20
552.8313668844967
 30
0.0
 10
664.9294544305641
 20
552.8278489197878
 30
0.0
  0
SPLINE
  5
22D
330
1F
100
AcDbEntity
  8
0
  6
Continuous
 62
     7
370
    25
100
AcDbSpline
210
0.0
220
0.0
230
1.0
 70
     8
 71
     3
 72
    11
 73
     7
 74
     0
 42
0.00000001
 43
0.00000001
 40
0.0
 40
0.0
 40
0.0
 40
0.0
 40
0.0195561212295859
 40
0.1681891996744558
 40
0.5898876540792811
 40
1.0
 40
1.0
 40
1.0
 40
1.0
 10
664.819513039147
 20
552.8195813576948
 30
0.0
 10
664.8214717522951
 20
552.8195232439791
 30
0.0
 10
664.8383173421178
 20
552.8190234465385
 30
0.0
 10
664.8902179058769
 20
552.818177029125
 30
0.0
 10
664.9395025379425
 20
552.8202663276469
 30
0.0
 10
664.9327725528661
 20
552.8253449688306
 30
0.0
 10
664.9294544305641
 20
552.8278489197878
 30
0.0
  0
LINE
  5
22E
330
1F
100
AcDbEntity
  8
0
  6
Continuous
 62
     7
370
    25
100
AcDbLine
 10
645.4671523767
 20
554.7977497977
 30
0.0
 11
647.0761093699
 21
556.8396112987
 31
0.0
  0
LINE
  5
22F
330
1F
100
AcDbEntity
  8
0
  6
Continuous
 62
     7
370
    25
100
AcDbLine
 10
636.1151071086
 20
555.891597615
 30
0.0
 11
636.1156749941
 21
555.891010574
 31
0.0
  0
ARC
  5
230
330
1F
100
AcDbEntity
  8
0
  6
Continuous
 62
     7
370
    25
100
AcDbCircle
 10
639.901819222
 20
547.7350131576
 30
0.0
 40
11.59155496206743
100
AcDbArc
 50
51.762407147
 51
56.6533814372
  0
LWPOLYLINE
  5
231
330
1F
100
AcDbEntity
  8
0
  6
Continuous
 62
     7
370
    25
100
AcDbPolyline
 90
        4
 70
   128
 43
0.0
 10
664.9294544306
 20
552.8278489198
 10
664.9316966769
 20
552.8452071748
 10
664.9406691597
 20
552.9146400364
 10
664.946999441
 20
552.9636001825
  0
ARC
  5
232
330
1F
100
AcDbEntity
  8
0
  6
Continuous
 62
     7
370
    25
100
AcDbCircle
 10
671.3444335558
 20
583.8188212796
 30
0.0
 40
31.57783498432752
100
AcDbArc
 50
234.8280705831
 51
235.6099480104
  0
LINE
  5
233
330
1F
100
AcDbEntity
  8
0
  6
Continuous
 62
     7
370
    25
100
AcDbLine
 10
653.1545930183
 20
558.006239783
 30
0.0
 11
653.1950749331
 21
558.0636862858
 31
0.0
  0
ARC
  5
234
330
1F
100
AcDbEntity
  8
0
  6
Continuous
 62
     7
370
    25
100
AcDbCircle
 10
671.3444335558
 20
583.8188212796
 30
0.0
 40
31.50755777528333
100
AcDbArc
 50
234.8280705831
 51
254.9420027521
  0
LINE
  5
235
330
1F
100
AcDbEntity
  8
0
  6
Continuous
 62
     7
370
    25
100
AcDbLine
 10
664.946999441
 20
552.9636001825
 30
0.0
 11
663.1588751572
 21
553.3931276858
 31
0.0
  0
LINE
  5
236
330
1F
100
AcDbEntity
  8
0
  6
Continuous
 62
     7
370
    25
100
AcDbLine
 10
665.0208368503
 20
542.516744429
 30
0.0
 11
664.946999441
 21
542.5064261327
 31
0.0
  0
SPLINE
  5
237
330
1F
100
AcDbEntity
  8
0
  6
Continuous
 62
     7
370
    25
100
AcDbSpline
210
0.0
220
0.0
230
1.0
 70
     8
 71
     3
 72
    10
 73
     6
 74
     0
 42
0.00000001
 43
0.00000001
 40
0.0
 40
0.0
 40
0.0
 40
0.0
 40
0.0490769085761621
 40
0.5995805843665267
 40
1.0
 40
1.0
 40
1.0
 40
1.0
 10
647.0761093699368
 20
556.839611298723
 30
0.0
 10
647.0950569083059
 20
556.8249885631216
 30
0.0
 10
647.3265420702127
 20
556.6463402209325
 30
0.0
 10
647.7724158450297
 20
556.4122882275112
 30
0.0
 10
648.2344224219142
 20
556.3532738544936
 30
0.0
 10
648.4289664446678
 20
556.3284237893613
 30
0.0
  0
ARC
  5
238
330
1F
100
AcDbEntity
  8
0
  6
Continuous
 62
     7
370
    25
100
AcDbCircle
 10
665.0308078315
 20
553.3175466168
 30
0.0
 40
0.5000763405451156
100
AcDbArc
 50
258.3065203382
 51
266.8373700343
  0
SPLINE
  5
239
330
1F
100
AcDbEntity
  8
0
  6
Continuous
 62
     7
370
    25
100
AcDbSpline
210
0.0
220
0.0
230
1.0
 70
     8
 71
     3
 72
     9
 73
     5
 74
     0
 42
0.00000001
 43
0.00000001
 40
0.0
 40
0.0
 40
0.0
 40
0.0
 40
0.845891190778427
 40
0.9999999999999999
 40
0.9999999999999999
 40
0.9999999999999999
 40
0.9999999999999999
 10
664.9469994409745
 20
552.9636001824741
 30
0.0
 10
664.9678400370857
 20
552.9597853754817
 30
0.0
 10
664.9924774802205
 20
552.9552755673245
 30
0.0
 10
665.0170500073967
 20
552.9535481035734
 30
0.0
 10
665.0208368502995
 20
552.9532818861918
 30
0.0
  0
LINE
  5
23A
330
1F
100
AcDbEntity
  8
0
  6
Continuous
 62
     7
370
    25
100
AcDbLine
 10
683.0162570479
 20
551.8870260329
 30
0.0
 11
683.0157990281
 21
551.8870511194
 31
0.0
  0
LINE
  5
23B
330
1F
100
AcDbEntity
  8
0
  6
Continuous
 62
     7
370
    25
100
AcDbLine
 10
653.1541550469
 20
537.4644080424
 30
0.0
 11
651.3154141976
 21
536.4674418068
 31
0.0
  0
LINE
  5
23C
330
1F
100
AcDbEntity
  8
0
  6
Continuous
 62
     7
370
    25
100
AcDbLine
 10
650.5753897824
 20
538.3251677066
 30
0.0
 11
651.3154141976
 21
536.4674418068
 31
0.0
  0
LINE
  5
23D
330
1F
100
AcDbEntity
  8
0
  6
Continuous
 62
     7
370
    25
100
AcDbLine
 10
647.5886194557
 20
537.8460462196
 30
0.0
 11
647.466785709
 21
535.8500657107
 31
0.0
  0
LINE
  5
23E
330
1F
100
AcDbEntity
  8
0
  6
Continuous
 62
     7
370
    25
100
AcDbLine
 10
647.466785709
 20
535.8500657107
 30
0.0
 11
646.0238784693
 21
536.0583527759
 31
0.0
  0
ARC
  5
23F
330
1F
100
AcDbEntity
  8
0
  6
Continuous
 62
     7
370
    25
100
AcDbCircle
 10
671.3444335558
 20
583.8188212796
 30
0.0
 40
33.57753037464028
100
AcDbArc
 50
234.8280705831
 51
235.6099480104
  0
ARC
  5
240
330
1F
100
AcDbEntity
  8
0
  6
Continuous
 62
     7
370
    25
100
AcDbCircle
 10
656.7297986288
 20
512.5095122586
 30
0.0
 40
46.10980537323368
100
AcDbArc
 50
102.8580809319
 51
103.1066633214
  0
ARC
  5
241
330
1F
100
AcDbEntity
  8
0
  6
Continuous
 62
     7
370
    25
100
AcDbCircle
 10
648.0108344272
 20
550.7069076334
 30
0.0
 40
6.92994638714442
100
AcDbArc
 50
54.8280705831
 51
102.8580809319
  0
LINE
  5
242
330
1F
100
AcDbEntity
  8
0
  6
Continuous
 62
     7
370
    25
100
AcDbLine
 10
652.0027046671
 20
556.3716343626
 30
0.0
 11
653.1545930183
 21
558.006239783
 31
0.0
  0
LINE
  5
243
330
1F
100
AcDbEntity
  8
0
  6
Continuous
 62
     7
370
    25
100
AcDbLine
 10
646.4686656693
 20
557.4630805479
 30
0.0
 11
646.0236596643
 21
559.4126321142
 31
0.0
  0
ARC
  5
244
330
1F
100
AcDbEntity
  8
0
  6
Continuous
 62
     7
370
    25
100
AcDbCircle
 10
648.0108344272
 20
544.7631186818
 30
0.0
 40
6.929946387144193
100
AcDbArc
 50
266.5070253286
 51
291.7198462835
  0
ARC
  5
245
330
1F
100
AcDbEntity
  8
0
  6
Continuous
 62
     7
370
    25
100
AcDbCircle
 10
648.0108344272
 20
544.7631186818
 30
0.0
 40
8.929641777456995
100
AcDbArc
 50
266.5070253286
 51
291.7198462835
  0
ARC
  5
246
330
1F
100
AcDbEntity
  8
0
  6
Continuous
 62
     7
370
    25
100
AcDbCircle
 10
648.0108344272
 20
550.7069076334
 30
0.0
 40
8.929641777457157
100
AcDbArc
 50
54.8280705831
 51
102.8580809319
  0
ARC
  5
247
330
1F
100
AcDbEntity
  8
0
  6
Continuous
 62
     7
370
    25
100
AcDbCircle
 10
648.0108344272
 20
544.7631186818
 30
0.0
 40
8.999918986501177
100
AcDbArc
 50
257.1419190681
 51
305.1719294169
  0
ARC
  5
248
330
1F
100
AcDbEntity
  8
0
  6
Continuous
 62
     7
370
    25
100
AcDbCircle
 10
648.0108344272
 20
550.7069076334
 30
0.0
 40
8.999918986501354
100
AcDbArc
 50
54.8280705831
 51
102.8580809319
  0
SPLINE
  5
249
330
1F
100
AcDbEntity
  8
0
  6
Continuous
 62
     7
370
    25
100
AcDbSpline
210
0.0
220
0.0
230
1.0
 70
    24
 71
     3
 72
    10
 73
     6
 74
     0
 42
0.00000001
 43
0.00000001
 40
0.0
 40
0.0
 40
0.0
 40
0.0
 40
0.4383903758313549
 40
0.939303840611628
 40
1.0
 40
1.0
 40
1.0
 40
1.0
 10
639.733907015072
 20
537.9895918687697
 30
0.0
 10
639.162960794807
 20
537.9895918687697
 30
0.0
 10
637.9396401950777
 20
537.9895918687697
 30
0.0
 10
636.6809358946107
 20
537.9895918687697
 30
0.0
 10
635.9959044860658
 20
537.9895918687697
 30
0.0
 10
635.9218694735416
 20
537.9895918687697
 30
0.0
  0
ARC
  5
24A
330
1F
100
AcDbEntity
  8
0
  6
Continuous
 62
     7
370
    25
100
AcDbCircle
 10
639.901819222
 20
547.4895918688
 30
0.0
 40
10.30000000000002
100
AcDbArc
 50
232.7308609266
 51
247.2691390734
  0
SPLINE
  5
24B
330
1F
100
AcDbEntity
  8
0
  6
Continuous
 62
     7
370
    25
100
AcDbSpline
210
0.0
220
0.0
230
1.0
 70
    24
 71
     3
 72
    11
 73
     7
 74
     0
 42
0.00000001
 43
0.00000001
 40
0.0
 40
0.0
 40
0.0
 40
0.0
 40
0.243164119738092
 40
0.4936284730588937
 40
0.7421706076863289
 40
1.0
 40
1.0
 40
1.0
 40
1.0
 10
633.6645527602292
 20
539.2928542808469
 30
0.0
 10
633.3507937585324
 20
539.8363008131178
 30
0.0
 10
632.7138561335124
 20
540.9395091409045
 30
0.0
 10
631.7034671645059
 20
542.689554170631
 30
0.0
 10
630.6717600366698
 20
544.4765233345739
 30
0.0
 10
630.0176542937717
 20
545.6094677147962
 30
0.0
 10
629.6846030118027
 20
546.1863294566925
 30
0.0
  0
ARC
  5
24C
330
1F
100
AcDbEntity
  8
0
  6
Continuous
 62
     7
370
    25
100
AcDbCircle
 10
639.901819222
 20
547.4895918688
 30
0.0
 40
10.30000000000007
100
AcDbArc
 50
172.7308609266
 51
187.2691390734
  0
SPLINE
  5
24D
330
1F
100
AcDbEntity
  8
0
  6
Continuous
 62
     7
370
    25
100
AcDbSpline
210
0.0
220
0.0
230
1.0
 70
    24
 71
     3
 72
    11
 73
     7
 74
     0
 42
0.00000001
 43
0.00000001
 40
0.0
 40
0.0
 40
0.0
 40
0.0
 40
0.2431641197380916
 40
0.4936284730588936
 40
0.7421706076863288
 40
0.9999999999999999
 40
0.9999999999999999
 40
0.9999999999999999
 40
0.9999999999999999
 10
629.6846030118027
 20
548.7928542808469
 30
0.0
 10
629.9983620134993
 20
549.3363008131176
 30
0.0
 10
630.6352996385193
 20
550.4395091409045
 30
0.0
 10
631.6456886075259
 20
552.1895541706311
 30
0.0
 10
632.6773957353619
 20
553.9765233345739
 30
0.0
 10
633.3315014782601
 20
555.1094677147963
 30
0.0
 10
633.6645527602292
 20
555.6863294566925
 30
0.0
  0
ARC
  5
24E
330
1F
100
AcDbEntity
  8
0
  6
Continuous
 62
     7
370
    25
100
AcDbCircle
 10
639.901819222
 20
547.4895918688
 30
0.0
 40
10.30000000000002
100
AcDbArc
 50
112.7308609266
 51
127.2691390734
  0
SPLINE
  5
24F
330
1F
100
AcDbEntity
  8
0
  6
Continuous
 62
     7
370
    25
100
AcDbSpline
210
0.0
220
0.0
230
1.0
 70
    24
 71
     3
 72
    10
 73
     6
 74
     0
 42
0.00000001
 43
0.00000001
 40
0.0
 40
0.0
 40
0.0
 40
0.0
 40
0.0995064981418227
 40
0.9207140548413925
 40
1.0
 40
1.0
 40
1.0
 40
1.0
 10
635.9218694735416
 20
556.9895918687697
 30
0.0
 10
635.9959271776626
 20
556.9895918687697
 30
0.0
 10
636.6811685470883
 20
556.9895918687697
 30
0.0
 10
637.442840671154
 20
556.9895918687697
 30
0.0
 10
638.1552477243314
 20
556.9895918687697
 30
0.0
 10
638.2179731814639
 20
556.9895918687697
 30
0.0
  0
SPLINE
  5
250
330
1F
100
AcDbEntity
  8
0
  6
Continuous
 62
     7
370
    25
100
AcDbSpline
210
0.0
220
0.0
230
1.0
 70
    24
 71
     3
 72
    10
 73
     6
 74
     0
 42
0.00000001
 43
0.00000001
 40
0.0
 40
0.0
 40
0.0
 40
0.0
 40
0.0556300855017389
 40
0.5191547940200066
 40
1.0
 40
1.0
 40
1.0
 40
1.0
 10
539.1791242394818
 20
556.9535533423599
 30
0.0
 10
539.25898432937
 20
556.9436534552054
 30
0.0
 10
540.0042599862815
 20
556.8512650680575
 30
0.0
 10
541.4633742578545
 20
556.6703853989508
 30
0.0
 10
542.7600384645287
 20
556.5096439154254
 30
0.0
 10
543.4202614957509
 20
556.4277991101551
 30
0.0
  0
ARC
  5
251
330
1F
100
AcDbEntity
  8
0
  6
Continuous
 62
     7
370
    25
100
AcDbCircle
 10
538.301819222
 20
547.4895918688
 30
0.0
 40
10.30000000000003
100
AcDbArc
 50
45.6642188199
 51
60.2024969667
  0
SPLINE
  5
252
330
1F
100
AcDbEntity
  8
0
  6
Continuous
 62
     7
370
    25
100
AcDbSpline
210
0.0
220
0.0
230
1.0
 70
    24
 71
     3
 72
    11
 73
     7
 74
     0
 42
0.00000001
 43
0.00000001
 40
0.0
 40
0.0
 40
0.0
 40
0.0
 40
0.2431641197380915
 40
0.4936284730588936
 40
0.7421706076863288
 40
1.0
 40
1.0
 40
1.0
 40
1.0
 10
545.500098840594
 20
554.85673314148
 30
0.0
 10
545.7446176331661
 20
554.2788149771505
 30
0.0
 10
546.24099612166
 20
553.1056284835253
 30
0.0
 10
547.0284128631513
 20
551.2445754617174
 30
0.0
 10
547.8324432808355
 20
549.3442561522463
 30
0.0
 10
548.3422012339237
 20
548.1394474035924
 30
0.0
 10
548.6017548941892
 20
547.5259944525624
 30
0.0
  0
ARC
  5
253
330
1F
100
AcDbEntity
  8
0
  6
Continuous
 62
     7
370
    25
100
AcDbCircle
 10
538.301819222
 20
547.4895918688
 30
0.0
 40
10.29999999999994
100
AcDbArc
 50
345.6642188199
 51
0.2024969667
  0
SPLINE
  5
254
330
1F
100
AcDbEntity
  8
0
  6
Continuous
 62
     7
370
    25
100
AcDbSpline
210
0.0
220
0.0
230
1.0
 70
    24
 71
     3
 72
    13
 73
     9
 74
     0
 42
0.00000001
 43
0.00000001
 40
0.0
 40
0.0
 40
0.0
 40
0.0
 40
0.0290865078712628
 40
0.2691317361521215
 40
0.5086847447945269
 40
0.7393528760311809
 40
0.9704551097945746
 40
1.0
 40
1.0
 40
1.0
 40
1.0
 10
548.281090526717
 20
544.9392694918511
 30
0.0
 10
548.2364672603726
 20
544.8801955015522
 30
0.0
 10
547.8235769540751
 20
544.3335954888961
 30
0.0
 10
547.0178439259541
 20
543.2669352242906
 30
0.0
 10
545.8535774806425
 20
541.7256346802087
 30
0.0
 10
544.7058641420621
 20
540.206247773262
 30
0.0
 10
543.9285284141766
 20
539.1771809431145
 30
0.0
 10
543.5286407173289
 20
538.6477942832097
 30
0.0
 10
543.4833126204064
 20
538.587787211177
 30
0.0
  0
ARC
  5
255
330
1F
100
AcDbEntity
  8
0
  6
Continuous
 62
     7
370
    25
100
AcDbCircle
 10
538.301819222
 20
547.4895918688
 30
0.0
 40
10.29999999999999
100
AcDbArc
 50
285.6642188199
 51
300.2024969667
  0
SPLINE
  5
256
330
1F
100
AcDbEntity
  8
0
  6
Continuous
 62
     7
370
    25
100
AcDbSpline
210
0.0
220
0.0
230
1.0
 70
    24
 71
     3
 72
     9
 73
     5
 74
     0
 42
0.00000001
 43
0.00000001
 40
0.0
 40
0.0
 40
0.0
 40
0.0
 40
0.885044107961586
 40
1.0
 40
1.0
 40
1.0
 40
1.0
 10
541.0828109080911
 20
537.5721282191406
 30
0.0
 10
540.4646111501831
 20
537.6487635929634
 30
0.0
 10
539.7661151629812
 20
537.7353529201318
 30
0.0
 10
539.0286134161877
 20
537.8267776114836
 30
0.0
 10
538.9438332450052
 20
537.8372874184324
 30
0.0
  0
ARC
  5
257
330
1F
100
AcDbEntity
  8
0
  6
Continuous
 62
     7
370
    25
100
AcDbCircle
 10
538.301819222
 20
547.4895918688
 30
0.0
 40
9.74999999999994
100
AcDbArc
 50
73.5221877812
 51
87.1796091085
  0
LINE
  5
258
330
1F
100
AcDbEntity
  8
0
  6
Continuous
 62
     7
370
    25
100
AcDbLine
 10
537.0008434344
 20
536.9949224123
 30
0.0
 11
536.7662858834
 21
537.026668646
 31
0.0
  0
ARC
  5
259
330
1F
100
AcDbEntity
  8
0
  6
Continuous
 62
     7
370
    25
100
AcDbCircle
 10
538.301819222
 20
547.4895918688
 30
0.0
 40
10.57500000000002
100
AcDbArc
 50
262.9333578933
 51
98.3490982393
  0
ARC
  5
25A
330
1F
100
AcDbEntity
  8
0
  6
Continuous
 62
     7
370
    25
100
AcDbCircle
 10
538.301819222
 20
547.4895918688
 30
0.0
 40
14.875
100
AcDbArc
 50
233.3837470415
 51
262.9333578933
  0
ARC
  5
25B
330
1F
100
AcDbEntity
  8
0
  6
Continuous
 62
     7
370
    25
100
AcDbCircle
 10
538.301819222
 20
547.4895918688
 30
0.0
 40
14.87499999999999
100
AcDbArc
 50
262.9333578933
 51
126.6156955593
  0
SPLINE
  5
25C
330
1F
100
AcDbEntity
  8
0
  6
Continuous
 62
     7
370
    25
100
AcDbSpline
210
0.0
220
0.0
230
1.0
 70
     8
 71
     3
 72
     9
 73
     5
 74
     0
 42
0.00000001
 43
0.00000001
 40
0.0
 40
0.0
 40
0.0
 40
0.0
 40
0.5850553834534096
 40
1.0
 40
1.0
 40
1.0
 40
1.0
 10
534.4527151112907
 20
564.3411317849065
 30
0.0
 10
533.9876984637675
 20
564.3668367049324
 30
0.0
 10
533.1928734597168
 20
564.410772579643
 30
0.0
 10
532.4063798416082
 20
564.1628861507071
 30
0.0
 10
532.0800285488259
 20
564.0600270115051
 30
0.0
  0
SPLINE
  5
25D
330
1F
100
AcDbEntity
  8
0
  6
Continuous
 62
     7
370
    25
100
AcDbSpline
210
0.0
220
0.0
230
1.0
 70
    24
 71
     3
 72
    11
 73
     7
 74
     0
 42
0.00000001
 43
0.00000001
 40
0.0
 40
0.0
 40
0.0
 40
0.0
 40
0.2379053903768481
 40
0.4814905141303175
 40
0.7366519444348052
 40
1.0
 40
1.0
 40
1.0
 40
1.0
 10
546.1491940746968
 20
562.8911732135786
 30
0.0
 10
545.2426687729983
 20
563.0035509757612
 30
0.0
 10
543.4079758604267
 20
563.2309893974143
 30
0.0
 10
540.4777528153353
 20
563.5942356387342
 30
0.0
 10
537.4367630407479
 20
563.9712131208275
 30
0.0
 10
535.4578128155268
 20
564.216534456442
 30
0.0
 10
534.4527151112907
 20
564.3411317849065
 30
0.0
  0
SPLINE
  5
25E
330
1F
100
AcDbEntity
  8
0
  6
Continuous
 62
     7
370
    25
100
AcDbSpline
210
0.0
220
0.0
230
1.0
 70
     8
 71
     3
 72
     9
 73
     5
 74
     0
 42
0.00000001
 43
0.00000001
 40
0.0
 40
0.0
 40
0.0
 40
0.0
 40
0.5841917497409934
 40
1.0
 40
1.0
 40
1.0
 40
1.0
 10
548.3814204899528
 20
562.0392186089456
 30
0.0
 10
547.9639551109841
 20
562.2835147117619
 30
0.0
 10
547.2493517651585
 20
562.7016926523518
 30
0.0
 10
546.4722990178952
 20
562.8355247310899
 30
0.0
 10
546.1491940746968
 20
562.8911732135786
 30
0.0
  0
ARC
  5
25F
330
1F
100
AcDbEntity
  8
0
  6
Continuous
 62
     7
370
    25
100
AcDbCircle
 10
538.301819222
 20
547.4895918688
 30
0.0
 40
17.69999999999999
100
AcDbArc
 50
50.5799214659
 51
55.2867943207
  0
SPLINE
  5
260
330
1F
100
AcDbEntity
  8
0
  6
Continuous
 62
     7
370
    25
100
AcDbSpline
210
0.0
220
0.0
230
1.0
 70
     8
 71
     3
 72
     9
 73
     5
 74
     0
 42
0.00000001
 43
0.00000001
 40
0.0
 40
0.0
 40
0.0
 40
0.0
 40
0.5850553834536202
 40
1.0
 40
1.0
 40
1.0
 40
1.0
 10
550.9711288268905
 20
559.2487837684972
 30
0.0
 10
550.7608816168738
 20
559.6643524584479
 30
0.0
 10
550.4015186984853
 20
560.3746590408736
 30
0.0
 10
549.7935959447194
 20
560.9318392796015
 30
0.0
 10
549.5413416707681
 20
561.1630382201076
 30
0.0
  0
SPLINE
  5
261
330
1F
100
AcDbEntity
  8
0
  6
Continuous
 62
     7
370
    25
100
AcDbSpline
210
0.0
220
0.0
230
1.0
 70
    24
 71
     3
 72
    11
 73
     7
 74
     0
 42
0.00000001
 43
0.00000001
 40
0.0
 40
0.0
 40
0.0
 40
0.0
 40
0.232871632211147
 40
0.4710265024313224
 40
0.7311421212560292
 40
1.0
 40
1.0
 40
1.0
 40
1.0
 10
555.5636673513893
 20
548.394356565692
 30
0.0
 10
555.2153670733211
 20
549.2175614213161
 30
0.0
 10
554.5108645101856
 20
550.8826474614115
 30
0.0
 10
553.3700669558569
 20
553.5789131411755
 30
0.0
 10
552.1671473677997
 20
556.4220037390535
 30
0.0
 10
551.3741701428808
 20
558.2961989179181
 30
0.0
 10
550.9711288268905
 20
559.2487837684972
 30
0.0
  0
SPLINE
  5
262
330
1F
100
AcDbEntity
  8
0
  6
Continuous
 62
     7
370
    25
100
AcDbSpline
210
0.0
220
0.0
230
1.0
 70
     8
 71
     3
 72
     9
 73
     5
 74
     0
 42
0.00000001
 43
0.00000001
 40
0.0
 40
0.0
 40
0.0
 40
0.0
 40
0.5841917497409242
 40
1.0
 40
1.0
 40
1.0
 40
1.0
 10
555.941966228534
 20
546.035214480765
 30
0.0
 10
555.9448001701343
 20
546.5188981555606
 30
0.0
 10
555.9496512170745
 20
547.34685177697
 30
0.0
 10
555.6770268234714
 20
548.0867152355495
 30
0.0
 10
555.5636673513893
 20
548.394356565692
 30
0.0
  0
ARC
  5
263
330
1F
100
AcDbEntity
  8
0
  6
Continuous
 62
     7
370
    25
100
AcDbCircle
 10
538.301819222
 20
547.4895918688
 30
0.0
 40
17.6999999999999
100
AcDbArc
 50
350.5799214659
 51
355.2867943207
  0
SPLINE
  5
264
330
1F
100
AcDbEntity
  8
0
  6
Continuous
 62
     7
370
    25
100
AcDbSpline
210
0.0
220
0.0
230
1.0
 70
     8
 71
     3
 72
     9
 73
     5
 74
     0
 42
0.00000001
 43
0.00000001
 40
0.0
 40
0.0
 40
0.0
 40
0.0
 40
0.585055383453619
 40
0.9999999999999999
 40
0.9999999999999999
 40
0.9999999999999999
 40
0.9999999999999999
 10
554.8202329375696
 20
542.3972438523604
 30
0.0
 10
555.0750023750758
 20
542.787107622285
 30
0.0
 10
555.5104644607375
 20
543.4534783300004
 30
0.0
 10
555.6890353250797
 20
544.2585449976642
 30
0.0
 10
555.7631323439103
 20
544.5926030773722
 30
0.0
  0
SPLINE
  5
265
330
1F
100
AcDbEntity
  8
0
  6
Continuous
 62
     7
370
    25
100
AcDbSpline
210
0.0
220
0.0
230
1.0
 70
    24
 71
     3
 72
    11
 73
     7
 74
     0
 42
0.00000001
 43
0.00000001
 40
0.0
 40
0.0
 40
0.0
 40
0.0
 40
0.2328716322111486
 40
0.4710265024313255
 40
0.7311421212560308
 40
1.0
 40
1.0
 40
1.0
 40
1.0
 10
547.7162924986607
 20
532.9927752208832
 30
0.0
 10
548.2550586771158
 20
533.7060145376473
 30
0.0
 10
549.3448142057575
 20
535.1486746744016
 30
0.0
 10
551.1094500026207
 20
537.4847671769076
 30
0.0
 10
552.9701788916153
 20
539.948071397814
 30
0.0
 10
554.196790915703
 20
541.5719074086486
 30
0.0
 10
554.8202329375696
 20
542.3972438523604
 30
0.0
  0
SPLINE
  5
266
330
1F
100
AcDbEntity
  8
0
  6
Continuous
 62
     7
370
    25
100
AcDbSpline
210
0.0
220
0.0
230
1.0
 70
     8
 71
     3
 72
     9
 73
     5
 74
     0
 42
0.00000001
 43
0.00000001
 40
0.0
 40
0.0
 40
0.0
 40
0.0
 40
0.584191749740921
 40
1.0
 40
1.0
 40
1.0
 40
1.0
 10
545.8623649605494
 20
531.4855877405892
 30
0.0
 10
546.2826642811182
 20
531.7249753125684
 30
0.0
 10
547.0021186738842
 20
532.1347509933877
 30
0.0
 10
547.5065470275443
 20
532.7407823732292
 30
0.0
 10
547.7162924986607
 20
532.9927752208832
 30
0.0
  0
ARC
  5
267
330
1F
100
AcDbEntity
  8
0
  6
Continuous
 62
     7
370
    25
100
AcDbCircle
 10
538.301819222
 20
547.4895918688
 30
0.0
 40
17.69999999999999
100
AcDbArc
 50
290.5799214659
 51
295.2867943207
  0
SPLINE
  5
268
330
1F
100
AcDbEntity
  8
0
  6
Continuous
 62
     7
370
    25
100
AcDbSpline
210
0.0
220
0.0
230
1.0
 70
     8
 71
     3
 72
     9
 73
     5
 74
     0
 42
0.00000001
 43
0.00000001
 40
0.0
 40
0.0
 40
0.0
 40
0.0
 40
0.585055383453617
 40
1.0
 40
1.0
 40
1.0
 40
1.0
 10
542.1509233326469
 20
530.6380519526328
 30
0.0
 10
542.6159399801701
 20
530.6123470326069
 30
0.0
 10
543.4107649842202
 20
530.5684111578965
 30
0.0
 10
544.1972586023282
 20
530.8162975868324
 30
0.0
 10
544.5236098951103
 20
530.9191567260343
 30
0.0
  0
SPLINE
  5
269
330
1F
100
AcDbEntity
  8
0
  6
Continuous
 62
     7
370
    25
100
AcDbSpline
210
0.0
220
0.0
230
1.0
 70
    24
 71
     3
 72
    11
 73
     7
 74
     0
 42
0.00000001
 43
0.00000001
 40
0.0
 40
0.0
 40
0.0
 40
0.0
 40
0.255627964438097
 40
0.5185037642963863
 40
0.7560467972580102
 40
0.9999999999999999
 40
0.9999999999999999
 40
0.9999999999999999
 40
0.9999999999999999
 10
530.4544443692395
 20
532.0880105239609
 30
0.0
 10
531.4295665371194
 20
531.9671291245386
 30
0.0
 10
533.4074585717642
 20
531.7219389679311
 30
0.0
 10
536.4247845230286
 20
531.3478949809147
 30
0.0
 10
539.3855530186564
 20
530.9808621609195
 30
0.0
 10
541.2209881654062
 20
530.7533317279172
 30
0.0
 10
542.1509233326469
 20
530.6380519526328
 30
0.0
  0
SPLINE
  5
26A
330
1F
100
AcDbEntity
  8
0
  6
Continuous
 62
     7
370
    25
100
AcDbSpline
210
0.0
220
0.0
230
1.0
 70
     8
 71
     3
 72
     9
 73
     5
 74
     0
 42
0.00000001
 43
0.00000001
 40
0.0
 40
0.0
 40
0.0
 40
0.0
 40
0.5841917497409234
 40
1.0
 40
1.0
 40
1.0
 40
1.0
 10
528.2222179539833
 20
532.9399651285937
 30
0.0
 10
528.639683332952
 20
532.6956690257774
 30
0.0
 10
529.3542866787776
 20
532.2774910851875
 30
0.0
 10
530.131339426041
 20
532.1436590064494
 30
0.0
 10
530.4544443692395
 20
532.0880105239609
 30
0.0
  0
ARC
  5
26B
330
1F
100
AcDbEntity
  8
0
  6
Continuous
 62
     7
370
    25
100
AcDbCircle
 10
538.301819222
 20
547.4895918688
 30
0.0
 40
17.70000000000014
100
AcDbArc
 50
230.5799214659
 51
235.2867943207
  0
SPLINE
  5
26C
330
1F
100
AcDbEntity
  8
0
  6
Continuous
 62
     7
370
    25
100
AcDbSpline
210
0.0
220
0.0
230
1.0
 70
     8
 71
     3
 72
     9
 73
     5
 74
     0
 42
0.00000001
 43
0.00000001
 40
0.0
 40
0.0
 40
0.0
 40
0.0
 40
0.5850553834536163
 40
0.9999999999999999
 40
0.9999999999999999
 40
0.9999999999999999
 40
0.9999999999999999
 10
525.6325096170455
 20
535.7303999690422
 30
0.0
 10
525.8427568270623
 20
535.3148312790915
 30
0.0
 10
526.2021197454508
 20
534.6045246966659
 30
0.0
 10
526.8100424992166
 20
534.0473444579379
 30
0.0
 10
527.0622967731679
 20
533.8161455174318
 30
0.0
  0
LINE
  5
26D
330
1F
100
AcDbEntity
  8
0
  6
Continuous
 62
     7
370
    25
100
AcDbLine
 10
524.9911937046
 20
537.2461448775
 30
0.0
 11
525.632509617
 21
535.730399969
 31
0.0
  0
SPLINE
  5
26E
330
1F
100
AcDbEntity
  8
0
  6
Continuous
 62
     7
370
    25
100
AcDbSpline
210
0.0
220
0.0
230
1.0
 70
    24
 71
     3
 72
     9
 73
     5
 74
     0
 42
0.00000001
 43
0.00000001
 40
0.0
 40
0.0
 40
0.0
 40
0.0
 40
0.6057822344270161
 40
1.0
 40
1.0
 40
1.0
 40
1.0
 10
528.8873459452753
 20
561.9864085166562
 30
0.0
 10
528.3495793977875
 20
561.27449254968
 30
0.0
 10
527.4618568517534
 20
560.0992914187826
 30
0.0
 10
526.5346027740663
 20
558.8717569311264
 30
0.0
 10
526.169062743442
 20
558.3878410282387
 30
0.0
  0
SPLINE
  5
26F
330
1F
100
AcDbEntity
  8
0
  6
Continuous
 62
     7
370
    25
100
AcDbSpline
210
0.0
220
0.0
230
1.0
 70
     8
 71
     3
 72
     9
 73
     5
 74
     0
 42
0.00000001
 43
0.00000001
 40
0.0
 40
0.0
 40
0.0
 40
0.0
 40
0.5841917497409256
 40
1.0
 40
1.0
 40
1.0
 40
1.0
 10
530.7412734833866
 20
563.4935959969503
 30
0.0
 10
530.3209741628178
 20
563.2542084249711
 30
0.0
 10
529.6015197700518
 20
562.8444327441516
 30
0.0
 10
529.0970914163917
 20
562.2384013643101
 30
0.0
 10
528.8873459452753
 20
561.9864085166562
 30
0.0
  0
ARC
  5
270
330
1F
100
AcDbEntity
  8
0
  6
Continuous
 62
     7
370
    25
100
AcDbCircle
 10
538.301819222
 20
547.4895918688
 30
0.0
 40
17.70000000000008
100
AcDbArc
 50
110.5799214659
 51
115.2867943207
  0
ARC
  5
271
330
1F
100
AcDbEntity
  8
0
  6
Continuous
 62
     7
370
    25
100
AcDbCircle
 10
538.301819222
 20
547.4895918688
 30
0.0
 40
16.2
100
AcDbArc
 50
82.9333578933
 51
136.0742282651
  0
ARC
  5
272
330
1F
100
AcDbEntity
  8
0
  6
Continuous
 62
     7
370
    25
100
AcDbCircle
 10
538.301819222
 20
547.4895918688
 30
0.0
 40
16.2
100
AcDbArc
 50
223.9250761661
 51
82.9333578933
  0
LWPOLYLINE
  5
273
330
1F
100
AcDbEntity
  8
0
  6
Continuous
 62
     7
370
    25
100
AcDbPolyline
 90
        3
 70
   128
 43
0.0
 10
631.4580715351
 20
542.6145918688
 10
630.8128634191
 20
543.9606568434
 10
630.750989001
 20
544.1243569189
  0
LWPOLYLINE
  5
274
330
1F
100
AcDbEntity
  8
0
  6
Continuous
 62
     7
370
    25
100
AcDbPolyline
 90
        3
 70
   128
 43
0.0
 10
632.6538126763
 20
540.968173226
 10
632.3011939402
 20
541.3827927623
 10
631.4580715351
 20
542.6145918688
  0
ARC
  5
275
330
1F
100
AcDbEntity
  8
0
  6
Continuous
 62
     7
370
    25
100
AcDbCircle
 10
639.901819222
 20
547.4895918688
 30
0.0
 40
10.57500000000003
100
AcDbArc
 50
84.5490172093
 51
281.0490866707
  0
ARC
  5
276
330
1F
100
AcDbEntity
  8
0
  6
Continuous
 62
     7
370
    25
100
AcDbCircle
 10
639.901819222
 20
547.4895918688
 30
0.0
 40
14.87499999999998
100
AcDbArc
 50
55.1611835908
 51
308.4167037132
  0
ARC
  5
277
330
1F
100
AcDbEntity
  8
0
  6
Continuous
 62
     7
370
    25
100
AcDbCircle
 10
639.901819222
 20
547.4895918688
 30
0.0
 40
16.20000000000008
100
AcDbArc
 50
210.0
 51
318.1420914366
  0
ARC
  5
278
330
1F
100
AcDbEntity
  8
0
  6
Continuous
 62
     7
370
    25
100
AcDbCircle
 10
639.901819222
 20
547.4895918688
 30
0.0
 40
16.20000000000008
100
AcDbArc
 50
45.9729863763
 51
210.0
  0
SPLINE
  5
279
330
1F
100
AcDbEntity
  8
0
  6
Continuous
 62
     7
370
    25
100
AcDbSpline
210
0.0
220
0.0
230
1.0
 70
     8
 71
     3
 72
     9
 73
     5
 74
     0
 42
0.00000001
 43
0.00000001
 40
0.0
 40
0.0
 40
0.0
 40
0.0
 40
0.5850553834534129
 40
1.0
 40
1.0
 40
1.0
 40
1.0
 10
628.7754085740532
 20
534.2611004168335
 30
0.0
 10
629.0351834938621
 20
533.8745538912694
 30
0.0
 10
629.4792011495505
 20
533.2138531499442
 30
0.0
 10
630.1510523415833
 20
532.7356943178181
 30
0.0
 10
630.4298333768377
 20
532.5372848845732
 30
0.0
  0
SPLINE
  5
27A
330
1F
100
AcDbEntity
  8
0
  6
Continuous
 62
     7
370
    25
100
AcDbSpline
210
0.0
220
0.0
230
1.0
 70
    24
 71
     3
 72
    11
 73
     7
 74
     0
 42
0.00000001
 43
0.00000001
 40
0.0
 40
0.0
 40
0.0
 40
0.0
 40
0.2379053903768482
 40
0.4814905141303173
 40
0.7366519444348056
 40
0.9999999999999999
 40
0.9999999999999999
 40
0.9999999999999999
 40
0.9999999999999999
 10
622.8824042468876
 20
544.4680833207075
 30
0.0
 10
623.3391363576629
 20
543.6770000993967
 30
0.0
 10
624.2635045633964
 20
542.0759474021648
 30
0.0
 10
625.7398306559161
 20
539.5188756013811
 30
0.0
 10
627.2719640403797
 20
536.8651427355179
 30
0.0
 10
628.2690130050262
 20
535.1382032711163
 30
0.0
 10
628.7754085740532
 20
534.2611004168335
 30
0.0
  0
SPLINE
  5
27B
330
1F
100
AcDbEntity
  8
0
  6
Continuous
 62
     7
370
    25
100
AcDbSpline
210
0.0
220
0.0
230
1.0
 70
     8
 71
     3
 72
     9
 73
     5
 74
     0
 42
0.00000001
 43
0.00000001
 40
0.0
 40
0.0
 40
0.0
 40
0.0
 40
0.5841917497409947
 40
1.0
 40
1.0
 40
1.0
 40
1.0
 10
622.2167486059053
 20
546.7627649946985
 30
0.0
 10
622.2734407543135
 20
546.2824068691322
 30
0.0
 10
622.3704844876994
 20
545.460145812246
 30
0.0
 10
622.7320587044725
 20
544.7594418211816
 30
0.0
 10
622.8824042468876
 20
544.4680833207075
 30
0.0
  0
ARC
  5
27C
330
1F
100
AcDbEntity
  8
0
  6
Continuous
 62
     7
370
    25
100
AcDbCircle
 10
639.901819222
 20
547.4895918688
 30
0.0
 40
17.70000000000003
100
AcDbArc
 50
177.6465635726
 51
182.3534364274
  0
SPLINE
  5
27D
330
1F
100
AcDbEntity
  8
0
  6
Continuous
 62
     7
370
    25
100
AcDbSpline
210
0.0
220
0.0
230
1.0
 70
     8
 71
     3
 72
     9
 73
     5
 74
     0
 42
0.00000001
 43
0.00000001
 40
0.0
 40
0.0
 40
0.0
 40
0.0
 40
0.585055383453618
 40
1.0
 40
1.0
 40
1.0
 40
1.0
 10
622.8824042468877
 20
550.5111004168322
 30
0.0
 10
622.6775325959094
 20
550.0928554742296
 30
0.0
 10
622.327357797467
 20
549.3779745340124
 30
0.0
 10
622.2491856978185
 20
548.5570549180866
 30
0.0
 10
622.2167486059053
 20
548.2164187428409
 30
0.0
  0
SPLINE
  5
27E
330
1F
100
AcDbEntity
  8
0
  6
Continuous
 62
     7
370
    25
100
AcDbSpline
210
0.0
220
0.0
230
1.0
 70
    24
 71
     3
 72
    11
 73
     7
 74
     0
 42
0.00000001
 43
0.00000001
 40
0.0
 40
0.0
 40
0.0
 40
0.0
 40
0.2328716322111471
 40
0.4710265024313225
 40
0.7311421212560291
 40
1.0
 40
1.0
 40
1.0
 40
1.0
 10
628.775408574054
 20
560.7180833207073
 30
0.0
 10
628.3284803588938
 20
559.9439809447138
 30
0.0
 10
627.4244843159842
 20
558.3782138685531
 30
0.0
 10
625.9606479457027
 20
555.8427749012582
 30
0.0
 10
624.4170984904637
 20
553.1692688207891
 30
0.0
 10
623.3995744799706
 20
551.4068655366938
 30
0.0
 10
622.8824042468877
 20
550.5111004168322
 30
0.0
  0
SPLINE
  5
27F
330
1F
100
AcDbEntity
  8
0
  6
Continuous
 62
     7
370
    25
100
AcDbSpline
210
0.0
220
0.0
230
1.0
 70
     8
 71
     3
 72
     9
 73
     5
 74
     0
 42
0.00000001
 43
0.00000001
 40
0.0
 40
0.0
 40
0.0
 40
0.0
 40
0.5841917497409241
 40
1.0
 40
1.0
 40
1.0
 40
1.0
 10
630.4298333768377
 20
562.4418988529661
 30
0.0
 10
630.0421771113871
 20
562.1526229494665
 30
0.0
 10
629.378600014274
 20
561.6574500826329
 30
0.0
 10
628.9525596658655
 20
560.9939656300216
 30
0.0
 10
628.775408574054
 20
560.7180833207073
 30
0.0
  0
ARC
  5
280
330
1F
100
AcDbEntity
  8
0
  6
Continuous
 62
     7
370
    25
100
AcDbCircle
 10
639.901819222
 20
547.4895918688
 30
0.0
 40
17.70000000000007
100
AcDbArc
 50
117.6465635726
 51
122.3534364274
  0
SPLINE
  5
281
330
1F
100
AcDbEntity
  8
0
  6
Continuous
 62
     7
370
    25
100
AcDbSpline
210
0.0
220
0.0
230
1.0
 70
     8
 71
     3
 72
     9
 73
     5
 74
     0
 42
0.00000001
 43
0.00000001
 40
0.0
 40
0.0
 40
0.0
 40
0.0
 40
0.5850553834536188
 40
1.0
 40
1.0
 40
1.0
 40
1.0
 10
634.0088148948017
 20
563.7395918687697
 30
0.0
 10
633.5441683240145
 20
563.707893451731
 30
0.0
 10
632.7499758698839
 20
563.6537132528385
 30
0.0
 10
631.999952578203
 20
563.3109524690385
 30
0.0
 10
631.6887344510355
 20
563.1687257270374
 30
0.0
  0
SPLINE
  5
282
330
1F
100
AcDbEntity
  8
0
  6
Continuous
 62
     7
370
    25
100
AcDbSpline
210
0.0
220
0.0
230
1.0
 70
    24
 71
     3
 72
    11
 73
     7
 74
     0
 42
0.00000001
 43
0.00000001
 40
0.0
 40
0.0
 40
0.0
 40
0.0
 40
0.2328716322111483
 40
0.4710265024313251
 40
0.731142121256031
 40
1.0
 40
1.0
 40
1.0
 40
1.0
 10
645.7948235491343
 20
563.7395918687697
 30
0.0
 10
644.9009671188138
 20
563.7395918687697
 30
0.0
 10
643.0929750329946
 20
563.7395918687697
 30
0.0
 10
640.1653022924315
 20
563.7395918687697
 30
0.0
 10
637.0782033819536
 20
563.7395918687697
 30
0.0
 10
635.0431553609675
 20
563.7395918687697
 30
0.0
 10
634.0088148948017
 20
563.7395918687697
 30
0.0
  0
SPLINE
  5
283
330
1F
100
AcDbEntity
  8
0
  6
Continuous
 62
     7
370
    25
100
AcDbSpline
210
0.0
220
0.0
230
1.0
 70
     8
 71
     3
 72
     9
 73
     5
 74
     0
 42
0.00000001
 43
0.00000001
 40
0.0
 40
0.0
 40
0.0
 40
0.0
 40
0.584191749740921
 40
1.0
 40
1.0
 40
1.0
 40
1.0
 10
648.1149039929005
 20
563.1687257270373
 30
0.0
 10
647.6705555790419
 20
563.3598079491039
 30
0.0
 10
646.9099347485426
 20
563.6868961391567
 30
0.0
 10
646.122320183361
 20
563.7241156776099
 30
0.0
 10
645.7948235491343
 20
563.7395918687697
 30
0.0
  0
ARC
  5
284
330
1F
100
AcDbEntity
  8
0
  6
Continuous
 62
     7
370
    25
100
AcDbCircle
 10
639.901819222
 20
547.4895918688
 30
0.0
 40
17.6999999999999
100
AcDbArc
 50
57.6465635726
 51
62.3534364274
  0
SPLINE
  5
285
330
1F
100
AcDbEntity
  8
0
  6
Continuous
 62
     7
370
    25
100
AcDbSpline
210
0.0
220
0.0
230
1.0
 70
     8
 71
     3
 72
     9
 73
     5
 74
     0
 42
0.00000001
 43
0.00000001
 40
0.0
 40
0.0
 40
0.0
 40
0.0
 40
0.5850553834536193
 40
1.0
 40
1.0
 40
1.0
 40
1.0
 10
651.0282298698821
 20
560.7180833207073
 30
0.0
 10
650.7684549500732
 20
561.1046298462711
 30
0.0
 10
650.3244372943848
 20
561.7653305875958
 30
0.0
 10
649.6525861023524
 20
562.2434894197214
 30
0.0
 10
649.3738050670984
 20
562.4418988529661
 30
0.0
  0
LINE
  5
286
330
1F
100
AcDbEntity
  8
0
  6
Continuous
 62
     7
370
    25
100
AcDbLine
 10
652.3094739929
 20
558.4989034027
 30
0.0
 11
651.0282298699
 21
560.7180833207
 31
0.0
  0
SPLINE
  5
287
330
1F
100
AcDbEntity
  8
0
  6
Continuous
 62
     7
370
    25
100
AcDbSpline
210
0.0
220
0.0
230
1.0
 70
    24
 71
     3
 72
     9
 73
     5
 74
     0
 42
0.00000001
 43
0.00000001
 40
0.0
 40
0.0
 40
0.0
 40
0.0
 40
0.8048212563892079
 40
1.0
 40
1.0
 40
1.0
 40
1.0
 10
651.0282298698821
 20
534.261100416832
 30
0.0
 10
651.4730108534163
 20
535.031483678554
 30
0.0
 10
652.025656524742
 20
535.9886940598731
 30
0.0
 10
652.6029852097812
 20
536.9886566750278
 30
0.0
 10
652.7156674971776
 20
537.1838281219115
 30
0.0
  0
SPLINE
  5
288
330
1F
100
AcDbEntity
  8
0
  6
Continuous
 62
     7
370
    25
100
AcDbSpline
210
0.0
220
0.0
230
1.0
 70
     8
 71
     3
 72
     9
 73
     5
 74
     0
 42
0.00000001
 43
0.00000001
 40
0.0
 40
0.0
 40
0.0
 40
0.0
 40
0.5841917497409247
 40
1.0
 40
1.0
 40
1.0
 40
1.0
 10
649.3738050670984
 20
532.5372848845732
 30
0.0
 10
649.761461332549
 20
532.8265607880729
 30
0.0
 10
650.4250384296621
 20
533.3217336549066
 30
0.0
 10
650.8510787780706
 20
533.9852181075178
 30
0.0
 10
651.0282298698821
 20
534.261100416832
 30
0.0
  0
ARC
  5
289
330
1F
100
AcDbEntity
  8
0
  6
Continuous
 62
     7
370
    25
100
AcDbCircle
 10
639.901819222
 20
547.4895918688
 30
0.0
 40
17.69999999999999
100
AcDbArc
 50
297.6465635726
 51
302.3534364274
  0
SPLINE
  5
28A
330
1F
100
AcDbEntity
  8
0
  6
Continuous
 62
     7
370
    25
100
AcDbSpline
210
0.0
220
0.0
230
1.0
 70
     8
 71
     3
 72
     9
 73
     5
 74
     0
 42
0.00000001
 43
0.00000001
 40
0.0
 40
0.0
 40
0.0
 40
0.0
 40
0.5850553834536198
 40
1.0
 40
1.0
 40
1.0
 40
1.0
 10
645.7948235491343
 20
531.2395918687697
 30
0.0
 10
646.2594701199216
 20
531.2712902858083
 30
0.0
 10
647.0536625740522
 20
531.3254704847009
 30
0.0
 10
647.8036858657331
 20
531.6682312685009
 30
0.0
 10
648.1149039929005
 20
531.810458010502
 30
0.0
  0
SPLINE
  5
28B
330
1F
100
AcDbEntity
  8
0
  6
Continuous
 62
     7
370
    25
100
AcDbSpline
210
0.0
220
0.0
230
1.0
 70
    24
 71
     3
 72
    11
 73
     7
 74
     0
 42
0.00000001
 43
0.00000001
 40
0.0
 40
0.0
 40
0.0
 40
0.0
 40
0.2328716322111492
 40
0.4710265024313262
 40
0.7311421212560313
 40
1.0
 40
1.0
 40
1.0
 40
1.0
 10
634.0088148948017
 20
531.2395918687697
 30
0.0
 10
634.9026713251222
 20
531.2395918687697
 30
0.0
 10
636.7106634109416
 20
531.2395918687697
 30
0.0
 10
639.6383361515045
 20
531.2395918687697
 30
0.0
 10
642.7254350619825
 20
531.2395918687697
 30
0.0
 10
644.7604830829687
 20
531.2395918687697
 30
0.0
 10
645.7948235491343
 20
531.2395918687697
 30
0.0
  0
SPLINE
  5
28C
330
1F
100
AcDbEntity
  8
0
  6
Continuous
 62
     7
370
    25
100
AcDbSpline
210
0.0
220
0.0
230
1.0
 70
     8
 71
     3
 72
     9
 73
     5
 74
     0
 42
0.00000001
 43
0.00000001
 40
0.0
 40
0.0
 40
0.0
 40
0.0
 40
0.5841917497409255
 40
1.0
 40
1.0
 40
1.0
 40
1.0
 10
631.6887344510355
 20
531.810458010502
 30
0.0
 10
632.1330828648944
 20
531.6193757884354
 30
0.0
 10
632.8937036953936
 20
531.2922875983827
 30
0.0
 10
633.6813182605752
 20
531.2550680599294
 30
0.0
 10
634.0088148948017
 20
531.2395918687697
 30
0.0
  0
ARC
  5
28D
330
1F
100
AcDbEntity
  8
0
  6
Continuous
 62
     7
370
    25
100
AcDbCircle
 10
639.901819222
 20
547.4895918688
 30
0.0
 40
17.70000000000011
100
AcDbArc
 50
237.6465635726
 51
242.3534364274
  0
SPLINE
  5
28E
330
1F
100
AcDbEntity
  8
0
  6
Continuous
 62
     7
370
    25
100
AcDbSpline
210
0.0
220
0.0
230
1.0
 70
    24
 71
     3
 72
     9
 73
     5
 74
     0
 42
0.00000001
 43
0.00000001
 40
0.0
 40
0.0
 40
0.0
 40
0.0
 40
0.3304338210979962
 40
1.0
 40
1.0
 40
1.0
 40
1.0
 10
627.117604213418
 20
534.8182805663286
 30
0.0
 10
627.4235038221518
 20
534.288446901986
 30
0.0
 10
628.3492553318412
 20
532.6849982520206
 30
0.0
 10
629.2492279768998
 20
531.1261999053569
 30
0.0
 10
629.851819221968
 20
530.0824812527026
 30
0.0
  0
SPLINE
  5
28F
330
1F
100
AcDbEntity
  8
0
  6
Continuous
 62
     7
370
    25
100
AcDbSpline
210
0.0
220
0.0
230
1.0
 70
    24
 71
     3
 72
     9
 73
     5
 74
     0
 42
0.00000001
 43
0.00000001
 40
0.0
 40
0.0
 40
0.0
 40
0.0
 40
0.9677415258869793
 40
1.0
 40
1.0
 40
1.0
 40
1.0
 10
629.851819221968
 20
564.896702484837
 30
0.0
 10
628.9823533299684
 20
563.3907433844454
 30
0.0
 10
628.0839048613005
 20
561.8345849887298
 30
0.0
 10
627.1600233394506
 20
560.2343752527121
 30
0.0
 10
627.1302203312946
 20
560.1827549283674
 30
0.0
  0
SPLINE
  5
290
330
1F
100
AcDbEntity
  8
0
  6
Continuous
 62
     7
370
    25
100
AcDbSpline
210
0.0
220
0.0
230
1.0
 70
    24
 71
     3
 72
    10
 73
     6
 74
     0
 42
0.00000001
 43
0.00000001
 40
0.0
 40
0.0
 40
0.0
 40
0.0
 40
0.6410659750302699
 40
0.9688939281114566
 40
1.0
 40
1.0
 40
1.0
 40
1.0
 10
649.951819221968
 20
564.896702484837
 30
0.0
 10
648.2070692093126
 20
564.896702484837
 30
0.0
 10
645.5700899292091
 20
564.896702484837
 30
0.0
 10
642.7772924906443
 20
564.896702484837
 30
0.0
 10
641.7704390450837
 20
564.896702484837
 30
0.0
 10
641.6831827431449
 20
564.896702484837
 30
0.0
  0
SPLINE
  5
291
330
1F
100
AcDbEntity
  8
0
  6
Continuous
 62
     7
370
    25
100
AcDbSpline
210
0.0
220
0.0
230
1.0
 70
    24
 71
     3
 72
     9
 73
     5
 74
     0
 42
0.00000001
 43
0.00000001
 40
0.0
 40
0.0
 40
0.0
 40
0.0
 40
0.4243386861015423
 40
1.0
 40
1.0
 40
1.0
 40
1.0
 10
638.0218211813849
 20
564.896702484837
 30
0.0
 10
636.846616128383
 20
564.896702484837
 30
0.0
 10
634.0771183392496
 20
564.896702484837
 30
0.0
 10
631.3955146976475
 20
564.896702484837
 30
0.0
 10
629.851819221968
 20
564.896702484837
 30
0.0
  0
SPLINE
  5
292
330
1F
100
AcDbEntity
  8
0
  6
Continuous
 62
     7
370
    25
100
AcDbSpline
210
0.0
220
0.0
230
1.0
 70
    24
 71
     3
 72
    11
 73
     7
 74
     0
 42
0.00000001
 43
0.00000001
 40
0.0
 40
0.0
 40
0.0
 40
0.0
 40
0.0726231720912723
 40
0.3809983326779927
 40
0.6894565232382187
 40
1.0
 40
1.0
 40
1.0
 40
1.0
 10
654.1123978434931
 20
557.6903689234707
 30
0.0
 10
654.0098133344035
 20
557.8680505052833
 30
0.0
 10
653.4716307434171
 20
558.8002100966207
 30
0.0
 10
652.5055413829268
 20
560.4735259536418
 30
0.0
 10
651.2181009934197
 20
562.7034381199844
 30
0.0
 10
650.374860046149
 20
564.1639742836796
 30
0.0
 10
649.951819221968
 20
564.896702484837
 30
0.0
  0
SPLINE
  5
293
330
1F
100
AcDbEntity
  8
0
  6
Continuous
 62
     7
370
    25
100
AcDbSpline
210
0.0
220
0.0
230
1.0
 70
    24
 71
     3
 72
     9
 73
     5
 74
     0
 42
0.00000001
 43
0.00000001
 40
0.0
 40
0.0
 40
0.0
 40
0.0
 40
0.6840379217087159
 40
1.0
 40
1.0
 40
1.0
 40
1.0
 10
649.9518192219681
 20
530.0824812527026
 30
0.0
 10
650.8236126771286
 20
531.5924718107467
 30
0.0
 10
652.0980938535272
 20
533.7999379615591
 30
0.0
 10
653.408556400129
 20
536.0697256736895
 30
0.0
 10
653.8226128698761
 20
536.7868925164942
 30
0.0
  0
SPLINE
  5
294
330
1F
100
AcDbEntity
  8
0
  6
Continuous
 62
     7
370
    25
100
AcDbSpline
210
0.0
220
0.0
230
1.0
 70
    24
 71
     3
 72
    10
 73
     6
 74
     0
 42
0.00000001
 43
0.00000001
 40
0.0
 40
0.0
 40
0.0
 40
0.0
 40
0.6398120870276023
 40
0.9669988275763528
 40
1.0
 40
1.0
 40
1.0
 40
1.0
 10
629.851819221968
 20
530.0824812527026
 30
0.0
 10
631.5965645540199
 20
530.0824812527026
 30
0.0
 10
634.2335367599557
 20
530.0824812527026
 30
0.0
 10
637.0318333086085
 20
530.0824812527026
 30
0.0
 10
638.0441914529592
 20
530.0824812527026
 30
0.0
 10
638.1369458305298
 20
530.0824812527026
 30
0.0
  0
SPLINE
  5
295
330
1F
100
AcDbEntity
  8
0
  6
Continuous
 62
     7
370
    25
100
AcDbSpline
210
0.0
220
0.0
230
1.0
 70
    24
 71
     3
 72
     9
 73
     5
 74
     0
 42
0.00000001
 43
0.00000001
 40
0.0
 40
0.0
 40
0.0
 40
0.0
 40
0.4251533841999482
 40
1.0
 40
1.0
 40
1.0
 40
1.0
 10
641.7700949563589
 20
530.0824812527026
 30
0.0
 10
642.9492352267546
 20
530.0824812527026
 30
0.0
 10
645.722681973779
 20
530.0824812527026
 30
0.0
 10
648.4081100057913
 20
530.0824812527026
 30
0.0
 10
649.9518192219681
 20
530.0824812527026
 30
0.0
  0
SPLINE
  5
296
330
1F
100
AcDbEntity
  8
0
  6
Continuous
 62
     7
370
    25
100
AcDbSpline
210
0.0
220
0.0
230
1.0
 70
    24
 71
     3
 72
     9
 73
     5
 74
     0
 42
0.00000001
 43
0.00000001
 40
0.0
 40
0.0
 40
0.0
 40
0.0
 40
0.3305010060296019
 40
1.0
 40
1.0
 40
1.0
 40
1.0
 10
551.086312076134
 20
560.1604219284875
 30
0.0
 10
550.7803193764347
 20
560.6904168311117
 30
0.0
 10
549.854474389228
 20
562.2940273888867
 30
0.0
 10
548.9544108535883
 20
563.8529831626548
 30
0.0
 10
548.3518192219681
 20
564.896702484837
 30
0.0
  0
SPLINE
  5
297
330
1F
100
AcDbEntity
  8
0
  6
Continuous
 62
     7
370
    25
100
AcDbSpline
210
0.0
220
0.0
230
1.0
 70
    24
 71
     3
 72
     9
 73
     5
 74
     0
 42
0.00000001
 43
0.00000001
 40
0.0
 40
0.0
 40
0.0
 40
0.0
 40
0.9675275129918213
 40
0.9999999999999999
 40
0.9999999999999999
 40
0.9999999999999999
 40
0.9999999999999999
 10
548.3518192219681
 20
530.0824812527026
 30
0.0
 10
549.2212868697737
 20
531.5884433942394
 30
0.0
 10
550.1199358860868
 20
533.1449491486653
 30
0.0
 10
551.0440235812624
 20
534.7455159873589
 30
0.0
 10
551.0740310069385
 20
534.797490373234
 30
0.0
  0
SPLINE
  5
298
330
1F
100
AcDbEntity
  8
0
  6
Continuous
 62
     7
370
    25
100
AcDbSpline
210
0.0
220
0.0
230
1.0
 70
    24
 71
     3
 72
    10
 73
     6
 74
     0
 42
0.00000001
 43
0.00000001
 40
0.0
 40
0.0
 40
0.0
 40
0.0
 40
0.6477567276968457
 40
0.9790061940647927
 40
1.0
 40
1.0
 40
1.0
 40
1.0
 10
528.251819221968
 20
530.0824812527025
 30
0.0
 10
529.9965948488154
 20
530.0824812527025
 30
0.0
 10
532.633612841682
 20
530.0824812527025
 30
0.0
 10
535.3974234087821
 20
530.0824812527026
 30
0.0
 10
536.375263897665
 20
530.0824812527026
 30
0.0
 10
536.4335434875773
 20
530.0824812527026
 30
0.0
  0
SPLINE
  5
299
330
1F
100
AcDbEntity
  8
0
  6
Continuous
 62
     7
370
    25
100
AcDbSpline
210
0.0
220
0.0
230
1.0
 70
    24
 71
     3
 72
     9
 73
     5
 74
     0
 42
0.00000001
 43
0.00000001
 40
0.0
 40
0.0
 40
0.0
 40
0.0
 40
0.4322411746618767
 40
1.0
 40
1.0
 40
1.0
 40
1.0
 10
540.0666926134062
 20
530.0824812527026
 30
0.0
 10
541.2805470600177
 20
530.0824812527026
 30
0.0
 10
544.0888275241845
 20
530.0824812527026
 30
0.0
 10
546.8079904648645
 20
530.0824812527026
 30
0.0
 10
548.3518192219681
 20
530.0824812527026
 30
0.0
  0
SPLINE
  5
29A
330
1F
100
AcDbEntity
  8
0
  6
Continuous
 62
     7
370
    25
100
AcDbSpline
210
0.0
220
0.0
230
1.0
 70
    24
 71
     3
 72
    11
 73
     7
 74
     0
 42
0.00000001
 43
0.00000001
 40
0.0
 40
0.0
 40
0.0
 40
0.0
 40
0.0045141860608123
 40
0.3355372270694585
 40
0.6666493959905879
 40
1.0
 40
1.0
 40
1.0
 40
1.0
 10
524.38102557406
 20
536.7868925164942
 30
0.0
 10
524.3869630510028
 20
536.7766085047605
 30
0.0
 10
524.828292788485
 20
536.0122029765497
 30
0.0
 10
525.6979070678403
 20
534.5059868617194
 30
0.0
 10
526.985585328978
 20
532.2756626896269
 30
0.0
 10
527.8287943930767
 20
530.8151817492052
 30
0.0
 10
528.251819221968
 20
530.0824812527025
 30
0.0
  0
SPLINE
  5
29B
330
1F
100
AcDbEntity
  8
0
  6
Continuous
 62
     7
370
    25
100
AcDbSpline
210
0.0
220
0.0
230
1.0
 70
    24
 71
     3
 72
    10
 73
     6
 74
     0
 42
0.00000001
 43
0.00000001
 40
0.0
 40
0.0
 40
0.0
 40
0.0
 40
0.637089359332277
 40
0.9628837529433915
 40
1.0
 40
1.0
 40
1.0
 40
1.0
 10
528.2518192219679
 20
564.896702484837
 30
0.0
 10
527.3794515748725
 20
563.3857173971882
 30
0.0
 10
526.060973057413
 20
561.1020456162599
 30
0.0
 10
524.6558174039102
 20
558.6682446318509
 30
0.0
 10
524.1436245095325
 20
557.7811005155128
 30
0.0
 10
524.091240600443
 20
557.6903689234707
 30
0.0
  0
SPLINE
  5
29C
330
1F
100
AcDbEntity
  8
0
  6
Continuous
 62
     7
370
    25
100
AcDbSpline
210
0.0
220
0.0
230
1.0
 70
    24
 71
     3
 72
    10
 73
     6
 74
     0
 42
0.00000001
 43
0.00000001
 40
0.0
 40
0.0
 40
0.0
 40
0.0
 40
0.648669848447242
 40
0.9803862659843007
 40
1.0
 40
1.0
 40
1.0
 40
1.0
 10
548.3518192219681
 20
564.896702484837
 30
0.0
 10
546.6070400136413
 20
564.896702484837
 30
0.0
 10
543.9700166078004
 20
564.896702484837
 30
0.0
 10
541.2101161195
 20
564.896702484837
 30
0.0
 10
540.2361887754769
 20
564.896702484837
 30
0.0
 10
540.1818172625512
 20
564.896702484837
 30
0.0
  0
SPLINE
  5
29D
330
1F
100
AcDbEntity
  8
0
  6
Continuous
 62
     7
370
    25
100
AcDbSpline
210
0.0
220
0.0
230
1.0
 70
    24
 71
     3
 72
     9
 73
     5
 74
     0
 42
0.00000001
 43
0.00000001
 40
0.0
 40
0.0
 40
0.0
 40
0.0
 40
0.4311225837738928
 40
1.0
 40
1.0
 40
1.0
 40
1.0
 10
536.5204557007909
 20
564.896702484837
 30
0.0
 10
535.312137509187
 20
564.896702484837
 30
0.0
 10
532.5094121659059
 20
564.896702484837
 30
0.0
 10
529.7956291131933
 20
564.896702484837
 30
0.0
 10
528.2518192219679
 20
564.896702484837
 30
0.0
  0
ARC
  5
29E
330
1F
100
AcDbEntity
  8
0
  6
Continuous
 62
     7
370
    25
100
AcDbCircle
 10
538.301819222
 20
547.4895918688
 30
0.0
 40
25.80000000000004
100
AcDbArc
 50
191.6486469977
 51
270.0
  0
ARC
  5
29F
330
1F
100
AcDbEntity
  8
0
  6
Continuous
 62
     7
370
    25
100
AcDbCircle
 10
538.301819222
 20
547.4895918688
 30
0.0
 40
25.80000000000003
100
AcDbArc
 50
27.7177476896
 51
168.1671055464
  0
ARC
  5
2A0
330
1F
100
AcDbEntity
  8
0
  6
Continuous
 62
     7
370
    25
100
AcDbCircle
 10
538.301819222
 20
547.4895918688
 30
0.0
 40
25.80000000000003
100
AcDbArc
 50
270.0
 51
332.2822523104
  0
ARC
  5
2A1
330
1F
100
AcDbEntity
  8
0
  6
Continuous
 62
     7
370
    25
100
AcDbCircle
 10
639.901819222
 20
547.4895918688
 30
0.0
 40
25.79999999999995
100
AcDbArc
 50
12.3576559798
 51
90.0
  0
ARC
  5
2A2
330
1F
100
AcDbEntity
  8
0
  6
Continuous
 62
     7
370
    25
100
AcDbCircle
 10
639.901819222
 20
547.4895918688
 30
0.0
 40
25.80000000000013
100
AcDbArc
 50
207.7177476896
 51
348.9141211324
  0
ARC
  5
2A3
330
1F
100
AcDbEntity
  8
0
  6
Continuous
 62
     7
370
    25
100
AcDbCircle
 10
639.901819222
 20
547.4895918688
 30
0.0
 40
25.80000000000013
100
AcDbArc
 50
90.0
 51
152.2822523104
  0
ARC
  5
2A4
330
1F
100
AcDbEntity
  8
0
  6
Continuous
 62
     7
370
    25
100
AcDbCircle
 10
538.301819222
 20
547.4895918688
 30
0.0
 40
17.60000000000008
100
AcDbArc
 50
0.0493645789
 51
27.9531868834
  0
LWPOLYLINE
  5
2A5
330
1F
100
AcDbEntity
  8
0
  6
Continuous
 62
     7
370
    25
100
AcDbPolyline
 90
        3
 70
   128
 43
0.0
 10
555.3787976461
 20
543.2308587352
 10
554.7366966299
 20
541.1923857752
 10
553.8484426496
 20
539.2395918688
  0
ARC
  5
2A6
330
1F
100
AcDbEntity
  8
0
  6
Continuous
 62
     7
370
    25
100
AcDbCircle
 10
538.301819222
 20
547.4895918688
 30
0.0
 40
17.60000000000007
100
AcDbArc
 50
300.5650836339
 51
332.0468131166
  0
ARC
  5
2A7
330
1F
100
AcDbEntity
  8
0
  6
Continuous
 62
     7
370
    25
100
AcDbCircle
 10
538.301819222
 20
547.4895918688
 30
0.0
 40
17.60000000000015
100
AcDbArc
 50
240.0027946058
 51
285.7530601505
  0
ARC
  5
2A8
330
1F
100
AcDbEntity
  8
0
  6
Continuous
 62
     7
370
    25
100
AcDbCircle
 10
538.301819222
 20
547.4895918688
 30
0.0
 40
17.60000000000007
100
AcDbArc
 50
211.5427743269
 51
226.0596136988
  0
ARC
  5
2A9
330
1F
100
AcDbEntity
  8
0
  6
Continuous
 62
     7
370
    25
100
AcDbCircle
 10
538.301819222
 20
547.4895918688
 30
0.0
 40
17.60000000000013
100
AcDbArc
 50
120.5592920812
 51
148.4572256731
  0
ARC
  5
2AA
330
1F
100
AcDbEntity
  8
0
  6
Continuous
 62
     7
370
    25
100
AcDbCircle
 10
538.301819222
 20
547.4895918688
 30
0.0
 40
17.60000000000003
100
AcDbArc
 50
59.9772449625
 51
105.7432080931
  0
ARC
  5
2AB
330
1F
100
AcDbEntity
  8
0
  6
Continuous
 62
     7
370
    25
100
AcDbCircle
 10
538.301819222
 20
547.4895918688
 30
0.0
 40
17.60000000000005
100
AcDbArc
 50
27.9531868834
 51
46.0962419901
  0
ARC
  5
2AC
330
1F
100
AcDbEntity
  8
0
  6
Continuous
 62
     7
370
    25
100
AcDbCircle
 10
639.901819222
 20
547.4895918688
 30
0.0
 40
17.60000000000013
100
AcDbArc
 50
152.0468131166
 51
172.828786213
  0
ARC
  5
2AD
330
1F
100
AcDbEntity
  8
0
  6
Continuous
 62
     7
370
    25
100
AcDbCircle
 10
639.901819222
 20
547.4895918688
 30
0.0
 40
17.60000000000014
100
AcDbArc
 50
187.3522705531
 51
207.9531868834
  0
ARC
  5
2AE
330
1F
100
AcDbEntity
  8
0
  6
Continuous
 62
     7
370
    25
100
AcDbCircle
 10
639.901819222
 20
547.4895918688
 30
0.0
 40
17.60000000000014
100
AcDbArc
 50
207.9531868834
 51
233.9685090208
  0
ARC
  5
2AF
330
1F
100
AcDbEntity
  8
0
  6
Continuous
 62
     7
370
    25
100
AcDbCircle
 10
639.901819222
 20
547.4895918688
 30
0.0
 40
17.60000000000012
100
AcDbArc
 50
245.8717812066
 51
292.8063545856
  0
ARC
  5
2B0
330
1F
100
AcDbEntity
  8
0
  6
Continuous
 62
     7
370
    25
100
AcDbCircle
 10
639.901819222
 20
547.4895918688
 30
0.0
 40
17.59999999999995
100
AcDbArc
 50
307.3878313932
 51
329.914091969
  0
ARC
  5
2B1
330
1F
100
AcDbEntity
  8
0
  6
Continuous
 62
     7
370
    25
100
AcDbCircle
 10
639.901819222
 20
547.4895918688
 30
0.0
 40
17.60000000000006
100
AcDbArc
 50
33.0957362986
 51
54.0028275068
  0
ARC
  5
2B2
330
1F
100
AcDbEntity
  8
0
  6
Continuous
 62
     7
370
    25
100
AcDbCircle
 10
639.901819222
 20
547.4895918688
 30
0.0
 40
17.6
100
AcDbArc
 50
65.9419390619
 51
112.7963247286
  0
ARC
  5
2B3
330
1F
100
AcDbEntity
  8
0
  6
Continuous
 62
     7
370
    25
100
AcDbCircle
 10
639.901819222
 20
547.4895918688
 30
0.0
 40
17.60000000000015
100
AcDbArc
 50
127.4061196117
 51
152.0468131166
  0
SPLINE
  5
2B4
330
1F
100
AcDbEntity
  8
0
  6
Continuous
 62
     7
370
    25
100
AcDbSpline
210
0.0
220
0.0
230
1.0
 70
     8
 71
     3
 72
    26
 73
    22
 74
     0
 42
0.00000001
 43
0.00000001
 40
0.0
 40
0.0
 40
0.0
 40
0.0
 40
0.1249999999999996
 40
0.1249999999999996
 40
0.1874999999999994
 40
0.1874999999999994
 40
0.2499999999999992
 40
0.2499999999999992
 40
0.3749999999999991
 40
0.3749999999999991
 40
0.4374999999999992
 40
0.4374999999999992
 40
0.4999999999999992
 40
0.4999999999999992
 40
0.6249999999999993
 40
0.6249999999999993
 40
0.7499999999999994
 40
0.7499999999999994
 40
0.8749999999999998
 40
0.8749999999999998
 40
1.0
 40
1.0
 40
1.0
 40
1.0
 10
560.9150896621233
 20
554.6895918687798
 30
0.0
 10
561.3078648197246
 20
554.2454953257309
 30
0.0
 10
561.6318015773224
 20
553.7524746394082
 30
0.0
 10
562.0226742698172
 20
552.9315105426523
 30
0.0
 10
562.1373504167949
 20
552.6432803089181
 30
0.0
 10
562.3342981778117
 20
552.0484691174354
 30
0.0
 10
562.4166391600224
 20
551.7421207517478
 30
0.0
 10
562.6218412707166
 20
550.8095667985637
 30
0.0
 10
562.7050707222136
 20
550.1653898433218
 30
0.0
 10
562.7831852567263
 20
549.1689774237051
 30
0.0
 10
562.8011985939843
 20
548.8321959900314
 30
0.0
 10
562.82452001013
 20
548.1623273530638
 30
0.0
 10
562.8299861400354
 20
547.8275274594506
 30
0.0
 10
562.8300945477001
 20
546.823518527524
 30
0.0
 10
562.8097541687849
 20
546.1528074118196
 30
0.0
 10
562.7058724081647
 20
544.8203733023771
 30
0.0
 10
562.6227148686839
 20
544.1750562842593
 30
0.0
 10
562.3495914661705
 20
542.9309032007487
 30
0.0
 10
562.1558738685034
 20
542.3283512258616
 30
0.0
 10
561.6326806060581
 20
541.2276478626717
 30
0.0
 10
561.3077926530777
 20
540.7336068156153
 30
0.0
 10
560.9150896621322
 20
540.2895918687697
 30
0.0
  0
LWPOLYLINE
  5
2B5
330
1F
100
AcDbEntity
  8
0
  6
Continuous
 62
     7
370
    25
100
AcDbPolyline
 90
        9
 70
   128
 43
0.0
 10
553.8484426496
 20
539.2395918688
 10
554.2709267158
 20
539.8158081616
 10
554.8646505165
 20
540.2805250623
 10
555.6143120331
 20
540.6217654416
 10
556.5005902706
 20
540.8307345254
 10
557.5006432168
 20
540.9020465621
 10
558.5886965489
 20
540.8338636297
 10
559.7367079137
 20
540.627943004
 10
560.9150896621
 20
540.2895918688
  0
LWPOLYLINE
  5
2B6
330
1F
100
AcDbEntity
  8
0
  6
Continuous
 62
     7
370
    25
100
AcDbPolyline
 90
        9
 70
   128
 43
0.0
 10
560.9150896621
 20
554.6895918688
 10
559.7367079137
 20
554.3512407335
 10
558.5886965489
 20
554.1453201078
 10
557.5006432168
 20
554.0771371754
 10
556.5005902706
 20
554.1484492122
 10
555.6143120331
 20
554.3574182959
 10
554.8646505165
 20
554.6986586752
 10
554.2709267157
 20
555.1633755759
 10
553.8484426496
 20
555.7395918688
  0
LWPOLYLINE
  5
2B7
330
1F
100
AcDbEntity
  8
0
  6
Continuous
 62
     7
370
    25
100
AcDbPolyline
 90
        9
 70
   128
 43
0.0
 10
624.3551957944
 20
539.2395918688
 10
623.9327117282
 20
539.8158081616
 10
623.3389879274
 20
540.2805250623
 10
622.5893264108
 20
540.6217654416
 10
621.7030481734
 20
540.8307345254
 10
620.7029952272
 20
540.9020465621
 10
619.6149418951
 20
540.8338636297
 10
618.4669305303
 20
540.627943004
 10
617.2885487818
 20
540.2895918688
  0
SPLINE
  5
2B8
330
1F
100
AcDbEntity
  8
0
  6
Continuous
 62
     7
370
    25
100
AcDbSpline
210
0.0
220
0.0
230
1.0
 70
     8
 71
     3
 72
    30
 73
    26
 74
     0
 42
0.00000001
 43
0.00000001
 40
0.0
 40
0.0
 40
0.0
 40
0.0
 40
0.1249999999999998
 40
0.1249999999999998
 40
0.1874999999999996
 40
0.1874999999999996
 40
0.2499999999999994
 40
0.2499999999999994
 40
0.3749999999999993
 40
0.3749999999999993
 40
0.4999999999999992
 40
0.4999999999999992
 40
0.5624999999999991
 40
0.5624999999999991
 40
0.624999999999999
 40
0.624999999999999
 40
0.7499999999999991
 40
0.7499999999999991
 40
0.8124999999999994
 40
0.8124999999999994
 40
0.8749999999999997
 40
0.8749999999999997
 40
0.9374999999999999
 40
0.9374999999999999
 40
1.0
 40
1.0
 40
1.0
 40
1.0
 10
617.2885487818038
 20
540.2895918687697
 30
0.0
 10
616.8954361537228
 20
540.7340699773818
 30
0.0
 10
616.5702805946414
 20
541.228678509027
 30
0.0
 10
616.1776738740119
 20
542.0552437156514
 30
0.0
 10
616.0639930165584
 20
542.3424535202392
 30
0.0
 10
615.8696357594109
 20
542.9302073045958
 30
0.0
 10
615.7882772273891
 20
543.2321456153242
 30
0.0
 10
615.5832861859511
 20
544.1610954994132
 30
0.0
 10
615.4982343131392
 20
544.8158545263145
 30
0.0
 10
615.3939503940214
 20
546.1504793921149
 30
0.0
 10
615.3735876836536
 20
546.8210669012471
 30
0.0
 10
615.3736301863096
 20
547.8257737054655
 30
0.0
 10
615.3790817091335
 20
548.1608064031913
 30
0.0
 10
615.4023869557736
 20
548.831141000693
 30
0.0
 10
615.4203987153953
 20
549.1681570203783
 30
0.0
 10
615.4985395569603
 20
550.1652813942852
 30
0.0
 10
615.5818237943172
 20
550.8099055804454
 30
0.0
 10
615.7872347457325
 20
551.743081724567
 30
0.0
 10
615.869897875812
 20
552.050285420748
 30
0.0
 10
616.0664154230392
 20
552.6435323613455
 30
0.0
 10
616.1795007857393
 20
552.9278679295002
 30
0.0
 10
616.438270365436
 20
553.472498757999
 30
0.0
 10
616.5839471084861
 20
553.7327953857787
 30
0.0
 10
616.9104420477931
 20
554.2299274717383
 30
0.0
 10
617.091905841133
 20
554.4672548688936
 30
0.0
 10
617.2885487818032
 20
554.68959186877
 30
0.0
  0
LWPOLYLINE
  5
2B9
330
1F
100
AcDbEntity
  8
0
  6
Continuous
 62
     7
370
    25
100
AcDbPolyline
 90
        9
 70
   128
 43
0.0
 10
617.2885487818
 20
554.6895918688
 10
618.4669305303
 20
554.3512407335
 10
619.6149418951
 20
554.1453201078
 10
620.7029952272
 20
554.0771371754
 10
621.7030481734
 20
554.1484492122
 10
622.5893264108
 20
554.3574182959
 10
623.3389879274
 20
554.6986586752
 10
623.9327117282
 20
555.1633755759
 10
624.3551957944
 20
555.7395918688
  0
SPLINE
  5
2BA
330
1F
100
AcDbEntity
  8
0
  6
Continuous
 62
     8
370
    25
100
AcDbSpline
210
0.0
220
0.0
230
1.0
 70
     8
 71
     3
 72
     9
 73
     5
 74
     0
 42
0.00000001
 43
0.00000001
 40
0.0
 40
0.0
 40
0.0
 40
0.0
 40
0.2412182334225565
 40
1.0
 40
1.0
 40
1.0
 40
1.0
 10
603.3470611940563
 20
544.3760334838041
 30
0.0
 10
603.3544294798413
 20
544.4682288751997
 30
0.0
 10
603.384975619245
 20
544.8504362651112
 30
0.0
 10
603.393018099986
 20
544.9730694354521
 30
0.0
 10
603.3991205877305
 20
545.0661212490844
 30
0.0
  0
SPLINE
  5
2BB
330
1F
100
AcDbEntity
  8
0
  6
Continuous
 62
     8
370
    25
100
AcDbSpline
210
0.0
220
0.0
230
1.0
 70
     8
 71
     3
 72
     9
 73
     5
 74
     0
 42
0.00000001
 43
0.00000001
 40
0.0
 40
0.0
 40
0.0
 40
0.0
 40
0.2534351547687475
 40
0.9999999999999999
 40
0.9999999999999999
 40
0.9999999999999999
 40
0.9999999999999999
 10
603.3410796838551
 20
546.7962710044995
 30
0.0
 10
603.3536810153203
 20
547.1122319473095
 30
0.0
 10
603.4034031285632
 20
548.358945107914
 30
0.0
 10
603.3128831436869
 20
549.6046536838259
 30
0.0
 10
603.2453041051874
 20
550.5346559140046
 30
0.0
  0
LINE
  5
2BC
330
1F
100
AcDbEntity
  8
0
  6
Continuous
 62
     8
370
    25
100
AcDbLine
 10
603.1271264899
 20
541.9469976703
 30
0.0
 11
603.2480789024
 21
541.9435155933
 31
0.0
  0
LINE
  5
2BD
330
1F
100
AcDbEntity
  8
0
  6
Continuous
 62
     8
370
    25
100
AcDbLine
 10
574.9958926125
 20
542.7568626613
 30
0.0
 11
574.6599233244
 21
542.7665348202
 31
0.0
  0
LINE
  5
2BE
330
1F
100
AcDbEntity
  8
0
  6
Continuous
 62
     8
370
    25
100
AcDbLine
 10
602.9295695733
 20
540.0309632177
 30
0.0
 11
603.192800614
 21
540.023385107
 31
0.0
  0
LINE
  5
2BF
330
1F
100
AcDbEntity
  8
0
  6
Continuous
 62
     8
370
    25
100
AcDbLine
 10
602.9183493879
 20
539.9142225177
 30
0.0
 11
603.1314331186
 21
539.7973923191
 31
0.0
  0
ELLIPSE
  5
2C0
330
1F
100
AcDbEntity
  8
0
  6
Continuous
 62
     8
370
    25
100
AcDbEllipse
 10
482.8407337745
 20
544.1503560908
 30
0.0
 11
1.499999304622804
 21
-0.08287263343856921
 31
0.0
210
0.0
220
0.0
230
1.0
 40
0.0174284859
 41
3.125102257560789
 42
3.644539868567062
  0
ELLIPSE
  5
2C1
330
1F
100
AcDbEntity
  8
0
  6
Continuous
 62
     8
370
    25
100
AcDbEllipse
 10
695.3629046694
 20
551.0742489356
 30
0.0
 11
1.499999304622861
 21
-0.08287263343879658
 31
0.0
210
0.0
220
0.0
230
1.0
 40
0.0174284859
 41
6.266694911159933
 42
6.7861325221664
  0
ARC
  5
2C2
330
1F
100
AcDbEntity
  8
0
  6
Continuous
 62
     8
370
    25
100
AcDbCircle
 10
538.301819222
 20
547.4895918688
 30
0.0
 40
24.80000000000001
100
AcDbArc
 50
270.0
 51
331.0614722598
  0
ARC
  5
2C3
330
1F
100
AcDbEntity
  8
0
  6
Continuous
 62
     8
370
    25
100
AcDbCircle
 10
538.301819222
 20
547.4895918688
 30
0.0
 40
24.80000000000001
100
AcDbArc
 50
28.9385277402
 51
167.2437085303
  0
ARC
  5
2C4
330
1F
100
AcDbEntity
  8
0
  6
Continuous
 62
     8
370
    25
100
AcDbCircle
 10
538.301819222
 20
547.4895918688
 30
0.0
 40
24.80000000000003
100
AcDbArc
 50
192.6962024772
 51
270.0
  0
ARC
  5
2C5
330
1F
100
AcDbEntity
  8
0
  6
Continuous
 62
     8
370
    25
100
AcDbCircle
 10
639.901819222
 20
547.4895918688
 30
0.0
 40
24.80000000000001
100
AcDbArc
 50
90.0
 51
151.0614722598
  0
ARC
  5
2C6
330
1F
100
AcDbEntity
  8
0
  6
Continuous
 62
     8
370
    25
100
AcDbCircle
 10
639.901819222
 20
547.4895918688
 30
0.0
 40
24.80000000000001
100
AcDbArc
 50
208.9385277402
 51
347.8739888758
  0
ARC
  5
2C7
330
1F
100
AcDbEntity
  8
0
  6
Continuous
 62
     8
370
    25
100
AcDbCircle
 10
639.901819222
 20
547.4895918688
 30
0.0
 40
24.79999999999995
100
AcDbArc
 50
13.3382836017
 51
90.0
  0
SPLINE
  5
2C8
330
1F
100
AcDbEntity
  8
0
  6
Continuous
 62
     8
370
    25
100
AcDbSpline
210
0.0
220
0.0
230
1.0
 70
     8
 71
     3
 72
    16
 73
    12
 74
     0
 42
0.00000001
 43
0.00000001
 40
0.0
 40
0.0
 40
0.0
 40
0.0
 40
0.0855077182088525
 40
0.1688042806535806
 40
0.2523142731498928
 40
0.2613716482862476
 40
0.3814718037990252
 40
0.5018972080353583
 40
0.6690782362017877
 40
0.8365027373305846
 40
1.0
 40
1.0
 40
1.0
 40
1.0
 10
567.3214872511028
 20
547.4895918687697
 30
0.0
 10
567.3559113499688
 20
548.0201585474922
 30
0.0
 10
567.4238693702263
 20
549.0675719087254
 30
0.0
 10
567.936756837994
 20
550.5324392382896
 30
0.0
 10
568.4361548335031
 20
551.4563980425016
 30
0.0
 10
569.1255148862224
 20
552.4993381645195
 30
0.0
 10
570.0583111385
 20
553.612772598487
 30
0.0
 10
571.8055245287579
 20
555.1179595528165
 30
0.0
 10
573.944316151134
 20
556.4496445201808
 30
0.0
 10
576.4091642748855
 20
557.610858323909
 30
0.0
 10
578.1295256249841
 20
558.0564766004262
 30
0.0
 10
578.9794980423766
 20
558.2766415347895
 30
0.0
  0
SPLINE
  5
2C9
330
1F
100
AcDbEntity
  8
0
  6
Continuous
 62
     8
370
    25
100
AcDbSpline
210
0.0
220
0.0
230
1.0
 70
     8
 71
     3
 72
    24
 73
    20
 74
     0
 42
0.00000001
 43
0.00000001
 40
0.0
 40
0.0
 40
0.0
 40
0.0
 40
0.0651310377283723
 40
0.172325210439162
 40
0.2793404348350054
 40
0.3502929294156074
 40
0.4210529169207557
 40
0.4670154122425669
 40
0.5128719859810023
 40
0.578155833131756
 40
0.6030326032433249
 40
0.6409098147907552
 40
0.6788408459226453
 40
0.6955863309927109
 40
0.7559768171984339
 40
0.8165428001280959
 40
0.9051295801072806
 40
0.9943020466411213
 40
1.0
 40
1.0
 40
1.0
 40
1.0
 10
598.5508244128898
 20
558.4636416226772
 30
0.0
 10
599.1651978555484
 20
558.3307774741066
 30
0.0
 10
600.7907213614981
 20
557.9792424278249
 30
0.0
 10
603.3300862615954
 20
556.9294733220611
 30
0.0
 10
605.8026565834489
 20
555.5466821994335
 30
0.0
 10
607.7784112139614
 20
553.9743962651007
 30
0.0
 10
609.0948459550717
 20
552.5257930649063
 30
0.0
 10
610.018913758352
 20
551.053809905699
 30
0.0
 10
610.684494628017
 20
549.4691425040126
 30
0.0
 10
610.9253099744194
 20
547.9402879513692
 30
0.0
 10
610.841326271931
 20
546.5105642894753
 30
0.0
 10
610.6114518227101
 20
545.4106735322042
 30
0.0
 10
610.248933235888
 20
544.4616562321181
 30
0.0
 10
609.6868771520545
 20
543.3551777238195
 30
0.0
 10
608.8499926494788
 20
542.1504563233286
 30
0.0
 10
607.3347156281272
 20
540.6002334791345
 30
0.0
 10
605.3898072553155
 20
539.1882734465331
 30
0.0
 10
603.8029886894733
 20
538.2756885445611
 30
0.0
 10
602.9389082841219
 20
537.9408058368477
 30
0.0
 10
602.8870112876335
 20
537.9206926545576
 30
0.0
  0
SPLINE
  5
2CA
330
1F
100
AcDbEntity
  8
0
  6
Continuous
 62
     8
370
    25
100
AcDbSpline
210
0.0
220
0.0
230
1.0
 70
     8
 71
     3
 72
    14
 73
    10
 74
     0
 42
0.00000001
 43
0.00000001
 40
0.0
 40
0.0
 40
0.0
 40
0.0
 40
0.0923657943297982
 40
0.3665125634862146
 40
0.522671685235379
 40
0.6783783859491426
 40
0.7850810094254319
 40
0.8915299530124617
 40
1.0
 40
1.0
 40
1.0
 40
1.0
 10
575.3352163936738
 20
537.9668713217372
 30
0.0
 10
574.9814188019395
 20
538.1084417806562
 30
0.0
 10
573.5775304551477
 20
538.6702011655976
 30
0.0
 10
571.7241791152352
 20
539.9094658932064
 30
0.0
 10
569.8402035173908
 20
541.5893891795338
 30
0.0
 10
568.6814888382073
 20
543.0500220801326
 30
0.0
 10
567.8998717572688
 20
544.5352631570894
 30
0.0
 10
567.4171258912625
 20
545.9627197519184
 30
0.0
 10
567.3535660372921
 20
546.9774536358
 30
0.0
 10
567.3214872511028
 20
547.4895918687697
 30
0.0
  0
SPLINE
  5
2CB
330
1F
100
AcDbEntity
  8
0
  6
Continuous
 62
     8
370
    25
100
AcDbSpline
210
0.0
220
0.0
230
1.0
 70
     8
 71
     3
 72
    16
 73
    12
 74
     0
 42
0.00000001
 43
0.00000001
 40
0.0
 40
0.0
 40
0.0
 40
0.0
 40
0.0031903252430246
 40
0.0660088914249361
 40
0.1534764438590229
 40
0.2411473475986128
 40
0.2844412104109247
 40
0.4899254308232834
 40
0.6962219682956978
 40
0.8481472851231471
 40
1.0
 40
1.0
 40
1.0
 40
1.0
 10
623.9149162596126
 20
535.4929629920283
 30
0.0
 10
623.9173001241885
 20
535.4918010656764
 30
0.0
 10
623.9666230759187
 20
535.4677604226175
 30
0.0
 10
623.8462863180611
 20
535.5259860596522
 30
0.0
 10
623.6321155222053
 20
535.6294446392158
 30
0.0
 10
623.2552975405317
 20
535.8189984199485
 30
0.0
 10
622.578190781408
 20
536.1743331090618
 30
0.0
 10
621.4437287253489
 20
536.8168423498196
 30
0.0
 10
619.8856023129061
 20
537.8807444689616
 30
0.0
 10
618.4764496824936
 20
539.0344590158036
 30
0.0
 10
617.6844526538054
 20
539.8712809170086
 30
0.0
 10
617.2885487818038
 20
540.2895918687697
 30
0.0
  0
SPLINE
  5
2CC
330
1F
100
AcDbEntity
  8
0
  6
Continuous
 62
     8
370
    25
100
AcDbSpline
210
0.0
220
0.0
230
1.0
 70
     8
 71
     3
 72
    13
 73
     9
 74
     0
 42
0.00000001
 43
0.00000001
 40
0.0
 40
0.0
 40
0.0
 40
0.0
 40
0.2467861064592236
 40
0.4412248042484657
 40
0.6395902659399948
 40
0.7567042384135927
 40
0.8774235764411434
 40
1.0
 40
1.0
 40
1.0
 40
1.0
 10
617.2885487818038
 20
554.6895918687696
 30
0.0
 10
617.9393800502831
 20
555.3502076786061
 30
0.0
 10
619.1029905272005
 20
556.5313117754313
 30
0.0
 10
620.8787478271081
 20
557.7960989198666
 30
0.0
 10
622.2179517434781
 20
558.6092180063415
 30
0.0
 10
623.1702591107738
 20
559.1194784446628
 30
0.0
 10
623.7951445482439
 20
559.4296536534498
 30
0.0
 10
623.8610265303828
 20
559.4606215140376
 30
0.0
 10
623.8942189612532
 20
559.4762236337432
 30
0.0
  0
SPLINE
  5
2CD
330
1F
100
AcDbEntity
  8
0
  6
Continuous
 62
     8
370
    25
100
AcDbSpline
210
0.0
220
0.0
230
1.0
 70
     8
 71
     3
 72
    15
 73
    11
 74
     0
 42
0.00000001
 43
0.00000001
 40
0.0
 40
0.0
 40
0.0
 40
0.0
 40
0.1537429389681383
 40
0.3075611054978735
 40
0.5121069942497568
 40
0.7158588995624501
 40
0.8815196123498537
 40
0.9340043229899695
 40
0.9968487968280862
 40
0.9999999999999999
 40
0.9999999999999999
 40
0.9999999999999999
 40
0.9999999999999999
 10
560.9150896621322
 20
540.2895918687697
 30
0.0
 10
560.5142655092627
 20
539.8664423802736
 30
0.0
 10
559.7124210772896
 20
539.0199363530946
 30
0.0
 10
558.2981047084696
 20
537.8659592871439
 30
0.0
 10
556.7433281529093
 20
536.807387561573
 30
0.0
 10
555.3257868293006
 20
536.004403768506
 30
0.0
 10
554.5501480433097
 20
535.6191575684493
 30
0.0
 10
554.3344283335452
 20
535.5148871725968
 30
0.0
 10
554.236965606053
 20
535.4677363458579
 30
0.0
 10
554.2862798769122
 20
535.4917725827897
 30
0.0
 10
554.2886345657918
 20
535.4929202801768
 30
0.0
  0
SPLINE
  5
2CE
330
1F
100
AcDbEntity
  8
0
  6
Continuous
 62
     8
370
    25
100
AcDbSpline
210
0.0
220
0.0
230
1.0
 70
     8
 71
     3
 72
    14
 73
    10
 74
     0
 42
0.00000001
 43
0.00000001
 40
0.0
 40
0.0
 40
0.0
 40
0.0
 40
0.0342052034847445
 40
0.1230375925185316
 40
0.2395843370991623
 40
0.3607510399786965
 40
0.5547281469438344
 40
0.7533469839175275
 40
0.9999999999999999
 40
0.9999999999999999
 40
0.9999999999999999
 40
0.9999999999999999
 10
554.3341901419
 20
559.464317175695
 30
0.0
 10
554.3174199512333
 20
559.4724172326517
 30
0.0
 10
554.2570968519532
 20
559.5015534869542
 30
0.0
 10
554.5103630196564
 20
559.3799025268514
 30
0.0
 10
555.0109292705952
 20
559.1304236324302
 30
0.0
 10
555.9719858621255
 20
558.617678748873
 30
0.0
 10
557.3106553439297
 20
557.8049274544578
 30
0.0
 10
559.0900081645536
 20
556.54223918082
 30
0.0
 10
560.2644961135314
 20
555.3500119051643
 30
0.0
 10
560.9150896621233
 20
554.6895918687798
 30
0.0
  0
ENDSEC
  0
SECTION
  2
OBJECTS
  0
DICTIONARY
  5
C
330
0
100
AcDbDictionary
281
     1
  3
ACAD_GROUP
350
D
  3
ACAD_LAYOUT
350
1A
  3
ACAD_MLINESTYLE
350
17
  3
ACAD_PLOTSETTINGS
350
19
  3
ACAD_PLOTSTYLENAME
350
E
  3
ACAD_SCALELIST
350
47
  3
DWGPROPS
350
2CF
  0
DICTIONARY
  5
D
102
{ACAD_REACTORS
330
C
102
}
330
C
100
AcDbDictionary
281
     1
  0
DICTIONARY
  5
1A
102
{ACAD_REACTORS
330
C
102
}
330
C
100
AcDbDictionary
281
     1
  3
Layout1
350
1E
  3
Layout2
350
26
  3
Model
350
22
  0
DICTIONARY
  5
17
102
{ACAD_REACTORS
330
C
102
}
330
C
100
AcDbDictionary
281
     1
  3
Standard
350
18
  0
DICTIONARY
  5
19
102
{ACAD_REACTORS
330
C
102
}
330
C
100
AcDbDictionary
281
     1
  0
ACDBDICTIONARYWDFLT
  5
E
102
{ACAD_REACTORS
330
C
102
}
330
C
100
AcDbDictionary
281
     1
  3
Normal
350
F
100
AcDbDictionaryWithDefault
340
F
  0
DICTIONARY
  5
47
102
{ACAD_REACTORS
330
C
102
}
330
C
100
AcDbDictionary
281
     1
  3
A0
350
48
  3
A1
350
49
  3
A2
350
4A
  3
A3
350
4B
  3
A4
350
4C
  3
A5
350
4D
  3
A6
350
4E
  3
A7
350
4F
  3
A8
350
50
  3
A9
350
51
  3
B0
350
52
  3
B1
350
53
  3
B2
350
54
  3
B3
350
55
  3
B4
350
56
  3
B5
350
57
  3
B6
350
58
  3
B7
350
59
  3
B8
350
5A
  3
B9
350
5B
  3
C0
350
5C
  3
C1
350
5D
  3
C2
350
5E
  3
C3
350
5F
  3
C4
350
60
  3
C5
350
61
  3
C6
350
62
  3
C7
350
63
  3
C8
350
64
  3
C9
350
65
  3
D0
350
66
  3
D1
350
67
  3
D2
350
68
  0
XRECORD
  5
2CF
102
{ACAD_REACTORS
330
C
102
}
330
C
100
AcDbXrecord
280
     1
  1
DWGPROPS COOKIE
  2

  3

  4

  6

  7

  8
designer5
  9

300
=
301
=
302
=
303
=
304
=
305
=
306
=
307
=
308
=
309
=
 40
0.0
 41
2460383.201200347
 42
2460383.201201077
  1

 90
        0
  0
LAYOUT
  5
1E
102
{ACAD_REACTORS
330
1A
102
}
330
1A
100
AcDbPlotSettings
  1

  2
none_device
  4

  6

 40
0.0
 41
0.0
 42
0.0
 43
0.0
 44
0.0
 45
0.0
 46
0.0
 47
0.0
 48
0.0
 49
0.0
140
0.0
141
0.0
142
1.0
143
1.0
 70
   688
 72
     1
 73
     0
 74
     5
  7

 75
    16
147
1.0
148
0.0
149
0.0
100
AcDbLayout
  1
Layout1
 70
     1
 71
     1
 10
0.0
 20
0.0
 11
420.0
 21
297.0
 12
0.0
 22
0.0
 32
0.0
 14
1.0000000000E+20
 24
1.0000000000E+20
 34
1.0000000000E+20
 15
-1.0000000000E+20
 25
-1.0000000000E+20
 35
-1.0000000000E+20
146
0.0
 13
0.0
 23
0.0
 33
0.0
 16
1.0
 26
0.0
 36
0.0
 17
0.0
 27
1.0
 37
0.0
 76
     0
330
1B
  0
LAYOUT
  5
26
102
{ACAD_REACTORS
330
1A
102
}
330
1A
100
AcDbPlotSettings
  1

  2
none_device
  4

  6

 40
0.0
 41
0.0
 42
0.0
 43
0.0
 44
0.0
 45
0.0
 46
0.0
 47
0.0
 48
0.0
 49
0.0
140
0.0
141
0.0
142
1.0
143
1.0
 70
   688
 72
     1
 73
     0
 74
     5
  7

 75
    16
147
1.0
148
0.0
149
0.0
100
AcDbLayout
  1
Layout2
 70
     1
 71
     2
 10
0.0
 20
0.0
 11
0.0
 21
0.0
 12
0.0
 22
0.0
 32
0.0
 14
0.0
 24
0.0
 34
0.0
 15
0.0
 25
0.0
 35
0.0
146
0.0
 13
0.0
 23
0.0
 33
0.0
 16
1.0
 26
0.0
 36
0.0
 17
0.0
 27
1.0
 37
0.0
 76
     0
330
23
  0
LAYOUT
  5
22
102
{ACAD_REACTORS
330
1A
102
}
330
1A
100
AcDbPlotSettings
  1

  2
none_device
  4
Letter_(8.50_x_11.00_Inches)
  6

 40
6.35
 41
6.35
 42
6.35000508
 43
6.35000508
 44
215.9
 45
279.4
 46
0.0
 47
0.0
 48
0.0
 49
0.0
140
0.0
141
0.0
142
1.0
143
1.0
 70
  1712
 72
     1
 73
     0
 74
     0
  7

 75
     0
147
1.0
148
0.0
149
0.0
100
AcDbLayout
  1
Model
 70
     1
 71
     0
 10
0.0
 20
0.0
 11
1189.0
 21
841.0
 12
0.0
 22
0.0
 32
0.0
 14
0.0
 24
0.0
 34
0.0
 15
1189.0
 25
841.0
 35
0.0
146
0.0
 13
0.0
 23
0.0
 33
0.0
 16
1.0
 26
0.0
 36
0.0
 17
0.0
 27
1.0
 37
0.0
 76
     0
330
1F
331
29
  0
MLINESTYLE
  5
18
102
{ACAD_REACTORS
330
17
102
}
330
17
100
AcDbMlineStyle
  2
Standard
 70
     0
  3

 62
   256
 51
90.0
 52
90.0
 71
     2
 49
0.5
 62
   256
  6
BYLAYER
 49
-0.5
 62
   256
  6
BYLAYER
  0
ACDBPLACEHOLDER
  5
F
102
{ACAD_REACTORS
330
E
102
}
330
E
  0
SCALE
  5
48
102
{ACAD_REACTORS
330
47
102
}
330
47
100
AcDbScale
 70
     0
300
1:1
140
1.0
141
1.0
290
     1
  0
SCALE
  5
49
102
{ACAD_REACTORS
330
47
102
}
330
47
100
AcDbScale
 70
     0
300
1:2
140
1.0
141
2.0
290
     0
  0
SCALE
  5
4A
102
{ACAD_REACTORS
330
47
102
}
330
47
100
AcDbScale
 70
     0
300
1:4
140
1.0
141
4.0
290
     0
  0
SCALE
  5
4B
102
{ACAD_REACTORS
330
47
102
}
330
47
100
AcDbScale
 70
     0
300
1:5
140
1.0
141
5.0
290
     0
  0
SCALE
  5
4C
102
{ACAD_REACTORS
330
47
102
}
330
47
100
AcDbScale
 70
     0
300
1:8
140
1.0
141
8.0
290
     0
  0
SCALE
  5
4D
102
{ACAD_REACTORS
330
47
102
}
330
47
100
AcDbScale
 70
     0
300
1:10
140
1.0
141
10.0
290
     0
  0
SCALE
  5
4E
102
{ACAD_REACTORS
330
47
102
}
330
47
100
AcDbScale
 70
     0
300
1:16
140
1.0
141
16.0
290
     0
  0
SCALE
  5
4F
102
{ACAD_REACTORS
330
47
102
}
330
47
100
AcDbScale
 70
     0
300
1:20
140
1.0
141
20.0
290
     0
  0
SCALE
  5
50
102
{ACAD_REACTORS
330
47
102
}
330
47
100
AcDbScale
 70
     0
300
1:30
140
1.0
141
30.0
290
     0
  0
SCALE
  5
51
102
{ACAD_REACTORS
330
47
102
}
330
47
100
AcDbScale
 70
     0
300
1:40
140
1.0
141
40.0
290
     0
  0
SCALE
  5
52
102
{ACAD_REACTORS
330
47
102
}
330
47
100
AcDbScale
 70
     0
300
1:50
140
1.0
141
50.0
290
     0
  0
SCALE
  5
53
102
{ACAD_REACTORS
330
47
102
}
330
47
100
AcDbScale
 70
     0
300
1:100
140
1.0
141
100.0
290
     0
  0
SCALE
  5
54
102
{ACAD_REACTORS
330
47
102
}
330
47
100
AcDbScale
 70
     0
300
2:1
140
2.0
141
1.0
290
     0
  0
SCALE
  5
55
102
{ACAD_REACTORS
330
47
102
}
330
47
100
AcDbScale
 70
     0
300
4:1
140
4.0
141
1.0
290
     0
  0
SCALE
  5
56
102
{ACAD_REACTORS
330
47
102
}
330
47
100
AcDbScale
 70
     0
300
8:1
140
8.0
141
1.0
290
     0
  0
SCALE
  5
57
102
{ACAD_REACTORS
330
47
102
}
330
47
100
AcDbScale
 70
     0
300
10:1
140
10.0
141
1.0
290
     0
  0
SCALE
  5
58
102
{ACAD_REACTORS
330
47
102
}
330
47
100
AcDbScale
 70
     0
300
100:1
140
100.0
141
1.0
290
     0
  0
SCALE
  5
59
102
{ACAD_REACTORS
330
47
102
}
330
47
100
AcDbScale
 70
     0
300
1/128" = 1'-0"
140
0.0078125
141
12.0
290
     0
  0
SCALE
  5
5A
102
{ACAD_REACTORS
330
47
102
}
330
47
100
AcDbScale
 70
     0
300
1/64" = 1'-0"
140
0.015625
141
12.0
290
     0
  0
SCALE
  5
5B
102
{ACAD_REACTORS
330
47
102
}
330
47
100
AcDbScale
 70
     0
300
1/32" = 1'-0"
140
0.03125
141
12.0
290
     0
  0
SCALE
  5
5C
102
{ACAD_REACTORS
330
47
102
}
330
47
100
AcDbScale
 70
     0
300
1/16" = 1'-0"
140
0.0625
141
12.0
290
     0
  0
SCALE
  5
5D
102
{ACAD_REACTORS
330
47
102
}
330
47
100
AcDbScale
 70
     0
300
3/32" = 1'-0"
140
0.09375
141
12.0
290
     0
  0
SCALE
  5
5E
102
{ACAD_REACTORS
330
47
102
}
330
47
100
AcDbScale
 70
     0
300
1/8" = 1'-0"
140
0.125
141
12.0
290
     0
  0
SCALE
  5
5F
102
{ACAD_REACTORS
330
47
102
}
330
47
100
AcDbScale
 70
     0
300
3/16" = 1'-0"
140
0.1875
141
12.0
290
     0
  0
SCALE
  5
60
102
{ACAD_REACTORS
330
47
102
}
330
47
100
AcDbScale
 70
     0
300
1/4" = 1'-0"
140
0.25
141
12.0
290
     0
  0
SCALE
  5
61
102
{ACAD_REACTORS
330
47
102
}
330
47
100
AcDbScale
 70
     0
300
3/8" = 1'-0"
140
0.375
141
12.0
290
     0
  0
SCALE
  5
62
102
{ACAD_REACTORS
330
47
102
}
330
47
100
AcDbScale
 70
     0
300
1/2" = 1'-0"
140
0.5
141
12.0
290
     0
  0
SCALE
  5
63
102
{ACAD_REACTORS
330
47
102
}
330
47
100
AcDbScale
 70
     0
300
3/4" = 1'-0"
140
0.75
141
12.0
290
     0
  0
SCALE
  5
64
102
{ACAD_REACTORS
330
47
102
}
330
47
100
AcDbScale
 70
     0
300
1" = 1'-0"
140
1.0
141
12.0
290
     0
  0
SCALE
  5
65
102
{ACAD_REACTORS
330
47
102
}
330
47
100
AcDbScale
 70
     0
300
1-1/2" = 1'-0"
140
1.5
141
12.0
290
     0
  0
SCALE
  5
66
102
{ACAD_REACTORS
330
47
102
}
330
47
100
AcDbScale
 70
     0
300
3" = 1'-0"
140
3.0
141
12.0
290
     0
  0
SCALE
  5
67
102
{ACAD_REACTORS
330
47
102
}
330
47
100
AcDbScale
 70
     0
300
6" = 1'-0"
140
6.0
141
12.0
290
     0
  0
SCALE
  5
68
102
{ACAD_REACTORS
330
47
102
}
330
47
100
AcDbScale
 70
     0
300
1'-0" = 1'-0"
140
12.0
141
12.0
290
     0
  0
ENDSEC
  0
EOF
