  0
SECTION
  2
HEADER
  9
$ACADVER
  1
AC1015
  9
$ACADMAINTVER
 70
     6
  9
$DWGCODEPAGE
  3
ANSI_1252
  9
$INSBASE
 10
0.0
 20
0.0
 30
0.0
  9
$EXTMIN
 10
0.0
 20
0.0
 30
0.0
  9
$EXTMAX
 10
1189.0
 20
841.0
 30
0.0
  9
$LIMMIN
 10
0.0
 20
0.0
  9
$LIMMAX
 10
1189.0
 20
841.0
  9
$ORTHOMODE
 70
     0
  9
$REGENMODE
 70
     1
  9
$FILLMODE
 70
     1
  9
$QTEXTMODE
 70
     0
  9
$MIRRTEXT
 70
     1
  9
$LTSCALE
 40
1.0
  9
$ATTMODE
 70
     1
  9
$TEXTSIZE
 40
3.5
  9
$TRACEWID
 40
1.0
  9
$TEXTSTYLE
  7
Standard
  9
$CLAYER
  8
0
  9
$CELTYPE
  6
ByLayer
  9
$CECOLOR
 62
   256
  9
$CELTSCALE
 40
1.0
  9
$DISPSILH
 70
     0
  9
$DIMSCALE
 40
1.0
  9
$DIMASZ
 40
3.302
  9
$DIMEXO
 40
1.0
  9
$DIMDLI
 40
3.75
  9
$DIMRND
 40
0.0
  9
$DIMDLE
 40
0.0
  9
$DIMEXE
 40
1.0
  9
$DIMTP
 40
0.0
  9
$DIMTM
 40
0.0
  9
$DIMTXT
 40
3.5
  9
$DIMCEN
 40
2.5
  9
$DIMTSZ
 40
0.0
  9
$DIMTOL
 70
     0
  9
$DIMLIM
 70
     0
  9
$DIMTIH
 70
     1
  9
$DIMTOH
 70
     1
  9
$DIMSE1
 70
     0
  9
$DIMSE2
 70
     0
  9
$DIMTAD
 70
     1
  9
$DIMZIN
 70
     1
  9
$DIMBLK
  1

  9
$DIMASO
 70
     1
  9
$DIMSHO
 70
     1
  9
$DIMPOST
  1

  9
$DIMAPOST
  1

  9
$DIMALT
 70
     0
  9
$DIMALTD
 70
     3
  9
$DIMALTF
 40
0.0393700787
  9
$DIMLFAC
 40
2.0
  9
$DIMTOFL
 70
     1
  9
$DIMTVP
 40
0.0
  9
$DIMTIX
 70
     0
  9
$DIMSOXD
 70
     0
  9
$DIMSAH
 70
     0
  9
$DIMBLK1
  1

  9
$DIMBLK2
  1

  9
$DIMSTYLE
  2
ISO-25
  9
$DIMCLRD
 70
     0
  9
$DIMCLRE
 70
     0
  9
$DIMCLRT
 70
     0
  9
$DIMTFAC
 40
1.0
  9
$DIMGAP
 40
1.524
  9
$DIMJUST
 70
     0
  9
$DIMSD1
 70
     0
  9
$DIMSD2
 70
     0
  9
$DIMTOLJ
 70
     0
  9
$DIMTZIN
 70
     1
  9
$DIMALTZ
 70
     0
  9
$DIMALTTZ
 70
     0
  9
$DIMUPT
 70
     0
  9
$DIMDEC
 70
     2
  9
$DIMTDEC
 70
     2
  9
$DIMALTU
 70
     2
  9
$DIMALTTD
 70
     3
  9
$DIMTXSTY
  7
Standard
  9
$DIMAUNIT
 70
     0
  9
$DIMADEC
 70
     2
  9
$DIMALTRND
 40
0.0
  9
$DIMAZIN
 70
     0
  9
$DIMDSEP
 70
    44
  9
$DIMATFIT
 70
     3
  9
$DIMFRAC
 70
     0
  9
$DIMLDRBLK
  1

  9
$DIMLUNIT
 70
     2
  9
$DIMLWD
 70
    -2
  9
$DIMLWE
 70
    -2
  9
$DIMTMOVE
 70
     0
  9
$LUNITS
 70
     2
  9
$LUPREC
 70
     2
  9
$SKETCHINC
 40
1.0
  9
$FILLETRAD
 40
10.0
  9
$AUNITS
 70
     0
  9
$AUPREC
 70
     2
  9
$MENU
  1
.
  9
$ELEVATION
 40
0.0
  9
$PELEVATION
 40
0.0
  9
$THICKNESS
 40
0.0
  9
$LIMCHECK
 70
     0
  9
$CHAMFERA
 40
0.0
  9
$CHAMFERB
 40
0.0
  9
$CHAMFERC
 40
0.0
  9
$CHAMFERD
 40
0.0
  9
$SKPOLY
 70
     0
  9
$TDCREATE
 40
2460383.512469178
  9
$TDUCREATE
 40
2460383.283302512
  9
$TDUPDATE
 40
2460383.512469745
  9
$TDUUPDATE
 40
2460383.283303079
  9
$TDINDWG
 40
0.0000000116
  9
$TDUSRTIMER
 40
0.0000000116
  9
$USRTIMER
 70
     1
  9
$ANGBASE
 50
0.0
  9
$ANGDIR
 70
     0
  9
$PDMODE
 70
     0
  9
$PDSIZE
 40
-1.0
  9
$PLINEWID
 40
0.0
  9
$SPLFRAME
 70
     0
  9
$SPLINETYPE
 70
     6
  9
$SPLINESEGS
 70
     8
  9
$HANDSEED
  5
2C1
  9
$SURFTAB1
 70
     6
  9
$SURFTAB2
 70
     6
  9
$SURFTYPE
 70
     6
  9
$SURFU
 70
     6
  9
$SURFV
 70
     6
  9
$UCSBASE
  2

  9
$UCSNAME
  2

  9
$UCSORG
 10
0.0
 20
0.0
 30
0.0
  9
$UCSXDIR
 10
1.0
 20
0.0
 30
0.0
  9
$UCSYDIR
 10
0.0
 20
1.0
 30
0.0
  9
$UCSORTHOREF
  2

  9
$UCSORTHOVIEW
 70
     0
  9
$UCSORGTOP
 10
0.0
 20
0.0
 30
0.0
  9
$UCSORGBOTTOM
 10
0.0
 20
0.0
 30
0.0
  9
$UCSORGLEFT
 10
0.0
 20
0.0
 30
0.0
  9
$UCSORGRIGHT
 10
0.0
 20
0.0
 30
0.0
  9
$UCSORGFRONT
 10
0.0
 20
0.0
 30
0.0
  9
$UCSORGBACK
 10
0.0
 20
0.0
 30
0.0
  9
$PUCSBASE
  2

  9
$PUCSNAME
  2

  9
$PUCSORG
 10
0.0
 20
0.0
 30
0.0
  9
$PUCSXDIR
 10
1.0
 20
0.0
 30
0.0
  9
$PUCSYDIR
 10
0.0
 20
1.0
 30
0.0
  9
$PUCSORTHOREF
  2

  9
$PUCSORTHOVIEW
 70
     0
  9
$PUCSORGTOP
 10
0.0
 20
0.0
 30
0.0
  9
$PUCSORGBOTTOM
 10
0.0
 20
0.0
 30
0.0
  9
$PUCSORGLEFT
 10
0.0
 20
0.0
 30
0.0
  9
$PUCSORGRIGHT
 10
0.0
 20
0.0
 30
0.0
  9
$PUCSORGFRONT
 10
0.0
 20
0.0
 30
0.0
  9
$PUCSORGBACK
 10
0.0
 20
0.0
 30
0.0
  9
$USERI1
 70
     0
  9
$USERI2
 70
     0
  9
$USERI3
 70
     0
  9
$USERI4
 70
     0
  9
$USERI5
 70
     0
  9
$USERR1
 40
0.0
  9
$USERR2
 40
0.0
  9
$USERR3
 40
0.0
  9
$USERR4
 40
0.0
  9
$USERR5
 40
0.0
  9
$WORLDVIEW
 70
     1
  9
$SHADEDGE
 70
     3
  9
$SHADEDIF
 70
    70
  9
$TILEMODE
 70
     1
  9
$MAXACTVP
 70
    64
  9
$PINSBASE
 10
0.0
 20
0.0
 30
0.0
  9
$PLIMCHECK
 70
     0
  9
$PEXTMIN
 10
1.0000000000E+20
 20
1.0000000000E+20
 30
1.0000000000E+20
  9
$PEXTMAX
 10
-1.0000000000E+20
 20
-1.0000000000E+20
 30
-1.0000000000E+20
  9
$PLIMMIN
 10
0.0
 20
0.0
  9
$PLIMMAX
 10
420.0
 20
297.0
  9
$UNITMODE
 70
     0
  9
$VISRETAIN
 70
     1
  9
$PLINEGEN
 70
     0
  9
$PSLTSCALE
 70
     1
  9
$TREEDEPTH
 70
  3020
  9
$CMLSTYLE
  2
Standard
  9
$CMLJUST
 70
     0
  9
$CMLSCALE
 40
20.0
  9
$PROXYGRAPHICS
 70
     1
  9
$MEASUREMENT
 70
     1
  9
$CELWEIGHT
370
    -1
  9
$ENDCAPS
280
     0
  9
$JOINSTYLE
280
     0
  9
$LWDISPLAY
290
     1
  9
$INSUNITS
 70
     4
  9
$HYPERLINKBASE
  1

  9
$STYLESHEET
  1

  9
$XEDIT
290
     1
  9
$CEPSNTYPE
380
     0
  9
$PSTYLEMODE
290
     1
  9
$FINGERPRINTGUID
  2
{c6963640-8c9f-4377-a36e-8d6d6eee8031}
  9
$VERSIONGUID
  2
{FAEB1C32-E019-11D5-929B-00C0DF256EC4}
  9
$EXTNAMES
290
     1
  9
$PSVPSCALE
 40
0.0
  9
$OLESTARTUP
290
     0
  0
ENDSEC
  0
SECTION
  2
CLASSES
  0
CLASS
  1
ACDBDICTIONARYWDFLT
  2
AcDbDictionaryWithDefault
  3
ObjectDBX Classes
 90
        0
280
     0
281
     0
  0
CLASS
  1
VISUALSTYLE
  2
AcDbVisualStyle
  3
ObjectDBX Classes
 90
     4095
280
     0
281
     0
  0
CLASS
  1
MATERIAL
  2
AcDbMaterial
  3
ObjectDBX Classes
 90
     1153
280
     0
281
     0
  0
CLASS
  1
SCALE
  2
AcDbScale
  3
ObjectDBX Classes
 90
     1153
280
     0
281
     0
  0
CLASS
  1
TABLESTYLE
  2
AcDbTableStyle
  3
ObjectDBX Classes
 90
     4095
280
     0
281
     0
  0
CLASS
  1
MLEADERSTYLE
  2
AcDbMLeaderStyle
  3
ACDB_MLEADERSTYLE_CLASS
 90
     4095
280
     0
281
     0
  0
CLASS
  1
SUN
  2
AcDbSun
  3
SCENEOE
 90
     1153
280
     0
281
     0
  0
CLASS
  1
ACDBPLACEHOLDER
  2
AcDbPlaceHolder
  3
ObjectDBX Classes
 90
        0
280
     0
281
     0
  0
CLASS
  1
LAYOUT
  2
AcDbLayout
  3
ObjectDBX Classes
 90
        0
280
     0
281
     0
  0
ENDSEC
  0
SECTION
  2
TABLES
  0
TABLE
  2
VPORT
  5
8
330
0
100
AcDbSymbolTable
 70
     1
  0
VPORT
  5
29
330
8
100
AcDbSymbolTableRecord
100
AcDbViewportTableRecord
  2
*Active
 70
     0
 10
0.0
 20
0.0
 11
1.0
 21
1.0
 12
594.5
 22
420.5
 13
0.0
 23
0.0
 14
10.0
 24
10.0
 15
10.0
 25
10.0
 16
0.0
 26
0.0
 36
1.0
 17
0.0
 27
0.0
 37
0.0
 40
841.0
 41
1.4137931034
 42
50.0
 43
0.0
 44
0.0
 50
0.0
 51
0.0
 71
     0
 72
  2000
 73
     1
 74
     3
 75
     0
 76
     0
 77
     0
 78
     0
281
     0
 65
     1
110
0.0
120
0.0
130
0.0
111
1.0
121
0.0
131
0.0
112
0.0
122
1.0
132
0.0
 79
     0
146
0.0
  0
ENDTAB
  0
TABLE
  2
LTYPE
  5
5
330
0
100
AcDbSymbolTable
 70
     6
  0
LTYPE
  5
14
330
5
100
AcDbSymbolTableRecord
100
AcDbLinetypeTableRecord
  2
ByBlock
 70
     0
  3

 72
    65
 73
     0
 40
0.0
  0
LTYPE
  5
15
330
5
100
AcDbSymbolTableRecord
100
AcDbLinetypeTableRecord
  2
ByLayer
 70
     0
  3

 72
    65
 73
     0
 40
0.0
  0
LTYPE
  5
16
330
5
100
AcDbSymbolTableRecord
100
AcDbLinetypeTableRecord
  2
Continuous
 70
     0
  3
Solid line
 72
    65
 73
     0
 40
0.0
  0
LTYPE
  5
6E
330
5
100
AcDbSymbolTableRecord
100
AcDbLinetypeTableRecord
  2
HIDDEN
 70
     0
  3
Hidden __ __ __ __ __ __ __ __ __ __ __ __ __ __
 72
    65
 73
     2
 40
1.905
 49
1.27
 74
     0
 49
-0.635
 74
     0
  0
LTYPE
  5
6F
330
5
100
AcDbSymbolTableRecord
100
AcDbLinetypeTableRecord
  2
PHANTOM
 70
     0
  3
Phantom ______  __  __  ______  __  __  ______
 72
    65
 73
     6
 40
12.7
 49
6.35
 74
     0
 49
-1.27
 74
     0
 49
1.27
 74
     0
 49
-1.27
 74
     0
 49
1.27
 74
     0
 49
-1.27
 74
     0
  0
LTYPE
  5
70
330
5
100
AcDbSymbolTableRecord
100
AcDbLinetypeTableRecord
  2
CENTER
 70
     0
  3
Center ____ _ ____ _ ____ _ ____ _ ____ _ ____
 72
    65
 73
     4
 40
10.16
 49
6.35
 74
     0
 49
-1.27
 74
     0
 49
1.27
 74
     0
 49
-1.27
 74
     0
  0
LTYPE
  5
71
330
5
100
AcDbSymbolTableRecord
100
AcDbLinetypeTableRecord
  2
CENTERX2
 70
     0
  3
Center (2x) ________  __  ________  __  _____
 72
    65
 73
     4
 40
20.32
 49
12.7
 74
     0
 49
-2.54
 74
     0
 49
2.54
 74
     0
 49
-2.54
 74
     0
  0
LTYPE
  5
72
330
5
100
AcDbSymbolTableRecord
100
AcDbLinetypeTableRecord
  2
DOT2
 70
     0
  3
Dot (.5x) ........................................
 72
    65
 73
     2
 40
0.635
 49
0.0
 74
     0
 49
-0.635
 74
     0
  0
ENDTAB
  0
TABLE
  2
LAYER
  5
2
330
0
100
AcDbSymbolTable
 70
     1
  0
LAYER
  5
10
330
2
100
AcDbSymbolTableRecord
100
AcDbLayerTableRecord
  2
0
 70
     0
 62
     7
  6
Continuous
370
    -3
390
F
  0
ENDTAB
  0
TABLE
  2
STYLE
  5
3
330
0
100
AcDbSymbolTable
 70
     1
  0
STYLE
  5
11
330
3
100
AcDbSymbolTableRecord
100
AcDbTextStyleTableRecord
  2
Standard
 70
     0
 40
0.0
 41
1.0
 50
0.0
 71
     0
 42
3.5
  3
txt
  4

  0
ENDTAB
  0
TABLE
  2
VIEW
  5
6
330
0
100
AcDbSymbolTable
 70
     0
  0
ENDTAB
  0
TABLE
  2
UCS
  5
7
330
0
100
AcDbSymbolTable
 70
     0
  0
ENDTAB
  0
TABLE
  2
APPID
  5
9
330
0
100
AcDbSymbolTable
 70
     1
  0
APPID
  5
12
330
9
100
AcDbSymbolTableRecord
100
AcDbRegAppTableRecord
  2
ACAD
 70
     0
  0
ENDTAB
  0
TABLE
  2
DIMSTYLE
  5
A
330
0
100
AcDbSymbolTable
 70
     1
100
AcDbDimStyleTable
  0
DIMSTYLE
105
27
330
A
100
AcDbSymbolTableRecord
100
AcDbDimStyleTableRecord
  2
ISO-25
 70
     0
 41
2.5
 42
0.625
 43
3.75
 44
1.25
 73
     0
 74
     0
 77
     1
 78
     8
140
2.5
141
2.5
143
0.0393700787
147
0.625
171
     3
172
     1
178
     0
271
     2
272
     2
274
     3
278
    44
283
     0
284
     8
340
11
  0
ENDTAB
  0
TABLE
  2
BLOCK_RECORD
  5
1
330
0
100
AcDbSymbolTable
 70
     1
  0
BLOCK_RECORD
  5
1F
330
1
100
AcDbSymbolTableRecord
100
AcDbBlockTableRecord
  2
*Model_Space
340
22
  0
BLOCK_RECORD
  5
1B
330
1
100
AcDbSymbolTableRecord
100
AcDbBlockTableRecord
  2
*Paper_Space
340
1E
  0
BLOCK_RECORD
  5
23
330
1
100
AcDbSymbolTableRecord
100
AcDbBlockTableRecord
  2
*Paper_Space0
340
26
  0
ENDTAB
  0
ENDSEC
  0
SECTION
  2
BLOCKS
  0
BLOCK
  5
20
330
1F
100
AcDbEntity
  8
0
100
AcDbBlockBegin
  2
*Model_Space
 70
     0
 10
0.0
 20
0.0
 30
0.0
  3
*Model_Space
  1

  0
ENDBLK
  5
21
330
1F
100
AcDbEntity
  8
0
100
AcDbBlockEnd
  0
BLOCK
  5
1C
330
1B
100
AcDbEntity
 67
     1
  8
0
100
AcDbBlockBegin
  2
*Paper_Space
 70
     0
 10
0.0
 20
0.0
 30
0.0
  3
*Paper_Space
  1

  0
ENDBLK
  5
1D
330
1B
100
AcDbEntity
 67
     1
  8
0
100
AcDbBlockEnd
  0
BLOCK
  5
24
330
23
100
AcDbEntity
  8
0
100
AcDbBlockBegin
  2
*Paper_Space0
 70
     0
 10
0.0
 20
0.0
 30
0.0
  3
*Paper_Space0
  1

  0
ENDBLK
  5
25
330
23
100
AcDbEntity
  8
0
100
AcDbBlockEnd
  0
ENDSEC
  0
SECTION
  2
ENTITIES
  0
LINE
  5
73
330
1F
100
AcDbEntity
  8
0
  6
Continuous
 62
     7
370
    25
100
AcDbLine
 10
577.2397523247
 20
389.3487178086
 30
0.0
 11
577.1122436109
 21
342.0218776647
 31
0.0
  0
LINE
  5
74
330
1F
100
AcDbEntity
  8
0
  6
Continuous
 62
     7
370
    25
100
AcDbLine
 10
592.9121862667
 20
341.9793092118
 30
0.0
 11
593.0396949805
 21
389.3061493557
 31
0.0
  0
LINE
  5
75
330
1F
100
AcDbEntity
  8
0
  6
Continuous
 62
     7
370
    25
100
AcDbLine
 10
593.0396949805
 20
389.3061493557
 30
0.0
 11
593.6728333628
 21
624.3052964516
 31
0.0
  0
LINE
  5
76
330
1F
100
AcDbEntity
  8
0
  6
Continuous
 62
     7
370
    25
100
AcDbLine
 10
577.872890707
 20
624.3478649045
 30
0.0
 11
577.2397523247
 21
389.3487178086
 31
0.0
  0
LINE
  5
77
330
1F
100
AcDbEntity
  8
0
  6
Continuous
 62
     7
370
    25
100
AcDbLine
 10
577.9339764048
 20
647.020770704
 30
0.0
 11
577.872890707
 21
624.3478649045
 31
0.0
  0
LINE
  5
78
330
1F
100
AcDbEntity
  8
0
  6
Continuous
 62
     7
370
    25
100
AcDbLine
 10
593.6728333628
 20
624.3052964516
 30
0.0
 11
593.7339190606
 21
646.9782022511
 31
0.0
  0
SPLINE
  5
79
330
1F
100
AcDbEntity
  8
0
  6
Continuous
 62
     7
370
    25
100
AcDbSpline
210
0.0
220
0.0
230
1.0
 70
     8
 71
     3
 72
    17
 73
    13
 74
     0
 42
0.00000001
 43
0.00000001
 40
0.0
 40
0.0
 40
0.0
 40
0.0
 40
0.1727939157605208
 40
0.4670908646424541
 40
0.583603646444553
 40
0.6237329378319785
 40
0.661715815204725
 40
0.7176264960718008
 40
0.7837734229449161
 40
0.8640117675634541
 40
0.9541263261861264
 40
1.0
 40
1.0
 40
1.0
 40
1.0
 10
743.9344683486511
 20
645.7486093339346
 30
0.0
 10
744.0179888413631
 20
645.7576327335676
 30
0.0
 10
744.2437587070702
 20
645.7820244924907
 30
0.0
 10
744.4216341084259
 20
645.8052889386679
 30
0.0
 10
744.5031867658869
 20
645.8181833923909
 30
0.0
 10
744.5645205221078
 20
645.8329581989544
 30
0.0
 10
744.6323519898414
 20
645.8560638222708
 30
0.0
 10
744.7237319628207
 20
645.905519384532
 30
0.0
 10
744.8227698015212
 20
645.9952976247309
 30
0.0
 10
744.9026205521558
 20
646.1299303645858
 30
0.0
 10
744.9406226898619
 20
646.2731971047542
 30
0.0
 10
744.9223448623909
 20
646.361328026769
 30
0.0
 10
744.9161791002481
 20
646.3910577254128
 30
0.0
  0
SPLINE
  5
7A
330
1F
100
AcDbEntity
  8
0
  6
Continuous
 62
     7
370
    25
100
AcDbSpline
210
0.0
220
0.0
230
1.0
 70
     8
 71
     3
 72
    10
 73
     6
 74
     0
 42
0.00000001
 43
0.00000001
 40
0.0
 40
0.0
 40
0.0
 40
0.0
 40
0.270519767274761
 40
0.6900585277323568
 40
0.9999999999999999
 40
0.9999999999999999
 40
0.9999999999999999
 40
0.9999999999999999
 10
744.7158124055751
 20
651.8904313716378
 30
0.0
 10
744.7134908845079
 20
651.9228745572864
 30
0.0
 10
744.707569005209
 20
652.0056326386982
 30
0.0
 10
744.6471530040681
 20
652.1143615624866
 30
0.0
 10
744.5855261163118
 20
652.175308446072
 30
0.0
 10
744.5593420917617
 20
652.2012035505329
 30
0.0
  0
LINE
  5
7B
330
1F
100
AcDbEntity
  8
0
  6
Continuous
 62
     7
370
    25
100
AcDbLine
 10
740.462271408
 20
645.379805114
 30
0.0
 11
743.9344683487
 21
645.7486093339
 31
0.0
  0
LINE
  5
7C
330
1F
100
AcDbEntity
  8
0
  6
Continuous
 62
     7
370
    25
100
AcDbLine
 10
743.6937297015
 20
652.3577003898
 30
0.0
 11
740.203902365
 21
652.4729102361
 31
0.0
  0
ARC
  5
7D
330
1F
100
AcDbEntity
  8
0
  6
Continuous
 62
     7
370
    25
100
AcDbCircle
 10
695.6457693704
 20
644.3247398045
 30
0.0
 40
8.99999513892297
100
AcDbArc
 50
259.2280172662
 51
272.0860981981
  0
ARC
  5
7E
330
1F
100
AcDbEntity
  8
0
  6
Continuous
 62
     7
370
    25
100
AcDbCircle
 10
695.6457693704
 20
644.3247398045
 30
0.0
 40
8.999995138923028
100
AcDbArc
 50
272.0860981981
 51
307.2580276151
  0
SPLINE
  5
7F
330
1F
100
AcDbEntity
  8
0
  6
Continuous
 62
     7
370
    25
100
AcDbSpline
210
0.0
220
0.0
230
1.0
 70
     8
 71
     3
 72
    10
 73
     6
 74
     0
 42
0.00000001
 43
0.00000001
 40
0.0
 40
0.0
 40
0.0
 40
0.0
 40
0.2705197672747702
 40
0.6900585277322991
 40
1.0
 40
1.0
 40
1.0
 40
1.0
 10
426.7919356447257
 20
644.6439377864913
 30
0.0
 10
426.7928216112534
 20
644.611423715408
 30
0.0
 10
426.7950815893832
 20
644.528484815052
 30
0.0
 10
426.8506351342655
 20
644.4171929657858
 30
0.0
 10
426.9095093174732
 20
644.3535830100799
 30
0.0
 10
426.9345237732505
 20
644.3265564198613
 30
0.0
  0
SPLINE
  5
80
330
1F
100
AcDbEntity
  8
0
  6
Continuous
 62
     7
370
    25
100
AcDbSpline
210
0.0
220
0.0
230
1.0
 70
     8
 71
     3
 72
    17
 73
    13
 74
     0
 42
0.00000001
 43
0.00000001
 40
0.0
 40
0.0
 40
0.0
 40
0.0
 40
0.1727939157605037
 40
0.4670908646424543
 40
0.5836036464445583
 40
0.6237329378319656
 40
0.6617158152046946
 40
0.7176264960717844
 40
0.7837734229449107
 40
0.8640117675634487
 40
0.9541263261861196
 40
1.0
 40
1.0
 40
1.0
 40
1.0
 10
427.8438526959374
 20
650.7452447772495
 30
0.0
 10
427.7600151084582
 20
650.7399199890393
 30
0.0
 10
427.5333880825423
 20
650.725526195611
 30
0.0
 10
427.3546585624704
 20
650.7101427136172
 30
0.0
 10
427.2726158719973
 20
650.7008637149823
 30
0.0
 10
427.2106892712265
 20
650.6888129607254
 30
0.0
 10
427.1419032608011
 20
650.6687265819218
 30
0.0
 10
427.0484276384564
 20
650.623356325943
 30
0.0
 10
426.9455202358058
 20
650.5380410729842
 30
0.0
 10
426.8597995881605
 20
650.4070674589049
 30
0.0
 10
426.8155052585898
 20
650.2656194696063
 30
0.0
 10
426.8298717577745
 20
650.1767671083917
 30
0.0
 10
426.8347180895904
 20
650.1467940426129
 30
0.0
  0
LINE
  5
81
330
1F
100
AcDbEntity
  8
0
  6
Continuous
 62
     7
370
    25
100
AcDbLine
 10
431.3289527641
 20
650.9602928226
 30
0.0
 11
427.8438526959
 21
650.7452447772
 31
0.0
  0
LINE
  5
82
330
1F
100
AcDbEntity
  8
0
  6
Continuous
 62
     7
370
    25
100
AcDbLine
 10
427.7923772503
 20
644.1319710071
 30
0.0
 11
431.2737075354
 21
643.8626986668
 31
0.0
  0
ARC
  5
83
330
1F
100
AcDbEntity
  8
0
  6
Continuous
 62
     7
370
    25
100
AcDbCircle
 10
476.1483096624
 20
650.0344068009
 30
0.0
 40
8.999995138923008
100
AcDbArc
 50
76.6959574571
 51
89.554038389
  0
ARC
  5
84
330
1F
100
AcDbEntity
  8
0
  6
Continuous
 62
     7
370
    25
100
AcDbCircle
 10
476.1483096624
 20
650.0344068009
 30
0.0
 40
8.999995138923024
100
AcDbArc
 50
89.554038389
 51
124.7259678059
  0
ARC
  5
85
330
1F
100
AcDbEntity
  8
0
  6
Continuous
 62
     7
370
    25
100
AcDbCircle
 10
585.0122149388
 20
342.0005934382
 30
0.0
 40
11.55000000000007
100
AcDbArc
 50
133.0012866278
 51
247.3701773467
  0
ARC
  5
86
330
1F
100
AcDbEntity
  8
0
  6
Continuous
 62
     7
370
    25
100
AcDbCircle
 10
585.0122149388
 20
342.0005934382
 30
0.0
 40
11.55000000000007
100
AcDbArc
 50
247.3701773467
 51
46.6899797463
  0
ARC
  5
87
330
1F
100
AcDbEntity
  8
0
  6
Continuous
 62
     7
370
    25
100
AcDbCircle
 10
585.8339477327
 20
646.9994864776
 30
0.0
 40
9.600000000000035
100
AcDbArc
 50
325.2234713474
 51
214.4677950268
  0
ARC
  5
88
330
1F
100
AcDbEntity
  8
0
  6
Continuous
 62
     7
370
    25
100
AcDbCircle
 10
585.8339477327
 20
646.9994864776
 30
0.0
 40
10.49999999999998
100
AcDbArc
 50
318.6426795833
 51
221.0485867909
  0
ARC
  5
89
330
1F
100
AcDbEntity
  8
0
  6
Continuous
 62
     7
370
    25
100
AcDbCircle
 10
585.8339477327
 20
646.9994864776
 30
0.0
 40
14.22499999999996
100
AcDbArc
 50
303.5811668268
 51
223.0691854905
  0
LWPOLYLINE
  5
8A
330
1F
100
AcDbEntity
  8
0
  6
Continuous
 62
     7
370
    25
100
AcDbPolyline
 90
        3
 70
   128
 43
0.0
 10
577.9021048915
 20
635.1911633899
 10
577.0897052059
 20
635.7794665296
 10
575.4421635234
 20
637.2855044956
  0
LINE
  5
8B
330
1F
100
AcDbEntity
  8
0
  6
Continuous
 62
     7
370
    25
100
AcDbLine
 10
593.7413977164
 20
659.1148822382
 30
0.0
 11
593.6088177739
 21
658.9117499419
 31
0.0
  0
SPLINE
  5
8C
330
1F
100
AcDbEntity
  8
0
  6
Continuous
 62
     7
370
    25
100
AcDbSpline
210
0.0
220
0.0
230
1.0
 70
     8
 71
     3
 72
    11
 73
     7
 74
     0
 42
0.00000001
 43
0.00000001
 40
0.0
 40
0.0
 40
0.0
 40
0.0
 40
0.1446702591042565
 40
0.390752020932369
 40
0.5962314811354884
 40
1.0
 40
1.0
 40
1.0
 40
1.0
 10
598.4543807918186
 20
654.0730463368299
 30
0.0
 10
598.255984312555
 20
654.3410797905817
 30
0.0
 10
597.7201186432868
 20
655.065033797297
 30
0.0
 10
596.833372279422
 20
656.1172208054169
 30
0.0
 10
595.4944674286542
 20
657.5674792051674
 30
0.0
 10
594.4401369399203
 20
658.4981177215371
 30
0.0
 10
593.7413977163922
 20
659.1148822382253
 30
0.0
  0
LINE
  5
8D
330
1F
100
AcDbEntity
  8
0
  6
Continuous
 62
     7
370
    25
100
AcDbLine
 10
598.2427808079
 20
653.9544477796
 30
0.0
 11
598.4543807918
 21
654.0730463368
 31
0.0
  0
LINE
  5
8E
330
1F
100
AcDbEntity
  8
0
  6
Continuous
 62
     7
370
    25
100
AcDbLine
 10
579.2954322189
 20
659.9052369229
 30
0.0
 11
579.4050599766
 21
659.6888531765
 31
0.0
  0
SPLINE
  5
8F
330
1F
100
AcDbEntity
  8
0
  6
Continuous
 62
     7
370
    25
100
AcDbSpline
210
0.0
220
0.0
230
1.0
 70
     8
 71
     3
 72
    11
 73
     7
 74
     0
 42
0.00000001
 43
0.00000001
 40
0.0
 40
0.0
 40
0.0
 40
0.0
 40
0.1446702591042547
 40
0.3907520209323665
 40
0.5962314811354603
 40
1.0
 40
1.0
 40
1.0
 40
1.0
 10
586.0182817289638
 20
661.4658820431282
 30
0.0
 10
585.6869597093186
 20
661.4280823789404
 30
0.0
 10
584.7920643136977
 20
661.3259860996957
 30
0.0
 10
583.4374704532015
 20
661.0841347259354
 30
0.0
 10
581.512057411582
 20
660.6497383117955
 30
0.0
 10
580.1789355702986
 20
660.2019805827524
 30
0.0
 10
579.2954322189297
 20
659.9052369229004
 30
0.0
  0
LINE
  5
90
330
1F
100
AcDbEntity
  8
0
  6
Continuous
 62
     7
370
    25
100
AcDbLine
 10
586.018281729
 20
661.4658820431
 30
0.0
 11
586.0151911004
 21
661.223331803
 31
0.0
  0
LINE
  5
91
330
1F
100
AcDbEntity
  8
0
  6
Continuous
 62
     7
370
    25
100
AcDbLine
 10
571.3879822353
 20
647.7898411622
 30
0.0
 11
571.6301899355
 21
647.7765897122
 31
0.0
  0
SPLINE
  5
92
330
1F
100
AcDbEntity
  8
0
  6
Continuous
 62
     7
370
    25
100
AcDbSpline
210
0.0
220
0.0
230
1.0
 70
     8
 71
     3
 72
    11
 73
     7
 74
     0
 42
0.00000001
 43
0.00000001
 40
0.0
 40
0.0
 40
0.0
 40
0.0
 40
0.1446702591042547
 40
0.3907520209323617
 40
0.596231481135467
 40
1.0
 40
1.0
 40
1.0
 40
1.0
 10
573.3978486698772
 20
654.3923221838652
 30
0.0
 10
573.2649231294957
 20
654.0864890659254
 30
0.0
 10
572.9058934031431
 20
653.2604387799657
 30
0.0
 10
572.4380459065117
 20
651.9664003980854
 30
0.0
 10
571.8515377156599
 20
650.081745584195
 30
0.0
 10
571.5727463631104
 20
648.7033493387821
 30
0.0
 10
571.3879822352696
 20
647.789841162242
 30
0.0
  0
LINE
  5
93
330
1F
100
AcDbEntity
  8
0
  6
Continuous
 62
     7
370
    25
100
AcDbLine
 10
573.3978486699
 20
654.3923221839
 30
0.0
 11
573.6063580253
 21
654.268370501
 31
0.0
  0
SPLINE
  5
94
330
1F
100
AcDbEntity
  8
0
  6
Continuous
 62
     7
370
    25
100
AcDbSpline
210
0.0
220
0.0
230
1.0
 70
     8
 71
     3
 72
    11
 73
     7
 74
     0
 42
0.00000001
 43
0.00000001
 40
0.0
 40
0.0
 40
0.0
 40
0.0
 40
0.1446702591042553
 40
0.3907520209323658
 40
0.5962314811354791
 40
1.0
 40
1.0
 40
1.0
 40
1.0
 10
573.2135146736457
 20
639.9259266183038
 30
0.0
 10
573.4119111529093
 20
639.6578931645519
 30
0.0
 10
573.9477768221775
 20
638.9339391578367
 30
0.0
 10
574.8345231860424
 20
637.8817521497167
 30
0.0
 10
576.17342803681
 20
636.4314937499662
 30
0.0
 10
577.227758525544
 20
635.5008552335966
 30
0.0
 10
577.9264977490723
 20
634.8840907169084
 30
0.0
  0
LINE
  5
95
330
1F
100
AcDbEntity
  8
0
  6
Continuous
 62
     7
370
    25
100
AcDbLine
 10
573.2135146736
 20
639.9259266183
 30
0.0
 11
573.4251146576
 21
640.0445251755
 31
0.0
  0
LINE
  5
96
330
1F
100
AcDbEntity
  8
0
  6
Continuous
 62
     7
370
    25
100
AcDbLine
 10
600.03770553
 20
646.222383243
 30
0.0
 11
600.2799132302
 21
646.2091317929
 31
0.0
  0
SPLINE
  5
97
330
1F
100
AcDbEntity
  8
0
  6
Continuous
 62
     7
370
    25
100
AcDbSpline
210
0.0
220
0.0
230
1.0
 70
     8
 71
     3
 72
    11
 73
     7
 74
     0
 42
0.00000001
 43
0.00000001
 40
0.0
 40
0.0
 40
0.0
 40
0.0
 40
0.1446702591042536
 40
0.3907520209323581
 40
0.5962314811354745
 40
1.0
 40
1.0
 40
1.0
 40
1.0
 10
598.2700467955871
 20
639.6066507712685
 30
0.0
 10
598.4029723359685
 20
639.912483889208
 30
0.0
 10
598.7620020623212
 20
640.7385341751681
 30
0.0
 10
599.2298495589525
 20
642.0325725570484
 30
0.0
 10
599.8163577498044
 20
643.9172273709386
 30
0.0
 10
600.0951491023538
 20
645.2956236163516
 30
0.0
 10
600.2799132301946
 20
646.2091317928918
 30
0.0
  0
LINE
  5
98
330
1F
100
AcDbEntity
  8
0
  6
Continuous
 62
     7
370
    25
100
AcDbLine
 10
598.0615374402
 20
639.7306024542
 30
0.0
 11
598.2700467956
 21
639.6066507713
 31
0.0
  0
SPLINE
  5
99
330
1F
100
AcDbEntity
  8
0
  6
Continuous
 62
     7
370
    25
100
AcDbSpline
210
0.0
220
0.0
230
1.0
 70
     8
 71
     3
 72
     9
 73
     5
 74
     0
 42
0.00000001
 43
0.00000001
 40
0.0
 40
0.0
 40
0.0
 40
0.0
 40
0.5862283062032637
 40
1.0
 40
1.0
 40
1.0
 40
1.0
 10
571.3879822352696
 20
647.789841162242
 30
0.0
 10
571.3328452174674
 20
647.4616626666196
 30
0.0
 10
571.2387913868713
 20
646.9018492080239
 30
0.0
 10
571.166217482097
 20
646.3376658288952
 30
0.0
 10
571.136188454593
 20
646.1042227165011
 30
0.0
  0
SPLINE
  5
9A
330
1F
100
AcDbEntity
  8
0
  6
Continuous
 62
     7
370
    25
100
AcDbSpline
210
0.0
220
0.0
230
1.0
 70
     8
 71
     3
 72
     9
 73
     5
 74
     0
 42
0.00000001
 43
0.00000001
 40
0.0
 40
0.0
 40
0.0
 40
0.0
 40
0.586384789828368
 40
1.0
 40
1.0
 40
1.0
 40
1.0
 10
572.2448879917092
 20
641.3282361432126
 30
0.0
 10
572.4294128865868
 20
641.0503639275944
 30
0.0
 10
572.7440951533822
 20
640.5764904226221
 30
0.0
 10
573.0761653779283
 20
640.116277629468
 30
0.0
 10
573.2135146736457
 20
639.9259266183038
 30
0.0
  0
ARC
  5
9B
330
1F
100
AcDbEntity
  8
0
  6
Continuous
 62
     7
370
    25
100
AcDbCircle
 10
585.8339477327
 20
646.9994864776
 30
0.0
 40
14.72500000000002
100
AcDbArc
 50
183.4856699278
 51
202.6527010532
  0
SPLINE
  5
9C
330
1F
100
AcDbEntity
  8
0
  6
Continuous
 62
     7
370
    25
100
AcDbSpline
210
0.0
220
0.0
230
1.0
 70
     8
 71
     3
 72
     9
 73
     5
 74
     0
 42
0.00000001
 43
0.00000001
 40
0.0
 40
0.0
 40
0.0
 40
0.0
 40
0.5862283062032855
 40
0.9999999999999999
 40
0.9999999999999999
 40
0.9999999999999999
 40
0.9999999999999999
 10
600.2799132301946
 20
646.2091317928918
 30
0.0
 10
600.3350502479968
 20
646.5373102885142
 30
0.0
 10
600.4291040785929
 20
647.0971237471098
 30
0.0
 10
600.5016779833672
 20
647.6613071262385
 30
0.0
 10
600.5317070108712
 20
647.8947502386325
 30
0.0
  0
SPLINE
  5
9D
330
1F
100
AcDbEntity
  8
0
  6
Continuous
 62
     7
370
    25
100
AcDbSpline
210
0.0
220
0.0
230
1.0
 70
     8
 71
     3
 72
     9
 73
     5
 74
     0
 42
0.00000001
 43
0.00000001
 40
0.0
 40
0.0
 40
0.0
 40
0.0
 40
0.5863847898283575
 40
1.0
 40
1.0
 40
1.0
 40
1.0
 10
599.423007473755
 20
652.6707368119208
 30
0.0
 10
599.2384825788774
 20
652.9486090275394
 30
0.0
 10
598.923800312082
 20
653.4224825325116
 30
0.0
 10
598.591730087536
 20
653.8826953256656
 30
0.0
 10
598.4543807918186
 20
654.0730463368299
 30
0.0
  0
ARC
  5
9E
330
1F
100
AcDbEntity
  8
0
  6
Continuous
 62
     7
370
    25
100
AcDbCircle
 10
585.8339477327
 20
646.9994864776
 30
0.0
 40
14.72500000000003
100
AcDbArc
 50
3.4856699278
 51
22.6527010532
  0
SPLINE
  5
9F
330
1F
100
AcDbEntity
  8
0
  6
Continuous
 62
     7
370
    25
100
AcDbSpline
210
0.0
220
0.0
230
1.0
 70
     8
 71
     3
 72
     9
 73
     5
 74
     0
 42
0.00000001
 43
0.00000001
 40
0.0
 40
0.0
 40
0.0
 40
0.0
 40
0.5862283062032723
 40
1.0
 40
1.0
 40
1.0
 40
1.0
 10
593.7413977163922
 20
659.1148822382253
 30
0.0
 10
593.4847553111085
 20
659.3267215441421
 30
0.0
 10
593.0469695498822
 20
659.6880812800594
 30
0.0
 10
592.594659363551
 20
660.0330238148102
 30
0.0
 10
592.4075062116311
 20
660.1757512716765
 30
0.0
  0
SPLINE
  5
A0
330
1F
100
AcDbEntity
  8
0
  6
Continuous
 62
     7
370
    25
100
AcDbSpline
210
0.0
220
0.0
230
1.0
 70
     8
 71
     3
 72
     9
 73
     5
 74
     0
 42
0.00000001
 43
0.00000001
 40
0.0
 40
0.0
 40
0.0
 40
0.0
 40
0.5863847898283665
 40
1.0
 40
1.0
 40
1.0
 40
1.0
 10
587.7170307424719
 20
661.603582594014
 30
0.0
 10
587.3841238973017
 20
661.5827154552287
 30
0.0
 10
586.8163962704177
 20
661.5471293705494
 30
0.0
 10
586.2518051881266
 20
661.4896545168293
 30
0.0
 10
586.0182817289638
 20
661.4658820431282
 30
0.0
  0
ARC
  5
A1
330
1F
100
AcDbEntity
  8
0
  6
Continuous
 62
     7
370
    25
100
AcDbCircle
 10
585.8339477327
 20
646.9994864776
 30
0.0
 40
14.72500000000008
100
AcDbArc
 50
63.4856699278
 51
82.6527010532
  0
SPLINE
  5
A2
330
1F
100
AcDbEntity
  8
0
  6
Continuous
 62
     7
370
    25
100
AcDbSpline
210
0.0
220
0.0
230
1.0
 70
     8
 71
     3
 72
     9
 73
     5
 74
     0
 42
0.00000001
 43
0.00000001
 40
0.0
 40
0.0
 40
0.0
 40
0.0
 40
0.5862283062032677
 40
0.9999999999999999
 40
0.9999999999999999
 40
0.9999999999999999
 40
0.9999999999999999
 10
579.2954322189297
 20
659.9052369229004
 30
0.0
 10
578.9836527958438
 20
659.788897733195
 30
0.0
 10
578.4518132040214
 20
659.5904440105165
 30
0.0
 10
577.9269291129158
 20
659.3712031661386
 30
0.0
 10
577.709746933492
 20
659.2804875106109
 30
0.0
  0
SPLINE
  5
A3
330
1F
100
AcDbEntity
  8
0
  6
Continuous
 62
     7
370
    25
100
AcDbSpline
210
0.0
220
0.0
230
1.0
 70
     8
 71
     3
 72
     9
 73
     5
 74
     0
 42
0.00000001
 43
0.00000001
 40
0.0
 40
0.0
 40
0.0
 40
0.0
 40
0.5863847898283603
 40
0.9999999999999999
 40
0.9999999999999999
 40
0.9999999999999999
 40
0.9999999999999999
 10
574.127971001449
 20
655.9323322596599
 30
0.0
 10
573.9795890511564
 20
655.6335929052561
 30
0.0
 10
573.7265436910678
 20
655.1241333156048
 30
0.0
 10
573.4940228333228
 20
654.6064456687304
 30
0.0
 10
573.3978486698772
 20
654.3923221838652
 30
0.0
  0
ARC
  5
A4
330
1F
100
AcDbEntity
  8
0
  6
Continuous
 62
     7
370
    25
100
AcDbCircle
 10
585.8339477327
 20
646.9994864776
 30
0.0
 40
14.72500000000015
100
AcDbArc
 50
123.4856699278
 51
142.6527010532
  0
SPLINE
  5
A5
330
1F
100
AcDbEntity
  8
0
  6
Continuous
 62
     7
370
    25
100
AcDbSpline
210
0.0
220
0.0
230
1.0
 70
     8
 71
     3
 72
     9
 73
     5
 74
     0
 42
0.00000001
 43
0.00000001
 40
0.0
 40
0.0
 40
0.0
 40
0.0
 40
0.5863847898283496
 40
1.0
 40
1.0
 40
1.0
 40
1.0
 10
597.5399244640151
 20
638.0666406954737
 30
0.0
 10
597.6883064143078
 20
638.3653800498776
 30
0.0
 10
597.9413517743965
 20
638.874839639529
 30
0.0
 10
598.1738726321415
 20
639.3925272864033
 30
0.0
 10
598.2700467955871
 20
639.6066507712685
 30
0.0
  0
ARC
  5
A6
330
1F
100
AcDbEntity
  8
0
  6
Continuous
 62
     7
370
    25
100
AcDbCircle
 10
585.8339477327
 20
646.9994864776
 30
0.0
 40
14.72499999999996
100
AcDbArc
 50
303.4856699278
 51
322.6527010532
  0
SPLINE
  5
A7
330
1F
100
AcDbEntity
  8
0
  6
Continuous
 62
     7
370
    25
100
AcDbSpline
210
0.0
220
0.0
230
1.0
 70
    24
 71
     3
 72
    12
 73
     8
 74
     0
 42
0.00000001
 43
0.00000001
 40
0.0
 40
0.0
 40
0.0
 40
0.0
 40
0.3013828945621012
 40
0.4108442493795597
 40
0.6247185195336529
 40
0.6986171054378609
 40
1.0
 40
1.0
 40
1.0
 40
1.0
 10
600.5011961316688
 20
646.0775866735627
 30
0.0
 10
600.3034206140065
 20
645.4278872311402
 30
0.0
 10
600.0338136271279
 20
644.5422189183046
 30
0.0
 10
599.6218874256971
 20
643.1890270442453
 30
0.0
 10
599.3594680063661
 20
642.3269701403611
 30
0.0
 10
598.9711274434429
 20
641.0512579077089
 30
0.0
 10
598.7248633903303
 20
640.2422719427772
 30
0.0
 10
598.5270924450082
 20
639.5925875206514
 30
0.0
  0
ARC
  5
A8
330
1F
100
AcDbEntity
  8
0
  6
Continuous
 62
     7
370
    25
100
AcDbCircle
 10
598.4186338468
 20
639.9663495896
 30
0.0
 40
0.3891803587986047
100
AcDbArc
 50
247.5550966805
 51
286.1817171295
  0
ARC
  5
A9
330
1F
100
AcDbEntity
  8
0
  6
Continuous
 62
     7
370
    25
100
AcDbCircle
 10
600.2028775112
 20
645.8276519773
 30
0.0
 40
0.3891803587982474
100
AcDbArc
 50
39.9566538515
 51
78.5832743005
  0
SPLINE
  5
AA
330
1F
100
AcDbEntity
  8
0
  6
Continuous
 62
     7
370
    25
100
AcDbSpline
210
0.0
220
0.0
230
1.0
 70
    24
 71
     3
 72
    12
 73
     8
 74
     0
 42
0.00000001
 43
0.00000001
 40
0.0
 40
0.0
 40
0.0
 40
0.0
 40
0.3013828945620943
 40
0.4108442493795608
 40
0.6247185195336508
 40
0.698617105437865
 40
1.0
 40
1.0
 40
1.0
 40
1.0
 10
577.7019348832522
 20
634.758226662473
 30
0.0
 10
577.238166420121
 20
635.2543550062265
 30
0.0
 10
576.6059586553179
 20
635.9306756623191
 30
0.0
 10
575.6400232169032
 20
636.9640101542722
 30
0.0
 10
575.0246697482971
 20
637.6223004898013
 30
0.0
 10
574.1140408283633
 20
638.5964693989388
 30
0.0
 10
573.5365704579837
 20
639.2142333074391
 30
0.0
 10
573.0728127166409
 20
639.7103501812813
 30
0.0
  0
ARC
  5
AB
330
1F
100
AcDbEntity
  8
0
  6
Continuous
 62
     7
370
    25
100
AcDbCircle
 10
573.4507294624
 20
639.6173970481
 30
0.0
 40
0.3891803587967388
100
AcDbArc
 50
127.5550966805
 51
166.1817171297
  0
ARC
  5
AC
330
1F
100
AcDbEntity
  8
0
  6
Continuous
 62
     7
370
    25
100
AcDbCircle
 10
571.4650179542
 20
648.1713209778
 30
0.0
 40
0.3891803588393489
100
AcDbArc
 50
219.9566538536
 51
258.5832742984
  0
SPLINE
  5
AD
330
1F
100
AcDbEntity
  8
0
  6
Continuous
 62
     7
370
    25
100
AcDbSpline
210
0.0
220
0.0
230
1.0
 70
    24
 71
     3
 72
    12
 73
     8
 74
     0
 42
0.00000001
 43
0.00000001
 40
0.0
 40
0.0
 40
0.0
 40
0.0
 40
0.3013828945621496
 40
0.4108442493795787
 40
0.62471851953366
 40
0.6986171054378592
 40
1.0
 40
1.0
 40
1.0
 40
1.0
 10
571.1666993337953
 20
647.9213862815711
 30
0.0
 10
571.3644748514578
 20
648.5710857239937
 30
0.0
 10
571.6340818383366
 20
649.4567540368292
 30
0.0
 10
572.0460080397672
 20
650.8099459108886
 30
0.0
 10
572.3084274590983
 20
651.6720028147728
 30
0.0
 10
572.6967680220212
 20
652.9477150474249
 30
0.0
 10
572.9430320751339
 20
653.7567010123566
 30
0.0
 10
573.1408030204561
 20
654.4063854344822
 30
0.0
  0
ARC
  5
AE
330
1F
100
AcDbEntity
  8
0
  6
Continuous
 62
     7
370
    25
100
AcDbCircle
 10
573.2492616186
 20
654.0326233656
 30
0.0
 40
0.3891803587966507
100
AcDbArc
 50
67.5550966804
 51
106.1817171296
  0
ARC
  5
AF
330
1F
100
AcDbEntity
  8
0
  6
Continuous
 62
     7
370
    25
100
AcDbCircle
 10
579.6643212898
 20
660.0292619411
 30
0.0
 40
0.3891803588359156
100
AcDbArc
 50
159.9566538534
 51
198.5832742985
  0
SPLINE
  5
B0
330
1F
100
AcDbEntity
  8
0
  6
Continuous
 62
     7
370
    25
100
AcDbSpline
210
0.0
220
0.0
230
1.0
 70
    24
 71
     3
 72
    12
 73
     8
 74
     0
 42
0.00000001
 43
0.00000001
 40
0.0
 40
0.0
 40
0.0
 40
0.0
 40
0.3013828945621486
 40
0.4108442493795572
 40
0.6247185195336376
 40
0.6986171054378638
 40
1.0
 40
1.0
 40
1.0
 40
1.0
 10
579.2987121832755
 20
660.1626460966648
 30
0.0
 10
579.960256164069
 20
660.3162171953338
 30
0.0
 10
580.8620709157509
 20
660.525564852077
 30
0.0
 10
582.2399325555964
 20
660.845422234183
 30
0.0
 10
583.1177054435333
 20
661.0491888025382
 30
0.0
 10
584.4166749263901
 20
661.350732126053
 30
0.0
 10
585.2404093498824
 20
661.5419541824843
 30
0.0
 10
585.9019380365473
 20
661.6955217307676
 30
0.0
  0
ARC
  5
B1
330
1F
100
AcDbEntity
  8
0
  6
Continuous
 62
     7
370
    25
100
AcDbCircle
 10
585.632479889
 20
661.414712795
 30
0.0
 40
0.3891803587979932
100
AcDbArc
 50
7.5550966805
 51
46.1817171296
  0
SPLINE
  5
B2
330
1F
100
AcDbEntity
  8
0
  6
Continuous
 62
     7
370
    25
100
AcDbSpline
210
0.0
220
0.0
230
1.0
 70
    24
 71
     3
 72
    12
 73
     8
 74
     0
 42
0.00000001
 43
0.00000001
 40
0.0
 40
0.0
 40
0.0
 40
0.0
 40
0.3013828945621511
 40
0.4108442493795528
 40
0.6247185195336448
 40
0.6986171054378589
 40
0.9999999999999999
 40
0.9999999999999999
 40
0.9999999999999999
 40
0.9999999999999999
 10
593.9659605822122
 20
659.2407462926604
 30
0.0
 10
594.4297290453434
 20
658.744617948907
 30
0.0
 10
595.0619368101466
 20
658.0682972928145
 30
0.0
 10
596.0278722485613
 20
657.0349628008614
 30
0.0
 10
596.6432257171672
 20
656.3766724653324
 30
0.0
 10
597.5538546371008
 20
655.402503556195
 30
0.0
 10
598.1313250074804
 20
654.7847396476946
 30
0.0
 10
598.5950827488233
 20
654.2886227738522
 30
0.0
  0
ARC
  5
B3
330
1F
100
AcDbEntity
  8
0
  6
Continuous
 62
     7
370
    25
100
AcDbCircle
 10
598.2171660031
 20
654.381575907
 30
0.0
 40
0.3891803587967245
100
AcDbArc
 50
307.5550966805
 51
346.1817171296
  0
ARC
  5
B4
330
1F
100
AcDbEntity
  8
0
  6
Continuous
 62
     7
370
    25
100
AcDbCircle
 10
594.0332510682
 20
658.8574274408
 30
0.0
 40
0.3891803587964697
100
AcDbArc
 50
99.9566538513
 51
138.5832743005
  0
LINE
  5
B5
330
1F
100
AcDbEntity
  8
0
  6
Continuous
 62
     7
370
    25
100
AcDbLine
 10
585.9019380365
 20
661.6955217308
 30
0.0
 11
587.6039670144
 21
662.0906314554
 31
0.0
  0
LINE
  5
B6
330
1F
100
AcDbEntity
  8
0
  6
Continuous
 62
     7
370
    25
100
AcDbLine
 10
587.6039670144
 20
662.0906314554
 30
0.0
 11
587.7170307425
 21
661.603582594
 31
0.0
  0
LINE
  5
B7
330
1F
100
AcDbEntity
  8
0
  6
Continuous
 62
     7
370
    25
100
AcDbLine
 10
573.1408030205
 20
654.4063854345
 30
0.0
 11
573.6496424506
 21
656.0779406296
 31
0.0
  0
LINE
  5
B8
330
1F
100
AcDbEntity
  8
0
  6
Continuous
 62
     7
370
    25
100
AcDbLine
 10
573.6496424506
 20
656.0779406296
 30
0.0
 11
574.1279710014
 21
655.9323322597
 31
0.0
  0
LINE
  5
B9
330
1F
100
AcDbEntity
  8
0
  6
Continuous
 62
     7
370
    25
100
AcDbLine
 10
598.5950827488
 20
654.2886227739
 30
0.0
 11
599.7882722966
 21
653.0121773034
 31
0.0
  0
LINE
  5
BA
330
1F
100
AcDbEntity
  8
0
  6
Continuous
 62
     7
370
    25
100
AcDbLine
 10
599.7882722966
 20
653.0121773034
 30
0.0
 11
599.4230074738
 21
652.6707368119
 31
0.0
  0
LINE
  5
BB
330
1F
100
AcDbEntity
  8
0
  6
Continuous
 62
     7
370
    25
100
AcDbLine
 10
573.0728127166
 20
639.7103501813
 30
0.0
 11
571.8796231689
 21
640.9867956518
 31
0.0
  0
LINE
  5
BC
330
1F
100
AcDbEntity
  8
0
  6
Continuous
 62
     7
370
    25
100
AcDbLine
 10
572.2448879917
 20
641.3282361432
 30
0.0
 11
571.8796231689
 21
640.9867956518
 31
0.0
  0
LINE
  5
BD
330
1F
100
AcDbEntity
  8
0
  6
Continuous
 62
     7
370
    25
100
AcDbLine
 10
598.527092445
 20
639.5925875207
 30
0.0
 11
598.0182530149
 21
637.9210323255
 31
0.0
  0
LINE
  5
BE
330
1F
100
AcDbEntity
  8
0
  6
Continuous
 62
     7
370
    25
100
AcDbLine
 10
598.0182530149
 20
637.9210323255
 30
0.0
 11
597.539924464
 21
638.0666406955
 31
0.0
  0
LINE
  5
BF
330
1F
100
AcDbEntity
  8
0
  6
Continuous
 62
     7
370
    25
100
AcDbLine
 10
592.7727710345
 20
660.5171917631
 30
0.0
 11
593.9659605822
 21
659.2407462927
 31
0.0
  0
LINE
  5
C0
330
1F
100
AcDbEntity
  8
0
  6
Continuous
 62
     7
370
    25
100
AcDbLine
 10
592.4075062116
 20
660.1757512717
 30
0.0
 11
592.7727710345
 21
660.5171917631
 31
0.0
  0
LINE
  5
C1
330
1F
100
AcDbEntity
  8
0
  6
Continuous
 62
     7
370
    25
100
AcDbLine
 10
577.7097469335
 20
659.2804875106
 30
0.0
 11
577.5966832054
 21
659.767536372
 31
0.0
  0
LINE
  5
C2
330
1F
100
AcDbEntity
  8
0
  6
Continuous
 62
     7
370
    25
100
AcDbLine
 10
577.5966832054
 20
659.767536372
 30
0.0
 11
579.2987121833
 21
660.1626460967
 31
0.0
  0
LINE
  5
C3
330
1F
100
AcDbEntity
  8
0
  6
Continuous
 62
     7
370
    25
100
AcDbLine
 10
571.1361884546
 20
646.1042227165
 30
0.0
 11
570.6578599037
 21
646.2498310864
 31
0.0
  0
LINE
  5
C4
330
1F
100
AcDbEntity
  8
0
  6
Continuous
 62
     7
370
    25
100
AcDbLine
 10
570.6578599037
 20
646.2498310864
 30
0.0
 11
571.1666993338
 21
647.9213862816
 31
0.0
  0
LINE
  5
C5
330
1F
100
AcDbEntity
  8
0
  6
Continuous
 62
     7
370
    25
100
AcDbLine
 10
601.0100355618
 20
647.7491418687
 30
0.0
 11
600.5011961317
 21
646.0775866736
 31
0.0
  0
LINE
  5
C6
330
1F
100
AcDbEntity
  8
0
  6
Continuous
 62
     7
370
    25
100
AcDbLine
 10
600.5317070109
 20
647.8947502386
 30
0.0
 11
601.0100355618
 21
647.7491418687
 31
0.0
  0
LINE
  5
C7
330
1F
100
AcDbEntity
  8
0
  6
Continuous
 62
     7
370
    25
100
AcDbLine
 10
594.07121226
 20
634.2314365831
 30
0.0
 11
593.699343945
 21
634.1451109156
 31
0.0
  0
LINE
  5
C8
330
1F
100
AcDbEntity
  8
0
  6
Continuous
 62
     7
370
    25
100
AcDbLine
 10
594.07121226
 20
634.2314365831
 30
0.0
 11
593.958148532
 21
634.7184854445
 31
0.0
  0
ARC
  5
C9
330
1F
100
AcDbEntity
  8
0
  6
Continuous
 62
     7
370
    25
100
AcDbCircle
 10
591.0957423632
 20
661.5790446762
 30
0.0
 40
0.4999999999999764
100
AcDbArc
 50
43.0691854905
 51
70.1553752491
  0
LINE
  5
CA
330
1F
100
AcDbEntity
  8
0
  6
Continuous
 62
     7
370
    25
100
AcDbLine
 10
591.0957423632
 20
661.5790446762
 30
0.0
 11
591.461007186
 21
661.9204851677
 31
0.0
  0
LINE
  5
CB
330
1F
100
AcDbEntity
  8
0
  6
Continuous
 62
     7
370
    25
100
AcDbLine
 10
591.2654776738
 20
662.0493530052
 30
0.0
 11
591.0957423632
 21
661.5790446762
 31
0.0
  0
ARC
  5
CC
330
1F
100
AcDbEntity
  8
0
  6
Continuous
 62
     7
370
    25
100
AcDbCircle
 10
570.9331241432
 20
642.7315295477
 30
0.0
 40
0.5000000000001082
100
AcDbArc
 50
195.9829957319
 51
223.0691854905
  0
LINE
  5
CD
330
1F
100
AcDbEntity
  8
0
  6
Continuous
 62
     7
370
    25
100
AcDbLine
 10
570.9331241432
 20
642.7315295477
 30
0.0
 11
570.4524524146
 21
642.5938535177
 31
0.0
  0
LINE
  5
CE
330
1F
100
AcDbEntity
  8
0
  6
Continuous
 62
     7
370
    25
100
AcDbLine
 10
570.9331241432
 20
642.7315295477
 30
0.0
 11
570.5678593204
 21
642.3900890563
 31
0.0
  0
LINE
  5
CF
330
1F
100
AcDbEntity
  8
0
  6
Continuous
 62
     7
370
    25
100
AcDbLine
 10
571.1361884546
 20
646.1042227165
 30
0.0
 11
570.5767826416
 21
644.2665551977
 31
0.0
  0
LINE
  5
D0
330
1F
100
AcDbEntity
  8
0
  6
Continuous
 62
     7
370
    25
100
AcDbLine
 10
570.9331241432
 20
642.7315295477
 30
0.0
 11
572.2448879917
 21
641.3282361432
 31
0.0
  0
ARC
  5
D1
330
1F
100
AcDbEntity
  8
0
  6
Continuous
 62
     7
370
    25
100
AcDbCircle
 10
585.8339477327
 20
646.9994864776
 30
0.0
 40
15.50000000000004
100
AcDbArc
 50
190.1553752491
 51
195.9829957319
  0
ARC
  5
D2
330
1F
100
AcDbEntity
  8
0
  6
Continuous
 62
     7
370
    25
100
AcDbCircle
 10
585.8339477327
 20
646.9994864776
 30
0.0
 40
16.00000000000008
100
AcDbArc
 50
10.1553752491
 51
15.9829957319
  0
LINE
  5
D3
330
1F
100
AcDbEntity
  8
0
  6
Continuous
 62
     7
370
    25
100
AcDbLine
 10
601.5832794398
 20
649.820576831
 30
0.0
 11
601.0911128239
 21
649.7324177574
 31
0.0
  0
ARC
  5
D4
330
1F
100
AcDbEntity
  8
0
  6
Continuous
 62
     7
370
    25
100
AcDbCircle
 10
585.8339477327
 20
646.9994864776
 30
0.0
 40
15.50000000000006
100
AcDbArc
 50
10.1553752491
 51
15.9829957319
  0
LINE
  5
D5
330
1F
100
AcDbEntity
  8
0
  6
Continuous
 62
     7
370
    25
100
AcDbLine
 10
601.2154430509
 20
651.4051194374
 30
0.0
 11
600.7347713222
 21
651.2674434074
 31
0.0
  0
LINE
  5
D6
330
1F
100
AcDbEntity
  8
0
  6
Continuous
 62
     7
370
    25
100
AcDbLine
 10
601.100036145
 20
651.6088838989
 30
0.0
 11
600.7347713222
 21
651.2674434074
 31
0.0
  0
ARC
  5
D7
330
1F
100
AcDbEntity
  8
0
  6
Continuous
 62
     7
370
    25
100
AcDbCircle
 10
600.7347713222
 20
651.2674434074
 30
0.0
 40
0.5000000000000541
100
AcDbArc
 50
15.9829957319
 51
43.0691854905
  0
ARC
  5
D8
330
1F
100
AcDbEntity
  8
0
  6
Continuous
 62
     7
370
    25
100
AcDbCircle
 10
570.5767826416
 20
644.2665551977
 30
0.0
 40
0.4999999999998905
100
AcDbArc
 50
163.0691854905
 51
190.1553752491
  0
LINE
  5
D9
330
1F
100
AcDbEntity
  8
0
  6
Continuous
 62
     7
370
    25
100
AcDbLine
 10
570.5767826416
 20
644.2665551977
 30
0.0
 11
570.0984540907
 21
644.4121635677
 31
0.0
  0
LINE
  5
DA
330
1F
100
AcDbEntity
  8
0
  6
Continuous
 62
     7
370
    25
100
AcDbLine
 10
570.5767826416
 20
644.2665551977
 30
0.0
 11
570.0846160257
 21
644.1783961242
 31
0.0
  0
LINE
  5
DB
330
1F
100
AcDbEntity
  8
0
  6
Continuous
 62
     7
370
    25
100
AcDbLine
 10
571.8796231689
 20
640.9867956518
 30
0.0
 11
570.5678593204
 21
642.3900890563
 31
0.0
  0
LINE
  5
DC
330
1F
100
AcDbEntity
  8
0
  6
Continuous
 62
     7
370
    25
100
AcDbLine
 10
577.7097469335
 20
659.2804875106
 30
0.0
 11
575.838577272
 21
658.8461133963
 31
0.0
  0
LINE
  5
DD
330
1F
100
AcDbEntity
  8
0
  6
Continuous
 62
     7
370
    25
100
AcDbLine
 10
575.838577272
 20
658.8461133963
 30
0.0
 11
575.7255135439
 21
659.3331622577
 31
0.0
  0
LINE
  5
DE
330
1F
100
AcDbEntity
  8
0
  6
Continuous
 62
     7
370
    25
100
AcDbLine
 10
575.7255135439
 20
659.3331622577
 30
0.0
 11
577.5966832054
 21
659.767536372
 31
0.0
  0
ARC
  5
DF
330
1F
100
AcDbEntity
  8
0
  6
Continuous
 62
     7
370
    25
100
AcDbCircle
 10
575.838577272
 20
658.8461133963
 30
0.0
 40
0.499999999999916
100
AcDbArc
 50
103.0691854905
 51
130.1553752491
  0
LINE
  5
E0
330
1F
100
AcDbEntity
  8
0
  6
Continuous
 62
     7
370
    25
100
AcDbLine
 10
575.838577272
 20
658.8461133963
 30
0.0
 11
575.5161459668
 21
659.2282626518
 31
0.0
  0
LINE
  5
E1
330
1F
100
AcDbEntity
  8
0
  6
Continuous
 62
     7
370
    25
100
AcDbLine
 10
600.5317070109
 20
647.8947502386
 30
0.0
 11
601.0911128239
 21
649.7324177574
 31
0.0
  0
LINE
  5
E2
330
1F
100
AcDbEntity
  8
0
  6
Continuous
 62
     7
370
    25
100
AcDbLine
 10
600.7347713222
 20
651.2674434074
 30
0.0
 11
599.4230074738
 21
652.6707368119
 31
0.0
  0
ARC
  5
E3
330
1F
100
AcDbEntity
  8
0
  6
Continuous
 62
     7
370
    25
100
AcDbCircle
 10
585.8339477327
 20
646.9994864776
 30
0.0
 40
16.00000000000005
100
AcDbArc
 50
190.1553752491
 51
195.9829957319
  0
LINE
  5
E4
330
1F
100
AcDbEntity
  8
0
  6
Continuous
 62
     7
370
    25
100
AcDbLine
 10
599.7882722966
 20
653.0121773034
 30
0.0
 11
601.100036145
 21
651.6088838989
 31
0.0
  0
ARC
  5
E5
330
1F
100
AcDbEntity
  8
0
  6
Continuous
 62
     7
370
    25
100
AcDbCircle
 10
585.8339477327
 20
646.9994864776
 30
0.0
 40
15.50000000000011
100
AcDbArc
 50
130.1553752491
 51
135.9829957319
  0
LINE
  5
E6
330
1F
100
AcDbEntity
  8
0
  6
Continuous
 62
     7
370
    25
100
AcDbLine
 10
574.6873768145
 20
657.7699997785
 30
0.0
 11
574.3278100107
 21
658.1174356914
 31
0.0
  0
ARC
  5
E7
330
1F
100
AcDbEntity
  8
0
  6
Continuous
 62
     7
370
    25
100
AcDbCircle
 10
585.8339477327
 20
646.9994864776
 30
0.0
 40
16.00000000000008
100
AcDbArc
 50
130.1553752491
 51
135.9829957319
  0
LINE
  5
E8
330
1F
100
AcDbEntity
  8
0
  6
Continuous
 62
     7
370
    25
100
AcDbLine
 10
573.6496424506
 20
656.0779406296
 30
0.0
 11
574.2090482636
 21
657.9156081484
 31
0.0
  0
LINE
  5
E9
330
1F
100
AcDbEntity
  8
0
  6
Continuous
 62
     7
370
    25
100
AcDbLine
 10
574.2090482636
 20
657.9156081484
 30
0.0
 11
574.6873768145
 21
657.7699997785
 31
0.0
  0
LINE
  5
EA
330
1F
100
AcDbEntity
  8
0
  6
Continuous
 62
     7
370
    25
100
AcDbLine
 10
574.6873768145
 20
657.7699997785
 30
0.0
 11
574.1279710014
 21
655.9323322597
 31
0.0
  0
LINE
  5
EB
330
1F
100
AcDbEntity
  8
0
  6
Continuous
 62
     7
370
    25
100
AcDbLine
 10
592.4075062116
 20
660.1757512717
 30
0.0
 11
591.0957423632
 21
661.5790446762
 31
0.0
  0
LINE
  5
EC
330
1F
100
AcDbEntity
  8
0
  6
Continuous
 62
     7
370
    25
100
AcDbLine
 10
589.588200404
 20
662.0379567083
 30
0.0
 11
587.7170307425
 21
661.603582594
 31
0.0
  0
ARC
  5
ED
330
1F
100
AcDbEntity
  8
0
  6
Continuous
 62
     7
370
    25
100
AcDbCircle
 10
585.8339477327
 20
646.9994864776
 30
0.0
 40
15.5000000000001
100
AcDbArc
 50
70.1553752491
 51
75.9829957319
  0
LINE
  5
EE
330
1F
100
AcDbEntity
  8
0
  6
Continuous
 62
     7
370
    25
100
AcDbLine
 10
591.461007186
 20
661.9204851677
 30
0.0
 11
592.7727710345
 21
660.5171917631
 31
0.0
  0
LINE
  5
EF
330
1F
100
AcDbEntity
  8
0
  6
Continuous
 62
     7
370
    25
100
AcDbLine
 10
570.0984540907
 20
644.4121635677
 30
0.0
 11
570.6578599037
 21
646.2498310864
 31
0.0
  0
ARC
  5
F0
330
1F
100
AcDbEntity
  8
0
  6
Continuous
 62
     7
370
    25
100
AcDbCircle
 10
585.8339477327
 20
646.9994864776
 30
0.0
 40
16.00000000000007
100
AcDbArc
 50
70.1553752491
 51
75.9829957319
  0
LINE
  5
F1
330
1F
100
AcDbEntity
  8
0
  6
Continuous
 62
     7
370
    25
100
AcDbLine
 10
589.588200404
 20
662.0379567083
 30
0.0
 11
589.7093053289
 21
662.5230686512
 31
0.0
  0
LINE
  5
F2
330
1F
100
AcDbEntity
  8
0
  6
Continuous
 62
     7
370
    25
100
AcDbLine
 10
587.6039670144
 20
662.0906314554
 30
0.0
 11
589.4751366759
 21
662.5250055697
 31
0.0
  0
LINE
  5
F3
330
1F
100
AcDbEntity
  8
0
  6
Continuous
 62
     7
370
    25
100
AcDbLine
 10
589.4751366759
 20
662.5250055697
 30
0.0
 11
589.588200404
 21
662.0379567083
 31
0.0
  0
ARC
  5
F4
330
1F
100
AcDbEntity
  8
0
  6
Continuous
 62
     7
370
    25
100
AcDbCircle
 10
589.588200404
 20
662.0379567083
 30
0.0
 40
0.5000000000000459
100
AcDbArc
 50
75.9829957319
 51
103.0691854905
  0
ARC
  5
F5
330
1F
100
AcDbEntity
  8
0
  6
Continuous
 62
     7
370
    25
100
AcDbCircle
 10
601.0911128239
 20
649.7324177574
 30
0.0
 40
0.5000000000000224
100
AcDbArc
 50
343.0691854905
 51
10.1553752491
  0
LINE
  5
F6
330
1F
100
AcDbEntity
  8
0
  6
Continuous
 62
     7
370
    25
100
AcDbLine
 10
601.0911128239
 20
649.7324177574
 30
0.0
 11
601.5694413748
 21
649.5868093875
 31
0.0
  0
LINE
  5
F7
330
1F
100
AcDbEntity
  8
0
  6
Continuous
 62
     7
370
    25
100
AcDbLine
 10
593.958148532
 20
634.7184854445
 30
0.0
 11
595.8293181935
 21
635.1528595588
 31
0.0
  0
LINE
  5
F8
330
1F
100
AcDbEntity
  8
0
  6
Continuous
 62
     7
370
    25
100
AcDbLine
 10
596.980518651
 20
636.2289731767
 30
0.0
 11
597.539924464
 21
638.0666406955
 31
0.0
  0
ARC
  5
F9
330
1F
100
AcDbEntity
  8
0
  6
Continuous
 62
     7
370
    25
100
AcDbCircle
 10
585.8339477327
 20
646.9994864776
 30
0.0
 40
15.49999999999998
100
AcDbArc
 50
310.1553752491
 51
315.9829957319
  0
LINE
  5
FA
330
1F
100
AcDbEntity
  8
0
  6
Continuous
 62
     7
370
    25
100
AcDbLine
 10
597.3400854548
 20
635.8815372637
 30
0.0
 11
596.980518651
 21
636.2289731767
 31
0.0
  0
LINE
  5
FB
330
1F
100
AcDbEntity
  8
0
  6
Continuous
 62
     7
370
    25
100
AcDbLine
 10
597.4588472019
 20
636.0833648067
 30
0.0
 11
596.980518651
 21
636.2289731767
 31
0.0
  0
ARC
  5
FC
330
1F
100
AcDbEntity
  8
0
  6
Continuous
 62
     7
370
    25
100
AcDbCircle
 10
596.980518651
 20
636.2289731767
 30
0.0
 40
0.5000000000000249
100
AcDbArc
 50
315.9829957319
 51
343.0691854905
  0
LINE
  5
FD
330
1F
100
AcDbEntity
  8
0
  6
Continuous
 62
     7
370
    25
100
AcDbLine
 10
598.0182530149
 20
637.9210323255
 30
0.0
 11
597.4588472019
 21
636.0833648067
 31
0.0
  0
ARC
  5
FE
330
1F
100
AcDbEntity
  8
0
  6
Continuous
 62
     7
370
    25
100
AcDbCircle
 10
585.8339477327
 20
646.9994864776
 30
0.0
 40
16.0
100
AcDbArc
 50
310.1553752491
 51
315.9829957319
  0
LINE
  5
FF
330
1F
100
AcDbEntity
  8
0
  6
Continuous
 62
     7
370
    25
100
AcDbLine
 10
596.1517494987
 20
634.7707103034
 30
0.0
 11
595.8293181935
 21
635.1528595588
 31
0.0
  0
LINE
  5
100
330
1F
100
AcDbEntity
  8
0
  6
Continuous
 62
     7
370
    25
100
AcDbLine
 10
601.5694413748
 20
649.5868093875
 30
0.0
 11
601.0100355618
 21
647.7491418687
 31
0.0
  0
LINE
  5
101
330
1F
100
AcDbEntity
  8
0
  6
Continuous
 62
     7
370
    25
100
AcDbLine
 10
595.9423819216
 20
634.6658106974
 30
0.0
 11
595.8293181935
 21
635.1528595588
 31
0.0
  0
ARC
  5
102
330
1F
100
AcDbEntity
  8
0
  6
Continuous
 62
     7
370
    25
100
AcDbCircle
 10
595.8293181935
 20
635.1528595588
 30
0.0
 40
0.5000000000000459
100
AcDbArc
 50
283.0691854905
 51
310.1553752491
  0
LINE
  5
103
330
1F
100
AcDbEntity
  8
0
  6
Continuous
 62
     7
370
    25
100
AcDbLine
 10
595.9423819216
 20
634.6658106974
 30
0.0
 11
594.07121226
 21
634.2314365831
 31
0.0
  0
ARC
  5
104
330
1F
100
AcDbEntity
  8
0
  6
Continuous
 62
     7
370
    25
100
AcDbCircle
 10
574.6873768145
 20
657.7699997785
 30
0.0
 40
0.5000000000001039
100
AcDbArc
 50
135.9829957319
 51
163.0691854905
  0
ARC
  5
105
330
1F
100
AcDbEntity
  8
0
  6
Continuous
 62
     7
370
    25
100
AcDbCircle
 10
585.8339477327
 20
646.9994864776
 30
0.0
 40
9.574999999999973
100
AcDbArc
 50
325.4407428719
 51
214.2505235023
  0
ARC
  5
106
330
1F
100
AcDbEntity
  8
0
  6
Continuous
 62
     7
370
    25
100
AcDbCircle
 10
585.8339477327
 20
646.9994864776
 30
0.0
 40
8.050000000000027
100
AcDbArc
 50
348.767616741
 51
190.9236496332
  0
ARC
  5
107
330
1F
100
AcDbEntity
  8
0
  6
Continuous
 62
     7
370
    25
100
AcDbCircle
 10
585.8339477327
 20
646.9994864776
 30
0.0
 40
8.24999999999998
100
AcDbArc
 50
343.0965073233
 51
196.5947590508
  0
ARC
  5
108
330
1F
100
AcDbEntity
  8
0
  6
Continuous
 62
     7
370
    25
100
AcDbCircle
 10
585.0122149388
 20
342.0005934382
 30
0.0
 40
7.900000000000025
100
AcDbArc
 50
179.8456331871
 51
359.8456331871
  0
ARC
  5
109
330
1F
100
AcDbEntity
  8
0
  6
Continuous
 62
     7
370
    25
100
AcDbCircle
 10
585.0122149388
 20
342.0005934382
 30
0.0
 40
10.82499999999996
100
AcDbArc
 50
136.7146050892
 51
179.8456331871
  0
ARC
  5
10A
330
1F
100
AcDbEntity
  8
0
  6
Continuous
 62
     7
370
    25
100
AcDbCircle
 10
585.0122149388
 20
342.0005934382
 30
0.0
 40
10.82499999999995
100
AcDbArc
 50
179.8456331871
 51
42.976661285
  0
ARC
  5
10B
330
1F
100
AcDbEntity
  8
0
  6
Continuous
 62
     7
370
    25
100
AcDbCircle
 10
585.8339477327
 20
646.9994864776
 30
0.0
 40
7.900000000000139
100
AcDbArc
 50
359.8456331871
 51
179.8456331871
  0
SPLINE
  5
10C
330
1F
100
AcDbEntity
  8
0
  6
Continuous
 62
     7
370
    25
100
AcDbSpline
210
0.0
220
0.0
230
1.0
 70
     8
 71
     3
 72
    10
 73
     6
 74
     0
 42
0.00000001
 43
0.00000001
 40
0.0
 40
0.0
 40
0.0
 40
0.0
 40
0.4482370048070081
 40
0.9076021902654393
 40
1.0
 40
1.0
 40
1.0
 40
1.0
 10
587.0621908385119
 20
654.7927652911734
 30
0.0
 10
587.9057129949418
 20
654.5799225916558
 30
0.0
 10
589.6136990570093
 20
654.1489530416355
 30
0.0
 10
591.1758158403978
 20
652.9131881788811
 30
0.0
 10
591.8614994938368
 20
652.1031538581041
 30
0.0
 10
591.9763235547117
 20
651.9675061294565
 30
0.0
  0
ARC
  5
10D
330
1F
100
AcDbEntity
  8
0
  6
Continuous
 62
     7
370
    25
100
AcDbCircle
 10
585.8339477327
 20
646.9994864776
 30
0.0
 40
14.75000000000007
100
AcDbArc
 50
28.7903843192
 51
52.6736919228
  0
ARC
  5
10E
330
1F
100
AcDbEntity
  8
0
  6
Continuous
 62
     7
370
    25
100
AcDbCircle
 10
585.8339477327
 20
646.9994864776
 30
0.0
 40
14.75000000000006
100
AcDbArc
 50
327.7982116365
 51
357.1084862663
  0
ARC
  5
10F
330
1F
100
AcDbEntity
  8
0
  6
Continuous
 62
     7
370
    25
100
AcDbCircle
 10
585.8339477327
 20
646.9994864776
 30
0.0
 40
14.74999999999995
100
AcDbArc
 50
208.6664072854
 51
236.7916642772
  0
ARC
  5
110
330
1F
100
AcDbEntity
  8
0
  6
Continuous
 62
     7
370
    25
100
AcDbCircle
 10
585.8339477327
 20
646.9994864776
 30
0.0
 40
14.74999999999993
100
AcDbArc
 50
149.308099612
 51
177.9385362498
  0
LWPOLYLINE
  5
111
330
1F
100
AcDbEntity
  8
0
  6
Continuous
 62
     7
370
    25
100
AcDbPolyline
 90
        3
 70
   128
 43
0.0
 10
579.0500259514
 20
660.0968490084
 10
579.1626261697
 20
660.1545603505
 10
579.4710437149
 20
660.3064753353
  0
LWPOLYLINE
  5
112
330
1F
100
AcDbEntity
  8
0
  6
Continuous
 62
     7
370
    25
100
AcDbPolyline
 90
        3
 70
   128
 43
0.0
 10
585.7496884705
 20
661.7492458104
 10
585.8335487291
 20
661.7494864722
 10
586.8989839441
 20
661.710985309
  0
SPLINE
  5
113
330
1F
100
AcDbEntity
  8
0
  6
Continuous
 62
     7
370
    25
100
AcDbSpline
210
0.0
220
0.0
230
1.0
 70
     8
 71
     3
 72
    10
 73
     6
 74
     0
 42
0.00000001
 43
0.00000001
 40
0.0
 40
0.0
 40
0.0
 40
0.0
 40
0.4349502808252019
 40
0.8250892288841928
 40
1.0
 40
1.0
 40
1.0
 40
1.0
 10
594.7776631560049
 20
658.728614937413
 30
0.0
 10
595.4617598114764
 20
658.1297036961322
 30
0.0
 10
596.759473152124
 20
656.9935848429592
 30
0.0
 10
598.0403213087645
 20
655.315991128413
 30
0.0
 10
598.5723848325848
 20
654.2623367180438
 30
0.0
 10
598.7370847484964
 20
653.9361786842404
 30
0.0
  0
LINE
  5
114
330
1F
100
AcDbEntity
  8
0
  6
Continuous
 62
     7
370
    25
100
AcDbLine
 10
593.6028706357
 20
659.4513175854
 30
0.0
 11
593.9913256042
 21
659.2136114024
 31
0.0
  0
SPLINE
  5
115
330
1F
100
AcDbEntity
  8
0
  6
Continuous
 62
     7
370
    25
100
AcDbSpline
210
0.0
220
0.0
230
1.0
 70
     8
 71
     3
 72
    10
 73
     6
 74
     0
 42
0.00000001
 43
0.00000001
 40
0.0
 40
0.0
 40
0.0
 40
0.0
 40
0.2876580083301334
 40
0.7500920010327177
 40
1.0
 40
1.0
 40
1.0
 40
1.0
 10
593.1897009500959
 20
659.848717499189
 30
0.0
 10
593.8586853427042
 20
659.4170647802445
 30
0.0
 10
595.6031173667741
 20
658.2914946854506
 30
0.0
 10
597.6123522804768
 20
656.2799920713811
 30
0.0
 10
598.4917535216059
 20
654.5073074532808
 30
0.0
 10
598.8002702271068
 20
653.8854038298947
 30
0.0
  0
ARC
  5
116
330
1F
100
AcDbEntity
  8
0
  6
Continuous
 62
     7
370
    25
100
AcDbCircle
 10
585.8339477327
 20
646.9994864776
 30
0.0
 40
16.20000000000002
100
AcDbArc
 50
92.0821003847
 51
240.659110033
  0
LINE
  5
117
330
1F
100
AcDbEntity
  8
0
  6
Continuous
 62
     7
370
    25
100
AcDbLine
 10
591.3760637776
 20
662.2220010447
 30
0.0
 11
590.0749753405
 21
662.4271786196
 31
0.0
  0
LINE
  5
118
330
1F
100
AcDbEntity
  8
0
  6
Continuous
 62
     7
370
    25
100
AcDbLine
 10
589.4668402152
 20
662.5230796258
 30
0.0
 11
585.2453772786
 21
663.1887911205
 31
0.0
  0
ARC
  5
119
330
1F
100
AcDbEntity
  8
0
  6
Continuous
 62
     7
370
    25
100
AcDbCircle
 10
585.8339477327
 20
646.9994864776
 30
0.0
 40
16.20000000000009
100
AcDbArc
 50
299.0321563412
 51
69.9947693307
  0
LINE
  5
11A
330
1F
100
AcDbEntity
  8
0
  6
Continuous
 62
     7
370
    25
100
AcDbLine
 10
593.1897009501
 20
659.8487174992
 30
0.0
 11
594.777663156
 21
658.7286149374
 31
0.0
  0
ARC
  5
11B
330
1F
100
AcDbEntity
  8
0
  6
Continuous
 62
     7
370
    25
100
AcDbCircle
 10
585.8339477327
 20
646.9994864776
 30
0.0
 40
16.70000000000001
100
AcDbArc
 50
98.8447284216
 51
241.6129185886
  0
SPLINE
  5
11C
330
1F
100
AcDbEntity
  8
0
  6
Continuous
 62
     7
370
    25
100
AcDbSpline
210
0.0
220
0.0
230
1.0
 70
    24
 71
     3
 72
     9
 73
     5
 74
     0
 42
0.00000001
 43
0.00000001
 40
0.0
 40
0.0
 40
0.0
 40
0.0
 40
0.9076164894784526
 40
1.0
 40
1.0
 40
1.0
 40
1.0
 10
583.2662015207355
 20
663.5009009439349
 30
0.0
 10
583.8608935381812
 20
663.4071198737854
 30
0.0
 10
584.51611743984
 20
663.3037931149213
 30
0.0
 10
585.1837033487362
 20
663.1985169062013
 30
0.0
 10
585.2453772785748
 20
663.1887911204653
 30
0.0
  0
ARC
  5
11D
330
1F
100
AcDbEntity
  8
0
  6
Continuous
 62
     7
370
    25
100
AcDbCircle
 10
585.8339477327
 20
646.9994864776
 30
0.0
 40
16.70000000000002
100
AcDbArc
 50
298.0783477855
 51
63.2321412939
  0
LINE
  5
11E
330
1F
100
AcDbEntity
  8
0
  6
Continuous
 62
     7
370
    25
100
AcDbLine
 10
591.3760637776
 20
662.2220010447
 30
0.0
 11
593.3552395354
 21
661.9098912212
 31
0.0
  0
LINE
  5
11F
330
1F
100
AcDbEntity
  8
0
  6
Continuous
 62
     7
370
    25
100
AcDbLine
 10
691.5113266937
 20
630.8048892054
 30
0.0
 11
690.0016939447
 21
630.4980720112
 31
0.0
  0
LINE
  5
120
330
1F
100
AcDbEntity
  8
0
  6
Continuous
 62
     7
370
    25
100
AcDbLine
 10
683.3565687717
 20
663.1940837498
 30
0.0
 11
684.8662015207
 21
663.5009009439
 31
0.0
  0
LINE
  5
121
330
1F
100
AcDbEntity
  8
0
  6
Continuous
 62
     7
370
    25
100
AcDbLine
 10
486.8016939447
 20
663.5009009439
 30
0.0
 11
487.7318154844
 21
663.3290584619
 31
0.0
  0
LINE
  5
122
330
1F
100
AcDbEntity
  8
0
  6
Continuous
 62
     7
370
    25
100
AcDbLine
 10
481.6662015207
 20
630.4980720112
 30
0.0
 11
480.7360799811
 21
630.6699144932
 31
0.0
  0
LINE
  5
123
330
1F
100
AcDbEntity
  8
0
  6
Continuous
 62
     7
370
    25
100
AcDbLine
 10
484.8136926663
 20
644.394895183
 30
0.0
 11
483.6137290159
 21
644.4042352868
 31
0.0
  0
LINE
  5
124
330
1F
100
AcDbEntity
  8
0
  6
Continuous
 62
     7
370
    25
100
AcDbLine
 10
484.8234219412
 20
645.6448573189
 30
0.0
 11
484.8136926663
 21
644.394895183
 31
0.0
  0
SPLINE
  5
125
330
1F
100
AcDbEntity
  8
0
  6
Continuous
 62
     7
370
    25
100
AcDbSpline
210
0.0
220
0.0
230
1.0
 70
     8
 71
     3
 72
    12
 73
     8
 74
     0
 42
0.00000001
 43
0.00000001
 40
0.0
 40
0.0
 40
0.0
 40
0.0
 40
0.2133534395476202
 40
0.4267919313634525
 40
0.638353973909207
 40
0.8490950351927572
 40
1.0
 40
1.0
 40
1.0
 40
1.0
 10
485.5792367876008
 20
646.3889970355225
 30
0.0
 10
485.4956824707328
 20
646.3815455880217
 30
0.0
 10
485.3285405284914
 20
646.3666397225387
 30
0.0
 10
485.1037189307472
 20
646.2409846721603
 30
0.0
 10
484.9331797653867
 20
646.0549123978151
 30
0.0
 10
484.8388788710288
 20
645.844663987286
 30
0.0
 10
484.8279727614673
 20
645.7036842820424
 30
0.0
 10
484.8234219411599
 20
645.6448573188699
 30
0.0
  0
LINE
  5
126
330
1F
100
AcDbEntity
  8
0
  6
Continuous
 62
     7
370
    25
100
AcDbLine
 10
486.8291989235
 20
646.3792677607
 30
0.0
 11
485.5792367876
 21
646.3889970355
 31
0.0
  0
LINE
  5
127
330
1F
100
AcDbEntity
  8
0
  6
Continuous
 62
     7
370
    25
100
AcDbLine
 10
486.8385390273
 20
647.5792314112
 30
0.0
 11
486.8291989235
 21
646.3792677607
 31
0.0
  0
LINE
  5
128
330
1F
100
AcDbEntity
  8
0
  6
Continuous
 62
     7
370
    25
100
AcDbLine
 10
485.5885768914
 20
647.588960686
 30
0.0
 11
486.8385390273
 21
647.5792314112
 31
0.0
  0
LINE
  5
129
330
1F
100
AcDbEntity
  8
0
  6
Continuous
 62
     7
370
    25
100
AcDbLine
 10
484.8541664496
 20
649.5947376683
 30
0.0
 11
484.8444371748
 21
648.3447755324
 31
0.0
  0
LINE
  5
12A
330
1F
100
AcDbEntity
  8
0
  6
Continuous
 62
     7
370
    25
100
AcDbLine
 10
483.6542027991
 20
649.6040777722
 30
0.0
 11
484.8541664496
 21
649.5947376683
 31
0.0
  0
LINE
  5
12B
330
1F
100
AcDbEntity
  8
0
  6
Continuous
 62
     7
370
    25
100
AcDbLine
 10
483.6444735243
 20
648.3541156363
 30
0.0
 11
483.6542027991
 21
649.6040777722
 31
0.0
  0
LINE
  5
12C
330
1F
100
AcDbEntity
  8
0
  6
Continuous
 62
     7
370
    25
100
AcDbLine
 10
481.638696542
 20
647.6197051944
 30
0.0
 11
482.8886586779
 21
647.6099759196
 31
0.0
  0
LINE
  5
12D
330
1F
100
AcDbEntity
  8
0
  6
Continuous
 62
     7
370
    25
100
AcDbLine
 10
481.6293564381
 20
646.419741544
 30
0.0
 11
481.638696542
 21
647.6197051944
 31
0.0
  0
LINE
  5
12E
330
1F
100
AcDbEntity
  8
0
  6
Continuous
 62
     7
370
    25
100
AcDbLine
 10
482.879318574
 20
646.4100122691
 30
0.0
 11
481.6293564381
 21
646.419741544
 31
0.0
  0
SPLINE
  5
12F
330
1F
100
AcDbEntity
  8
0
  6
Continuous
 62
     7
370
    25
100
AcDbSpline
210
0.0
220
0.0
230
1.0
 70
     8
 71
     3
 72
    12
 73
     8
 74
     0
 42
0.00000001
 43
0.00000001
 40
0.0
 40
0.0
 40
0.0
 40
0.0
 40
0.2133534395475586
 40
0.4267919313633943
 40
0.6383539739091205
 40
0.8490950351927257
 40
1.0
 40
1.0
 40
1.0
 40
1.0
 10
483.6234582906853
 20
645.6541974227006
 30
0.0
 10
483.6160068431847
 20
645.7377517395686
 30
0.0
 10
483.6011009777016
 20
645.90489368181
 30
0.0
 10
483.4754459273232
 20
646.129715279554
 30
0.0
 10
483.2893736529781
 20
646.3002544449148
 30
0.0
 10
483.079125242449
 20
646.3945553392725
 30
0.0
 10
482.9381455372053
 20
646.4054614488341
 30
0.0
 10
482.8793185740328
 20
646.4100122691414
 30
0.0
  0
LINE
  5
130
330
1F
100
AcDbEntity
  8
0
  6
Continuous
 62
     7
370
    25
100
AcDbLine
 10
483.6137290159
 20
644.4042352868
 30
0.0
 11
483.6234582907
 21
645.6541974227
 31
0.0
  0
CIRCLE
  5
131
330
1F
100
AcDbEntity
  8
0
  6
Continuous
 62
     7
370
    25
100
AcDbCircle
 10
484.2339477327
 20
646.9994864776
 30
0.0
 40
4.197433366238887
  0
SPLINE
  5
132
330
1F
100
AcDbEntity
  8
0
  6
Continuous
 62
     7
370
    25
100
AcDbSpline
210
0.0
220
0.0
230
1.0
 70
     8
 71
     3
 72
    12
 73
     8
 74
     0
 42
0.00000001
 43
0.00000001
 40
0.0
 40
0.0
 40
0.0
 40
0.0
 40
0.213353439547584
 40
0.4267919313634008
 40
0.6383539739091457
 40
0.8490950351927588
 40
0.9999999999999999
 40
0.9999999999999999
 40
0.9999999999999999
 40
0.9999999999999999
 10
484.844437174779
 20
648.3447755324379
 30
0.0
 10
484.8518886222795
 20
648.2612212155699
 30
0.0
 10
484.8667944877627
 20
648.0940792733285
 30
0.0
 10
484.9924495381412
 20
647.8692576755843
 30
0.0
 10
485.1785218124862
 20
647.6987185102237
 30
0.0
 10
485.3887702230153
 20
647.604417615866
 30
0.0
 10
485.529749928259
 20
647.5935115063043
 30
0.0
 10
485.5885768914315
 20
647.588960685997
 30
0.0
  0
SPLINE
  5
133
330
1F
100
AcDbEntity
  8
0
  6
Continuous
 62
     7
370
    25
100
AcDbSpline
210
0.0
220
0.0
230
1.0
 70
     8
 71
     3
 72
    12
 73
     8
 74
     0
 42
0.00000001
 43
0.00000001
 40
0.0
 40
0.0
 40
0.0
 40
0.0
 40
0.2133534395475747
 40
0.4267919313634806
 40
0.6383539739092441
 40
0.8490950351928032
 40
1.0
 40
1.0
 40
1.0
 40
1.0
 10
482.8886586778635
 20
647.609975919616
 30
0.0
 10
482.9722129947315
 20
647.6174273671166
 30
0.0
 10
483.1393549369729
 20
647.6323332325998
 30
0.0
 10
483.3641765347171
 20
647.7579882829782
 30
0.0
 10
483.5347157000776
 20
647.9440605573235
 30
0.0
 10
483.6290165944355
 20
648.1543089678523
 30
0.0
 10
483.639922703997
 20
648.295288673096
 30
0.0
 10
483.6444735243043
 20
648.3541156362685
 30
0.0
  0
LINE
  5
134
330
1F
100
AcDbEntity
  8
0
  6
Continuous
 62
     7
370
    25
100
AcDbLine
 10
686.7397021598
 20
649.5759225983
 30
0.0
 11
687.9389068662
 21
649.6196040844
 31
0.0
  0
LINE
  5
135
330
1F
100
AcDbEntity
  8
0
  6
Continuous
 62
     7
370
    25
100
AcDbLine
 10
686.7852037077
 20
648.3267510292
 30
0.0
 11
686.7397021598
 21
649.5759225983
 31
0.0
  0
SPLINE
  5
136
330
1F
100
AcDbEntity
  8
0
  6
Continuous
 62
     7
370
    25
100
AcDbSpline
210
0.0
220
0.0
230
1.0
 70
     8
 71
     3
 72
    12
 73
     8
 74
     0
 42
0.00000001
 43
0.00000001
 40
0.0
 40
0.0
 40
0.0
 40
0.0
 40
0.2133534395476184
 40
0.4267919313634596
 40
0.638353973909192
 40
0.8490950351927675
 40
1.0
 40
1.0
 40
1.0
 40
1.0
 10
686.0630016950457
 20
647.5499471589559
 30
0.0
 10
686.146145241317
 20
647.5610826270909
 30
0.0
 10
686.3124654786131
 20
647.583358002459
 30
0.0
 10
686.5315163348648
 20
647.7188226283702
 30
0.0
 10
686.693668620836
 20
647.9122473795168
 30
0.0
 10
686.7785890074849
 20
648.1264565780542
 30
0.0
 10
686.7832562115428
 20
648.2677804533289
 30
0.0
 10
686.7852037077498
 20
648.326751029213
 30
0.0
  0
LINE
  5
137
330
1F
100
AcDbEntity
  8
0
  6
Continuous
 62
     7
370
    25
100
AcDbLine
 10
684.8138301259
 20
647.504445611
 30
0.0
 11
686.063001695
 21
647.549947159
 31
0.0
  0
LINE
  5
138
330
1F
100
AcDbEntity
  8
0
  6
Continuous
 62
     7
370
    25
100
AcDbLine
 10
684.857511612
 20
646.3052409046
 30
0.0
 11
684.8138301259
 21
647.504445611
 31
0.0
  0
LINE
  5
139
330
1F
100
AcDbEntity
  8
0
  6
Continuous
 62
     7
370
    25
100
AcDbLine
 10
686.1066831811
 20
646.3507424526
 30
0.0
 11
684.857511612
 21
646.3052409046
 31
0.0
  0
LINE
  5
13A
330
1F
100
AcDbEntity
  8
0
  6
Continuous
 62
     7
370
    25
100
AcDbLine
 10
686.9289885993
 20
644.3793688707
 30
0.0
 11
686.8834870513
 21
645.6285404399
 31
0.0
  0
LINE
  5
13B
330
1F
100
AcDbEntity
  8
0
  6
Continuous
 62
     7
370
    25
100
AcDbLine
 10
688.1281933057
 20
644.4230503568
 30
0.0
 11
686.9289885993
 21
644.3793688707
 31
0.0
  0
LINE
  5
13C
330
1F
100
AcDbEntity
  8
0
  6
Continuous
 62
     7
370
    25
100
AcDbLine
 10
688.0826917577
 20
645.6722219259
 30
0.0
 11
688.1281933057
 21
644.4230503568
 31
0.0
  0
SPLINE
  5
13D
330
1F
100
AcDbEntity
  8
0
  6
Continuous
 62
     7
370
    25
100
AcDbSpline
210
0.0
220
0.0
230
1.0
 70
     8
 71
     3
 72
    12
 73
     8
 74
     0
 42
0.00000001
 43
0.00000001
 40
0.0
 40
0.0
 40
0.0
 40
0.0
 40
0.2133534395475753
 40
0.4267919313635056
 40
0.6383539739092502
 40
0.8490950351928076
 40
1.0
 40
1.0
 40
1.0
 40
1.0
 10
688.8048937704182
 20
646.4490257961828
 30
0.0
 10
688.721750224147
 20
646.4378903280477
 30
0.0
 10
688.555429986851
 20
646.4156149526797
 30
0.0
 10
688.3363791305992
 20
646.2801503267684
 30
0.0
 10
688.174226844628
 20
646.0867255756217
 30
0.0
 10
688.0893064579792
 20
645.8725163770844
 30
0.0
 10
688.0846392539213
 20
645.7311925018097
 30
0.0
 10
688.0826917577143
 20
645.6722219259257
 30
0.0
  0
LINE
  5
13E
330
1F
100
AcDbEntity
  8
0
  6
Continuous
 62
     7
370
    25
100
AcDbLine
 10
690.0540653396
 20
646.4945273441
 30
0.0
 11
688.8048937704
 21
646.4490257962
 31
0.0
  0
LINE
  5
13F
330
1F
100
AcDbEntity
  8
0
  6
Continuous
 62
     7
370
    25
100
AcDbLine
 10
690.0103838535
 20
647.6937320505
 30
0.0
 11
690.0540653396
 21
646.4945273441
 31
0.0
  0
LINE
  5
140
330
1F
100
AcDbEntity
  8
0
  6
Continuous
 62
     7
370
    25
100
AcDbLine
 10
688.7612122844
 20
647.6482305026
 30
0.0
 11
690.0103838535
 21
647.6937320505
 31
0.0
  0
SPLINE
  5
141
330
1F
100
AcDbEntity
  8
0
  6
Continuous
 62
     7
370
    25
100
AcDbSpline
210
0.0
220
0.0
230
1.0
 70
     8
 71
     3
 72
    12
 73
     8
 74
     0
 42
0.00000001
 43
0.00000001
 40
0.0
 40
0.0
 40
0.0
 40
0.0
 40
0.213353439547545
 40
0.4267919313633913
 40
0.6383539739091076
 40
0.8490950351927407
 40
1.0
 40
1.0
 40
1.0
 40
1.0
 10
687.9844084141187
 20
648.3704325152555
 30
0.0
 10
687.9955438822537
 20
648.2872889689843
 30
0.0
 10
688.0178192576218
 20
648.1209687316882
 30
0.0
 10
688.1532838835328
 20
647.9019178754365
 30
0.0
 10
688.3467086346795
 20
647.7397655894654
 30
0.0
 10
688.560917833217
 20
647.6548452028163
 30
0.0
 10
688.7022417084916
 20
647.6501779987585
 30
0.0
 10
688.7612122843757
 20
647.6482305025515
 30
0.0
  0
LINE
  5
142
330
1F
100
AcDbEntity
  8
0
  6
Continuous
 62
     7
370
    25
100
AcDbLine
 10
687.9389068662
 20
649.6196040844
 30
0.0
 11
687.9844084141
 21
648.3704325153
 31
0.0
  0
CIRCLE
  5
143
330
1F
100
AcDbEntity
  8
0
  6
Continuous
 62
     7
370
    25
100
AcDbCircle
 10
687.4339477327
 20
646.9994864776
 30
0.0
 40
4.197433366238879
  0
SPLINE
  5
144
330
1F
100
AcDbEntity
  8
0
  6
Continuous
 62
     7
370
    25
100
AcDbSpline
210
0.0
220
0.0
230
1.0
 70
     8
 71
     3
 72
    12
 73
     8
 74
     0
 42
0.00000001
 43
0.00000001
 40
0.0
 40
0.0
 40
0.0
 40
0.0
 40
0.2133534395475726
 40
0.4267919313634032
 40
0.6383539739091573
 40
0.8490950351927746
 40
1.0
 40
1.0
 40
1.0
 40
1.0
 10
686.8834870513454
 20
645.6285404398832
 30
0.0
 10
686.8723515832104
 20
645.7116839861543
 30
0.0
 10
686.8500762078423
 20
645.8780042234504
 30
0.0
 10
686.7146115819313
 20
646.0970550797022
 30
0.0
 10
686.5211868307846
 20
646.2592073656734
 30
0.0
 10
686.306977632247
 20
646.344127752322
 30
0.0
 10
686.1656537569723
 20
646.3487949563801
 30
0.0
 10
686.1066831810883
 20
646.3507424525872
 30
0.0
  0
SPLINE
  5
145
330
1F
100
AcDbEntity
  8
0
  6
Continuous
 62
     7
370
    25
100
AcDbSpline
210
0.0
220
0.0
230
1.0
 70
     8
 71
     3
 72
    11
 73
     7
 74
     0
 42
0.00000001
 43
0.00000001
 40
0.0
 40
0.0
 40
0.0
 40
0.0
 40
0.2200386424382226
 40
0.663786990599816
 40
0.8890365590789613
 40
1.0
 40
1.0
 40
1.0
 40
1.0
 10
693.8968989369841
 20
653.0136287639248
 30
0.0
 10
694.1106320589356
 20
652.7562197064988
 30
0.0
 10
694.7553972885314
 20
651.9796979933643
 30
0.0
 10
695.3245805857114
 20
650.7364237262906
 30
0.0
 10
695.6185076054045
 20
649.5797866653999
 30
0.0
 10
695.6164253520895
 20
649.0680919471826
 30
0.0
 10
695.6157381270679
 20
648.8992126800304
 30
0.0
  0
SPLINE
  5
146
330
1F
100
AcDbEntity
  8
0
  6
Continuous
 62
     7
370
    25
100
AcDbSpline
210
0.0
220
0.0
230
1.0
 70
     8
 71
     3
 72
     9
 73
     5
 74
     0
 42
0.00000001
 43
0.00000001
 40
0.0
 40
0.0
 40
0.0
 40
0.0
 40
0.9209630919903187
 40
1.0
 40
1.0
 40
1.0
 40
1.0
 10
695.5475145347709
 20
652.7532173538415
 30
0.0
 10
695.0313653517246
 20
652.7912811699065
 30
0.0
 10
694.4709203267987
 20
652.832611616692
 30
0.0
 10
693.9389446496428
 20
653.0003696849184
 30
0.0
 10
693.8968989369841
 20
653.0136287639247
 30
0.0
  0
SPLINE
  5
147
330
1F
100
AcDbEntity
  8
0
  6
Continuous
 62
     7
370
    25
100
AcDbSpline
210
0.0
220
0.0
230
1.0
 70
     8
 71
     3
 72
    10
 73
     6
 74
     0
 42
0.00000001
 43
0.00000001
 40
0.0
 40
0.0
 40
0.0
 40
0.0
 40
0.2596150688488831
 40
0.6297606444810658
 40
1.0
 40
1.0
 40
1.0
 40
1.0
 10
742.785746305976
 20
651.8806116048459
 30
0.0
 10
738.699717219164
 20
652.0317293756741
 30
0.0
 10
728.7880417432812
 20
652.3983029539003
 30
0.0
 10
713.0388319026539
 20
652.6510265734997
 30
0.0
 10
701.3784459732314
 20
652.7191508841022
 30
0.0
 10
695.5475145347709
 20
652.7532173538415
 30
0.0
  0
SPLINE
  5
148
330
1F
100
AcDbEntity
  8
0
  6
Continuous
 62
     7
370
    25
100
AcDbSpline
210
0.0
220
0.0
230
1.0
 70
     8
 71
     3
 72
    11
 73
     7
 74
     0
 42
0.00000001
 43
0.00000001
 40
0.0
 40
0.0
 40
0.0
 40
0.0
 40
0.0614641195413878
 40
0.499998893783535
 40
0.9375097801832768
 40
1.0
 40
1.0
 40
1.0
 40
1.0
 10
742.9941809743465
 20
646.1583741553918
 30
0.0
 10
743.0016032588369
 20
646.275178719796
 30
0.0
 10
743.0619821280422
 20
647.2253615813863
 30
0.0
 10
743.0802075672295
 20
649.0244615523479
 30
0.0
 10
742.9311999930804
 20
650.8194251189408
 30
0.0
 10
742.8019055469448
 20
651.7627186281871
 30
0.0
 10
742.785746305976
 20
651.8806116048459
 30
0.0
  0
SPLINE
  5
149
330
1F
100
AcDbEntity
  8
0
  6
Continuous
 62
     7
370
    25
100
AcDbSpline
210
0.0
220
0.0
230
1.0
 70
     8
 71
     3
 72
    10
 73
     6
 74
     0
 42
0.00000001
 43
0.00000001
 40
0.0
 40
0.0
 40
0.0
 40
0.0
 40
0.2594618540778867
 40
0.6296073956705965
 40
1.0
 40
1.0
 40
1.0
 40
1.0
 10
695.9446210127716
 20
641.8512998484604
 30
0.0
 10
700.0186903554612
 20
642.1671946848863
 30
0.0
 10
709.9047840078341
 20
642.9337417596955
 30
0.0
 10
725.5970148474494
 20
644.2926423569149
 30
0.0
 10
737.193835931927
 20
645.5363252476075
 30
0.0
 10
742.9941809743464
 20
646.1583741553919
 30
0.0
  0
SPLINE
  5
14A
330
1F
100
AcDbEntity
  8
0
  6
Continuous
 62
     7
370
    25
100
AcDbSpline
210
0.0
220
0.0
230
1.0
 70
     8
 71
     3
 72
     9
 73
     5
 74
     0
 42
0.00000001
 43
0.00000001
 40
0.0
 40
0.0
 40
0.0
 40
0.0
 40
0.0790369080192368
 40
1.0
 40
1.0
 40
1.0
 40
1.0
 10
694.3173257428084
 20
641.4714892923785
 30
0.0
 10
694.3582953760684
 20
641.4877722368324
 30
0.0
 10
694.8766561556931
 20
641.693789208675
 30
0.0
 10
695.4326089803658
 20
641.7757848703526
 30
0.0
 10
695.9446210127716
 20
641.8512998484604
 30
0.0
  0
SPLINE
  5
14B
330
1F
100
AcDbEntity
  8
0
  6
Continuous
 62
     7
370
    25
100
AcDbSpline
210
0.0
220
0.0
230
1.0
 70
     8
 71
     3
 72
    11
 73
     7
 74
     0
 42
0.00000001
 43
0.00000001
 40
0.0
 40
0.0
 40
0.0
 40
0.0
 40
0.072883806494315
 40
0.414071941159603
 40
0.9209668754550673
 40
1.0
 40
1.0
 40
1.0
 40
1.0
 10
695.7322686737152
 20
645.700054578047
 30
0.0
 10
695.7439990966584
 20
645.589962182579
 30
0.0
 10
695.8106426932587
 20
644.9644985289767
 30
0.0
 10
695.5167219144371
 20
643.5698831442357
 30
0.0
 10
694.9236835955628
 20
642.2775077823391
 30
0.0
 10
694.3893936422481
 20
641.5672876055646
 30
0.0
 10
694.3173257428084
 20
641.4714892923785
 30
0.0
  0
SPLINE
  5
14C
330
1F
100
AcDbEntity
  8
0
  6
Continuous
 62
     7
370
    25
100
AcDbSpline
210
0.0
220
0.0
230
1.0
 70
     8
 71
     3
 72
    10
 73
     6
 74
     0
 42
0.00000001
 43
0.00000001
 40
0.0
 40
0.0
 40
0.0
 40
0.0
 40
0.3880207377811378
 40
0.9790637766506785
 40
1.0
 40
1.0
 40
1.0
 40
1.0
 10
695.615738127068
 20
648.8992126800304
 30
0.0
 10
695.5574272648676
 20
648.4859763604026
 30
0.0
 10
695.4102958169659
 20
647.4432879874623
 30
0.0
 10
695.5457538713343
 20
646.3537274063242
 30
0.0
 10
695.7260989470303
 20
645.7216774339295
 30
0.0
 10
695.7322686737152
 20
645.700054578047
 30
0.0
  0
ARC
  5
14D
330
1F
100
AcDbEntity
  8
0
  6
Continuous
 62
     7
370
    25
100
AcDbCircle
 10
687.4339477327
 20
646.9994864776
 30
0.0
 40
8.399443654264447
100
AcDbArc
 50
13.0718561911
 51
351.1003402052
  0
SPLINE
  5
14E
330
1F
100
AcDbEntity
  8
0
  6
Continuous
 62
     7
370
    25
100
AcDbSpline
210
0.0
220
0.0
230
1.0
 70
     8
 71
     3
 72
     9
 73
     5
 74
     0
 42
0.00000001
 43
0.00000001
 40
0.0
 40
0.0
 40
0.0
 40
0.0
 40
0.6817923421275038
 40
1.0
 40
1.0
 40
1.0
 40
1.0
 10
694.3173257428084
 20
641.4714892923785
 30
0.0
 10
694.18206943869
 20
641.2765262295711
 30
0.0
 10
693.9836860076055
 20
640.9905695668738
 30
0.0
 10
693.7628902320755
 20
640.7494681656008
 30
0.0
 10
693.692631325476
 20
640.6727478533919
 30
0.0
  0
ARC
  5
14F
330
1F
100
AcDbEntity
  8
0
  6
Continuous
 62
     7
370
    25
100
AcDbCircle
 10
687.4339477327
 20
646.9994864776
 30
0.0
 40
8.89936750183639
100
AcDbArc
 50
49.4820173942
 51
314.690179002
  0
LINE
  5
150
330
1F
100
AcDbEntity
  8
0
  6
Continuous
 62
     7
370
    25
100
AcDbLine
 10
693.2157482063
 20
653.7648042984
 30
0.0
 11
693.896898937
 21
653.0136287639
 31
0.0
  0
SPLINE
  5
151
330
1F
100
AcDbEntity
  8
0
  6
Continuous
 62
     7
370
    25
100
AcDbSpline
210
0.0
220
0.0
230
1.0
 70
     8
 71
     3
 72
    10
 73
     6
 74
     0
 42
0.00000001
 43
0.00000001
 40
0.0
 40
0.0
 40
0.0
 40
0.0
 40
0.3702896688583029
 40
0.7405318123903285
 40
1.0
 40
1.0
 40
1.0
 40
1.0
 10
743.0218134402273
 20
645.7162274001205
 30
0.0
 10
737.2172621598772
 20
645.184391059102
 30
0.0
 10
725.6089045921291
 20
644.1207866363168
 30
0.0
 10
709.9320949880779
 20
642.6799421091316
 30
0.0
 10
700.0614553234892
 20
641.7712953994552
 30
0.0
 10
695.9943202334939
 20
641.3968932286829
 30
0.0
  0
ARC
  5
152
330
1F
100
AcDbEntity
  8
0
  6
Continuous
 62
     7
370
    25
100
AcDbCircle
 10
703.1772034822
 20
642.4124184747
 30
0.0
 40
7.254316183480279
100
AcDbArc
 50
184.436238143
 51
188.0472159294
  0
ARC
  5
153
330
1F
100
AcDbEntity
  8
0
  6
Continuous
 62
     7
370
    25
100
AcDbCircle
 10
738.7600828521
 20
645.671822524
 30
0.0
 40
4.261961918957334
100
AcDbArc
 50
0.5969687368
 51
6.5552595045
  0
SPLINE
  5
154
330
1F
100
AcDbEntity
  8
0
  6
Continuous
 62
     7
370
    25
100
AcDbSpline
210
0.0
220
0.0
230
1.0
 70
     8
 71
     3
 72
    10
 73
     6
 74
     0
 42
0.00000001
 43
0.00000001
 40
0.0
 40
0.0
 40
0.0
 40
0.0
 40
0.3702717503651149
 40
0.7405122151371735
 40
1.0
 40
1.0
 40
1.0
 40
1.0
 10
695.5640220450791
 20
653.2100355788954
 30
0.0
 10
701.391577586264
 20
653.0995641172144
 30
0.0
 10
713.0461962774885
 20
652.8786305279839
 30
0.0
 10
728.7865440083677
 20
652.5825879896429
 30
0.0
 10
738.697286190671
 20
652.3991748113549
 30
0.0
 10
742.781137497522
 20
652.3235970055694
 30
0.0
  0
ARC
  5
155
330
1F
100
AcDbEntity
  8
0
  6
Continuous
 62
     7
370
    25
100
AcDbCircle
 10
738.5274702777
 20
652.0578252884
 30
0.0
 40
4.261961921792405
100
AcDbArc
 50
357.6169368941
 51
3.5752276579
  0
ARC
  5
156
330
1F
100
AcDbEntity
  8
0
  6
Continuous
 62
     7
370
    25
100
AcDbCircle
 10
702.8017536873
 20
652.7197866971
 30
0.0
 40
7.254316183590207
100
AcDbArc
 50
176.1249804668
 51
179.7359582532
  0
SPLINE
  5
157
330
1F
100
AcDbEntity
  8
0
  6
Continuous
 62
     7
370
    25
100
AcDbSpline
210
0.0
220
0.0
230
1.0
 70
     8
 71
     3
 72
    12
 73
     8
 74
     0
 42
0.00000001
 43
0.00000001
 40
0.0
 40
0.0
 40
0.0
 40
0.0
 40
0.1224290494151414
 40
0.3423522449770244
 40
0.5614228816909455
 40
0.7807229538533467
 40
1.0
 40
1.0
 40
1.0
 40
1.0
 10
744.7242195298522
 20
651.8404734597407
 30
0.0
 10
744.715135562357
 20
651.8425028214642
 30
0.0
 10
744.6897337751167
 20
651.8481775901995
 30
0.0
 10
744.4732701250756
 20
651.8573120668414
 30
0.0
 10
744.0367322534669
 20
651.8669389020084
 30
0.0
 10
743.4521178975966
 20
651.8752158835712
 30
0.0
 10
743.007862395136
 20
651.8788130940409
 30
0.0
 10
742.785746305976
 20
651.8806116048459
 30
0.0
  0
SPLINE
  5
158
330
1F
100
AcDbEntity
  8
0
  6
Continuous
 62
     7
370
    25
100
AcDbSpline
210
0.0
220
0.0
230
1.0
 70
     8
 71
     3
 72
    11
 73
     7
 74
     0
 42
0.00000001
 43
0.00000001
 40
0.0
 40
0.0
 40
0.0
 40
0.0
 40
0.0800485240044369
 40
0.5000005853538917
 40
0.9209248322279632
 40
1.0
 40
1.0
 40
1.0
 40
1.0
 10
744.7242195298522
 20
651.8404734597407
 30
0.0
 10
744.7292569533232
 20
651.6943155377055
 30
0.0
 10
744.76072180187
 20
650.7813811959348
 30
0.0
 10
744.8211655312894
 20
649.0880495882429
 30
0.0
 10
744.8840161226105
 20
647.3965895695944
 30
0.0
 10
744.919055356859
 20
646.4837967168501
 30
0.0
 10
744.92459683
 20
646.3394380519045
 30
0.0
  0
SPLINE
  5
159
330
1F
100
AcDbEntity
  8
0
  6
Continuous
 62
     7
370
    25
100
AcDbSpline
210
0.0
220
0.0
230
1.0
 70
     8
 71
     3
 72
    12
 73
     8
 74
     0
 42
0.00000001
 43
0.00000001
 40
0.0
 40
0.0
 40
0.0
 40
0.0
 40
0.1130367476169243
 40
0.3328594693547973
 40
0.5544127937944888
 40
0.7774207483513277
 40
1.0
 40
1.0
 40
1.0
 40
1.0
 10
742.9941809743464
 20
646.1583741553919
 30
0.0
 10
743.1079936533353
 20
646.167538397103
 30
0.0
 10
743.44313800889
 20
646.1945243525322
 30
0.0
 10
743.9759203267249
 20
646.2395403268898
 30
0.0
 10
744.4910889458988
 20
646.2861992884466
 30
0.0
 10
744.8468938197451
 20
646.3226170357315
 30
0.0
 10
744.8987124449488
 20
646.3338346440295
 30
0.0
 10
744.92459683
 20
646.3394380519045
 30
0.0
  0
SPLINE
  5
15A
330
1F
100
AcDbEntity
  8
0
  6
Continuous
 62
     7
370
    25
100
AcDbSpline
210
0.0
220
0.0
230
1.0
 70
     8
 71
     3
 72
     9
 73
     5
 74
     0
 42
0.00000001
 43
0.00000001
 40
0.0
 40
0.0
 40
0.0
 40
0.0
 40
0.500010612381542
 40
1.0
 40
1.0
 40
1.0
 40
1.0
 10
692.7007522616811
 20
654.1781634490453
 30
0.0
 10
693.1406665849862
 20
653.9061560656468
 30
0.0
 10
694.020476557838
 20
653.362152845189
 30
0.0
 10
695.0495141630252
 20
653.2607406168431
 30
0.0
 10
695.5640220450791
 20
653.2100355788954
 30
0.0
  0
SPLINE
  5
15B
330
1F
100
AcDbEntity
  8
0
  6
Continuous
 62
     7
370
    25
100
AcDbSpline
210
0.0
220
0.0
230
1.0
 70
     8
 71
     3
 72
     9
 73
     5
 74
     0
 42
0.00000001
 43
0.00000001
 40
0.0
 40
0.0
 40
0.0
 40
0.0
 40
0.9838702326458978
 40
1.0
 40
1.0
 40
1.0
 40
1.0
 10
693.2157482063294
 20
653.7648042983558
 30
0.0
 10
693.0492422399743
 20
653.9036677189983
 30
0.0
 10
692.8800065411696
 20
654.0448076946117
 30
0.0
 10
692.7035976953238
 20
654.1760465960966
 30
0.0
 10
692.7007522616811
 20
654.1781634490453
 30
0.0
  0
SPLINE
  5
15C
330
1F
100
AcDbEntity
  8
0
  6
Continuous
 62
     7
370
    25
100
AcDbSpline
210
0.0
220
0.0
230
1.0
 70
     8
 71
     3
 72
     9
 73
     5
 74
     0
 42
0.00000001
 43
0.00000001
 40
0.0
 40
0.0
 40
0.0
 40
0.0
 40
0.5055561057107091
 40
1.0
 40
1.0
 40
1.0
 40
1.0
 10
695.9943202334939
 20
641.3968932286829
 30
0.0
 10
695.4791760245021
 20
641.307426013345
 30
0.0
 10
694.4602105661232
 20
641.130458087674
 30
0.0
 10
693.6230183680317
 20
640.523247554557
 30
0.0
 10
693.2090737973386
 20
640.2230160139089
 30
0.0
  0
SPLINE
  5
15D
330
1F
100
AcDbEntity
  8
0
  6
Continuous
 62
     7
370
    25
100
AcDbSpline
210
0.0
220
0.0
230
1.0
 70
     8
 71
     3
 72
     9
 73
     5
 74
     0
 42
0.00000001
 43
0.00000001
 40
0.0
 40
0.0
 40
0.0
 40
0.0
 40
0.0161297673533785
 40
1.0
 40
1.0
 40
1.0
 40
1.0
 10
693.2090737973386
 20
640.223016013909
 30
0.0
 10
693.211757680296
 20
640.2253342743111
 30
0.0
 10
693.3781508401412
 20
640.3690598688105
 30
0.0
 10
693.536669517502
 20
640.5221384218247
 30
0.0
 10
693.6926313254759
 20
640.6727478533919
 30
0.0
  0
SPLINE
  5
15E
330
1F
100
AcDbEntity
  8
0
  6
Continuous
 62
     7
370
    25
100
AcDbSpline
210
0.0
220
0.0
230
1.0
 70
     8
 71
     3
 72
    12
 73
     8
 74
     0
 42
0.00000001
 43
0.00000001
 40
0.0
 40
0.0
 40
0.0
 40
0.0
 40
0.2230315344150071
 40
0.4461337558340058
 40
0.6675099896777096
 40
0.8870667292264984
 40
1.0
 40
1.0
 40
1.0
 40
1.0
 10
744.4707257691317
 20
645.8234115183343
 30
0.0
 10
744.4511361215766
 20
645.8245894588727
 30
0.0
 10
744.411950617777
 20
645.8269457132827
 30
0.0
 10
744.1447915068692
 20
645.8102669007391
 30
0.0
 10
743.758086708331
 20
645.7805818711034
 30
0.0
 10
743.3583340732621
 20
645.7466706255834
 30
0.0
 10
743.1071353741817
 20
645.7239460200722
 30
0.0
 10
743.0218134402273
 20
645.7162274001205
 30
0.0
  0
ARC
  5
15F
330
1F
100
AcDbEntity
  8
0
  6
Continuous
 62
     7
370
    25
100
AcDbCircle
 10
744.424822317
 20
646.3214002716
 30
0.0
 40
0.500099915347069
100
AcDbArc
 50
275.2665101228
 51
2.0670127364
  0
SPLINE
  5
160
330
1F
100
AcDbEntity
  8
0
  6
Continuous
 62
     7
370
    25
100
AcDbSpline
210
0.0
220
0.0
230
1.0
 70
     8
 71
     3
 72
    12
 73
     8
 74
     0
 42
0.00000001
 43
0.00000001
 40
0.0
 40
0.0
 40
0.0
 40
0.0
 40
0.2190444340108951
 40
0.4380981679380131
 40
0.657102749369172
 40
0.8772791087290133
 40
1.0
 40
1.0
 40
1.0
 40
1.0
 10
742.7811374975221
 20
652.3235970055694
 30
0.0
 10
742.9477663255431
 20
652.320831855719
 30
0.0
 10
743.2810310561048
 20
652.3153014386191
 30
0.0
 10
743.719609608751
 20
652.3117453948994
 30
0.0
 10
744.0467702851691
 20
652.3123490651136
 30
0.0
 10
744.2085732920696
 20
652.3164177233415
 30
0.0
 10
744.2273044064341
 20
652.3206107673428
 30
0.0
 10
744.2340081611159
 20
652.3221114329097
 30
0.0
  0
ARC
  5
161
330
1F
100
AcDbEntity
  8
0
  6
Continuous
 62
     7
370
    25
100
AcDbCircle
 10
744.2244571447
 20
651.8221027296
 30
0.0
 40
0.5000999153471534
100
AcDbArc
 50
2.1051836605
 51
88.9056862734
  0
LINE
  5
162
330
1F
100
AcDbEntity
  8
0
  6
Continuous
 62
     7
370
    25
100
AcDbLine
 10
695.9943202335
 20
641.3968932287
 30
0.0
 11
696.0238835845
 21
641.326632531
 31
0.0
  0
LINE
  5
163
330
1F
100
AcDbEntity
  8
0
  6
Continuous
 62
     7
370
    25
100
AcDbLine
 10
744.4755745865
 20
645.8191467418
 30
0.0
 11
744.4707257691
 21
645.8234115183
 31
0.0
  0
ELLIPSE
  5
164
330
1F
100
AcDbEntity
  8
0
  6
Continuous
 62
     7
370
    25
100
AcDbEllipse
 10
742.9798289577
 20
645.681315952
 30
0.0
 11
1.495988521560662
 21
0.13741954228135
 31
0.0
210
0.0
220
0.0
230
1.0
 40
0.0174284859
 41
5.396717970287003
 42
6.299675703197905
  0
LINE
  5
165
330
1F
100
AcDbEntity
  8
0
  6
Continuous
 62
     7
370
    25
100
AcDbLine
 10
740.4734806065
 20
645.381123229
 30
0.0
 11
743.9273786891
 21
645.7479838103
 31
0.0
  0
LINE
  5
166
330
1F
100
AcDbEntity
  8
0
  6
Continuous
 62
     7
370
    25
100
AcDbLine
 10
740.4734770249
 20
645.3812215551
 30
0.0
 11
740.4734806065
 21
645.381123229
 31
0.0
  0
ELLIPSE
  5
167
330
1F
100
AcDbEntity
  8
0
  6
Continuous
 62
     7
370
    25
100
AcDbEllipse
 10
731.0422527254
 20
644.7078209671
 30
0.0
 11
14.46122237508621
 21
1.328388908718807
 31
0.0
210
0.0
220
0.0
230
1.0
 40
0.0174284859
 41
4.685109492442223
 42
5.421234828998541
  0
ELLIPSE
  5
168
330
1F
100
AcDbEntity
  8
0
  6
Continuous
 62
     7
370
    25
100
AcDbEllipse
 10
729.7567098002
 20
643.7100808164
 30
0.0
 11
35.60716134593144
 21
3.270827111018548
 31
0.0
210
0.0
220
0.0
230
1.0
 40
0.0174284859
 41
1.543516838852413
 42
2.025717338718044
  0
ELLIPSE
  5
169
330
1F
100
AcDbEntity
  8
0
  6
Continuous
 62
     7
370
    25
100
AcDbEllipse
 10
710.7626435607
 20
642.6455717261
 30
0.0
 11
7.479942607803309
 21
0.6870977114061816
 31
0.0
210
0.0
220
0.0
230
1.0
 40
0.0174284859
 41
4.976419334597479
 42
5.167309992307707
  0
LINE
  5
16A
330
1F
100
AcDbEntity
  8
0
  6
Continuous
 62
     7
370
    25
100
AcDbLine
 10
712.7011896518
 20
642.8486162223
 30
0.0
 11
712.7262693093
 21
642.6990394772
 31
0.0
  0
SPLINE
  5
16B
330
1F
100
AcDbEntity
  8
0
  6
Continuous
 62
     7
370
    25
100
AcDbSpline
210
0.0
220
0.0
230
1.0
 70
     8
 71
     3
 72
    10
 73
     6
 74
     0
 42
0.00000001
 43
0.00000001
 40
0.0
 40
0.0
 40
0.0
 40
0.0
 40
0.0186368637458823
 40
0.3939469944633812
 40
1.0
 40
1.0
 40
1.0
 40
1.0
 10
712.5175578638788
 20
642.8414406750396
 30
0.0
 10
712.5200092490632
 20
642.8416177763482
 30
0.0
 10
712.5718267564918
 20
642.8453613530169
 30
0.0
 10
712.6756591256436
 20
642.8518252451245
 30
0.0
 10
712.691442458395
 20
642.8498413817899
 30
0.0
 10
712.7011896517611
 20
642.8486162223234
 30
0.0
  0
LINE
  5
16C
330
1F
100
AcDbEntity
  8
0
  6
Continuous
 62
     7
370
    25
100
AcDbLine
 10
696.0238835845
 20
641.326632531
 30
0.0
 11
712.5175578639
 21
642.841440675
 31
0.0
  0
LINE
  5
16D
330
1F
100
AcDbEntity
  8
0
  6
Continuous
 62
     7
370
    25
100
AcDbLine
 10
712.1500429015
 20
652.9877198193
 30
0.0
 11
695.5938508288
 21
653.2984543251
 31
0.0
  0
SPLINE
  5
16E
330
1F
100
AcDbEntity
  8
0
  6
Continuous
 62
     7
370
    25
100
AcDbSpline
210
0.0
220
0.0
230
1.0
 70
     8
 71
     3
 72
    11
 73
     7
 74
     0
 42
0.00000001
 43
0.00000001
 40
0.0
 40
0.0
 40
0.0
 40
0.0
 40
0.4177469294495119
 40
0.839277066241066
 40
0.9817832068818871
 40
0.9999999999999999
 40
0.9999999999999999
 40
0.9999999999999999
 40
0.9999999999999999
 10
712.3336757138431
 20
652.9930583739081
 30
0.0
 10
712.3290811884775
 20
652.9918071070408
 30
0.0
 10
712.3198505287221
 20
652.9892932415609
 30
0.0
 10
712.2443603371262
 20
652.98774645687
 30
0.0
 10
712.1740567708747
 20
652.9876577885723
 30
0.0
 10
712.1524876112483
 20
652.9877135043336
 30
0.0
 10
712.1500429015266
 20
652.9877198193159
 30
0.0
  0
LINE
  5
16F
330
1F
100
AcDbEntity
  8
0
  6
Continuous
 62
     7
370
    25
100
AcDbLine
 10
712.3463664216
 20
653.1286601745
 30
0.0
 11
712.3336757138
 21
652.9930583739
 31
0.0
  0
ELLIPSE
  5
170
330
1F
100
AcDbEntity
  8
0
  6
Continuous
 62
     7
370
    25
100
AcDbEllipse
 10
710.3840544733
 20
653.0391241567
 30
0.0
 11
7.510109272643604
 21
-0.1410793890007653
 31
0.0
210
0.0
220
0.0
230
1.0
 40
0.0174284859
 41
1.115875314871509
 42
1.306765972581676
  0
ELLIPSE
  5
171
330
1F
100
AcDbEntity
  8
0
  6
Continuous
 62
     7
370
    25
100
AcDbEllipse
 10
729.4052320682
 20
653.3593347345
 30
0.0
 11
35.75076529566275
 21
-0.6715875816344125
 31
0.0
210
0.0
220
0.0
230
1.0
 40
0.0174284859
 41
4.257467968461783
 42
4.739668468327168
  0
ELLIPSE
  5
172
330
1F
100
AcDbEntity
  8
0
  6
Continuous
 62
     7
370
    25
100
AcDbEllipse
 10
730.7599579895
 20
652.4577673774
 30
0.0
 11
14.51954459377782
 21
-0.2727534854016085
 31
0.0
210
0.0
220
0.0
230
1.0
 40
0.0174284859
 41
0.8619504781818979
 42
1.598075814737374
  0
LINE
  5
173
330
1F
100
AcDbEntity
  8
0
  6
Continuous
 62
     7
370
    25
100
AcDbLine
 10
740.2151777564
 20
652.4724111308
 30
0.0
 11
740.2151813379
 21
652.4723128048
 31
0.0
  0
LINE
  5
174
330
1F
100
AcDbEntity
  8
0
  6
Continuous
 62
     7
370
    25
100
AcDbLine
 10
743.6866133207
 20
652.3578084529
 30
0.0
 11
740.2151777564
 21
652.4724111308
 31
0.0
  0
ELLIPSE
  5
175
330
1F
100
AcDbEntity
  8
0
  6
Continuous
 62
     7
370
    25
100
AcDbEllipse
 10
742.7367243227
 20
652.3553613863
 30
0.0
 11
1.502021854528607
 21
-0.02821587780022128
 31
0.0
210
0.0
220
0.0
230
1.0
 40
0.0174284859
 41
6.266694911158249
 42
7.169652644071054
  0
LINE
  5
176
330
1F
100
AcDbEntity
  8
0
  6
Continuous
 62
     7
370
    25
100
AcDbLine
 10
744.2340081611
 20
652.3221114329
 30
0.0
 11
744.2385338481
 21
652.3267176794
 31
0.0
  0
LINE
  5
177
330
1F
100
AcDbEntity
  8
0
  6
Continuous
 62
     7
370
    25
100
AcDbLine
 10
695.5938508288
 20
653.2984543251
 30
0.0
 11
695.5640220451
 21
653.2100355789
 31
0.0
  0
SPLINE
  5
178
330
1F
100
AcDbEntity
  8
0
  6
Continuous
 62
     7
370
    25
100
AcDbSpline
210
0.0
220
0.0
230
1.0
 70
     8
 71
     3
 72
     9
 73
     5
 74
     0
 42
0.00000001
 43
0.00000001
 40
0.0
 40
0.0
 40
0.0
 40
0.0
 40
0.5001021276704734
 40
1.0
 40
1.0
 40
1.0
 40
1.0
 10
693.2446618977865
 20
640.1585773114684
 30
0.0
 10
693.6628955027269
 20
640.4605272824449
 30
0.0
 10
694.4991918946029
 20
641.0643038997989
 30
0.0
 10
695.5157222318169
 20
641.2392015618644
 30
0.0
 10
696.0238835845486
 20
641.3266325310063
 30
0.0
  0
LINE
  5
179
330
1F
100
AcDbEntity
  8
0
  6
Continuous
 62
     7
370
    25
100
AcDbLine
 10
693.2446618978
 20
640.1585773115
 30
0.0
 11
693.2090737973
 21
640.2230160139
 31
0.0
  0
SPLINE
  5
17A
330
1F
100
AcDbEntity
  8
0
  6
Continuous
 62
     7
370
    25
100
AcDbSpline
210
0.0
220
0.0
230
1.0
 70
     8
 71
     3
 72
     9
 73
     5
 74
     0
 42
0.00000001
 43
0.00000001
 40
0.0
 40
0.0
 40
0.0
 40
0.0
 40
0.4007227371565416
 40
1.0
 40
1.0
 40
1.0
 40
1.0
 10
695.5938508288402
 20
653.2984543250582
 30
0.0
 10
695.1836734757048
 20
653.3319528244716
 30
0.0
 10
694.1600795662457
 20
653.4155480296029
 30
0.0
 10
693.2711908995859
 20
653.943648650602
 30
0.0
 10
692.7385001324574
 20
654.2601273452602
 30
0.0
  0
LINE
  5
17B
330
1F
100
AcDbEntity
  8
0
  6
Continuous
 62
     7
370
    25
100
AcDbLine
 10
692.7007522617
 20
654.178163449
 30
0.0
 11
692.7385001325
 21
654.2601273453
 31
0.0
  0
ARC
  5
17C
330
1F
100
AcDbEntity
  8
0
  6
Continuous
 62
     7
370
    25
100
AcDbCircle
 10
687.4339477327
 20
646.9994864776
 30
0.0
 40
8.97565804422211
100
AcDbArc
 50
247.2509835928
 51
310.344796181
  0
LWPOLYLINE
  5
17D
330
1F
100
AcDbEntity
  8
0
  6
Continuous
 62
     7
370
    25
100
AcDbPolyline
 90
        3
 70
   128
 43
0.0
 10
683.8015766479
 20
638.6110445532
 10
683.9036772313
 20
638.6810599545
 10
683.9631044765
 20
638.7220663229
  0
ARC
  5
17E
330
1F
100
AcDbEntity
  8
0
  6
Continuous
 62
     7
370
    25
100
AcDbCircle
 10
687.4339477327
 20
646.9994864776
 30
0.0
 40
9.14112015109222
100
AcDbArc
 50
117.5858146157
 51
246.5863776271
  0
LWPOLYLINE
  5
17F
330
1F
100
AcDbEntity
  8
0
  6
Continuous
 62
     7
370
    25
100
AcDbPolyline
 90
        3
 70
   128
 43
0.0
 10
683.3534243458
 20
655.0122582115
 10
683.3078321084
 20
655.0390262335
 10
683.200908185
 20
655.1014278381
  0
ARC
  5
180
330
1F
100
AcDbEntity
  8
0
  6
Continuous
 62
     7
370
    25
100
AcDbCircle
 10
687.4339477327
 20
646.9994864776
 30
0.0
 40
8.991950954660656
100
AcDbArc
 50
53.8485053452
 51
116.9875793647
  0
LINE
  5
181
330
1F
100
AcDbEntity
  8
0
  6
Continuous
 62
     7
370
    25
100
AcDbLine
 10
744.7287452168
 20
651.8450797062
 30
0.0
 11
744.7242195299
 21
651.8404734597
 31
0.0
  0
LINE
  5
182
330
1F
100
AcDbEntity
  8
0
  6
Continuous
 62
     7
370
    25
100
AcDbLine
 10
744.9294456473
 20
646.3351732753
 30
0.0
 11
744.7287452168
 21
651.8450797062
 31
0.0
  0
LINE
  5
183
330
1F
100
AcDbEntity
  8
0
  6
Continuous
 62
     7
370
    25
100
AcDbLine
 10
744.92459683
 20
646.3394380519
 30
0.0
 11
744.9294456473
 21
646.3351732753
 31
0.0
  0
ARC
  5
184
330
1F
100
AcDbEntity
  8
0
  6
Continuous
 62
     7
370
    25
100
AcDbCircle
 10
744.2289828317
 20
651.826708976
 30
0.0
 40
0.5000999153471477
100
AcDbArc
 50
2.1051836599
 51
88.9056862734
  0
ARC
  5
185
330
1F
100
AcDbEntity
  8
0
  6
Continuous
 62
     7
370
    25
100
AcDbCircle
 10
744.4296711344
 20
646.3171354951
 30
0.0
 40
0.500099915346546
100
AcDbArc
 50
275.2665101228
 51
2.0670127365
  0
LINE
  5
186
330
1F
100
AcDbEntity
  8
0
  6
Continuous
 62
     7
370
    25
100
AcDbLine
 10
743.9273786891
 20
645.7479838103
 30
0.0
 11
743.9344683487
 21
645.7486093339
 31
0.0
  0
LINE
  5
187
330
1F
100
AcDbEntity
  8
0
  6
Continuous
 62
     7
370
    25
100
AcDbLine
 10
743.6866133207
 20
652.3578084529
 30
0.0
 11
743.6937297015
 21
652.3577003898
 31
0.0
  0
SPLINE
  5
188
330
1F
100
AcDbEntity
  8
0
  6
Continuous
 62
     7
370
    25
100
AcDbSpline
210
0.0
220
0.0
230
1.0
 70
     8
 71
     3
 72
    11
 73
     7
 74
     0
 42
0.00000001
 43
0.00000001
 40
0.0
 40
0.0
 40
0.0
 40
0.0
 40
0.1345990676765949
 40
0.4126978815969504
 40
0.6969472592954633
 40
1.0
 40
1.0
 40
1.0
 40
1.0
 10
683.9623557479695
 20
638.7212318981055
 30
0.0
 10
684.3983256577359
 20
638.5461017910025
 30
0.0
 10
685.7350649183148
 20
638.0091305812244
 30
0.0
 10
688.1319590155192
 20
637.4735576624684
 30
0.0
 10
691.1973297478597
 20
637.2084625803259
 30
0.0
 10
693.3878955407396
 20
637.2610954417318
 30
0.0
 10
694.5182455708585
 20
637.2882544326502
 30
0.0
  0
ARC
  5
189
330
1F
100
AcDbEntity
  8
0
  6
Continuous
 62
     7
370
    25
100
AcDbCircle
 10
690.0061296161
 20
637.7441340006
 30
0.0
 40
4.535087272527361
100
AcDbArc
 50
331.1145608389
 51
354.2307248964
  0
SPLINE
  5
18A
330
1F
100
AcDbEntity
  8
0
  6
Continuous
 62
     7
370
    25
100
AcDbSpline
210
0.0
220
0.0
230
1.0
 70
     8
 71
     3
 72
    12
 73
     8
 74
     0
 42
0.00000001
 43
0.00000001
 40
0.0
 40
0.0
 40
0.0
 40
0.0
 40
0.1662426524176555
 40
0.3368059756191309
 40
0.605418107125457
 40
0.8801435087136164
 40
1.0
 40
1.0
 40
1.0
 40
1.0
 10
693.9769945156727
 20
635.5534152785632
 30
0.0
 10
693.3340757622443
 20
635.6855850100391
 30
0.0
 10
692.0315287032124
 20
635.9533595835893
 30
0.0
 10
689.8246571279786
 20
636.5363782228374
 30
0.0
 10
687.4332272200757
 20
637.3020295608837
 30
0.0
 10
685.4383195803842
 20
638.072551790498
 30
0.0
 10
684.3057040434078
 20
638.5695106318861
 30
0.0
 10
683.9616656405061
 20
638.7204647028108
 30
0.0
  0
LINE
  5
18B
330
1F
100
AcDbEntity
  8
0
  6
Continuous
 62
     7
370
    25
100
AcDbLine
 10
683.9616656405
 20
638.7204647028
 30
0.0
 11
683.962355748
 21
638.7212318981
 31
0.0
  0
LINE
  5
18C
330
1F
100
AcDbEntity
  8
0
  6
Continuous
 62
     7
370
    25
100
AcDbLine
 10
693.9769945157
 20
635.5534152786
 30
0.0
 11
693.9636758712
 21
635.4834105366
 31
0.0
  0
ARC
  5
18D
330
1F
100
AcDbEntity
  8
0
  6
Continuous
 62
     7
370
    25
100
AcDbCircle
 10
702.9685226307
 20
682.8142011525
 30
0.0
 40
48.17977797259058
100
AcDbArc
 50
246.5579461104
 51
259.2280172662
  0
LWPOLYLINE
  5
18E
330
1F
100
AcDbEntity
  8
0
  6
Continuous
 62
     7
370
    25
100
AcDbPolyline
 90
        3
 70
   128
 43
0.0
 10
683.9616656405
 20
638.7204647028
 10
683.9036830584
 20
638.6808040766
 10
683.8015767042
 20
638.6110430152
  0
LINE
  5
18F
330
1F
100
AcDbEntity
  8
0
  6
Continuous
 62
     7
370
    25
100
AcDbLine
 10
693.2446618978
 20
640.1585773115
 30
0.0
 11
695.5425316957
 21
637.4533128437
 31
0.0
  0
ARC
  5
190
330
1F
100
AcDbEntity
  8
0
  6
Continuous
 62
     7
370
    25
100
AcDbCircle
 10
687.4339477327
 20
646.9994864776
 30
0.0
 40
12.52511736202735
100
AcDbArc
 50
309.9444050683
 51
310.344796181
  0
LINE
  5
191
330
1F
100
AcDbEntity
  8
0
  6
Continuous
 62
     7
370
    25
100
AcDbLine
 10
694.5182455709
 20
637.2882544327
 30
0.0
 11
695.4756242231
 21
637.3968824476
 31
0.0
  0
LINE
  5
192
330
1F
100
AcDbEntity
  8
0
  6
Continuous
 62
     7
370
    25
100
AcDbLine
 10
683.9631044765
 20
638.7220663229
 30
0.0
 11
683.962355748
 21
638.7212318981
 31
0.0
  0
LINE
  5
193
330
1F
100
AcDbEntity
  8
0
  6
Continuous
 62
     7
370
    25
100
AcDbLine
 10
698.4429744682
 20
637.984408538
 30
0.0
 11
696.3485059849
 21
637.7920488574
 31
0.0
  0
LINE
  5
194
330
1F
100
AcDbEntity
  8
0
  6
Continuous
 62
     7
370
    25
100
AcDbLine
 10
696.0238835845
 20
641.326632531
 30
0.0
 11
696.3485059849
 21
637.7920488574
 31
0.0
  0
SPLINE
  5
195
330
1F
100
AcDbEntity
  8
0
  6
Continuous
 62
     7
370
    25
100
AcDbSpline
210
0.0
220
0.0
230
1.0
 70
     8
 71
     3
 72
    16
 73
    12
 74
     0
 42
0.00000001
 43
0.00000001
 40
0.0
 40
0.0
 40
0.0
 40
0.0
 40
0.2861254310575649
 40
0.7591203623085446
 40
0.8520758313858445
 40
0.9266344548631252
 40
0.9604862301433738
 40
0.9835335436569234
 40
0.9930756629548343
 40
0.9972242292023603
 40
1.0
 40
1.0
 40
1.0
 40
1.0
 10
699.8636085559067
 20
638.5606469589483
 30
0.0
 10
701.071646338753
 20
639.1350690347743
 30
0.0
 10
704.276695522977
 20
640.6590702139331
 30
0.0
 10
708.034710533299
 20
641.8144443350682
 30
0.0
 10
710.8100634560017
 20
642.4778304917913
 30
0.0
 10
711.6689989497227
 20
642.6637225222911
 30
0.0
 10
712.1910145271557
 20
642.7713165089314
 30
0.0
 10
712.423098297451
 20
642.8189055686211
 30
0.0
 10
712.5001757177854
 20
642.836042608623
 30
0.0
 10
712.516110802079
 20
642.8403592648892
 30
0.0
 10
712.5171437744738
 20
642.8411312200557
 30
0.0
 10
712.5175578638789
 20
642.8414406750396
 30
0.0
  0
LINE
  5
196
330
1F
100
AcDbEntity
  8
0
  6
Continuous
 62
     7
370
    25
100
AcDbLine
 10
698.4429744682
 20
637.984408538
 30
0.0
 11
699.8636085559
 21
638.5606469589
 31
0.0
  0
ARC
  5
197
330
1F
100
AcDbEntity
  8
0
  6
Continuous
 62
     7
370
    25
100
AcDbCircle
 10
705.5318193567
 20
642.3786095667
 30
0.0
 40
6.834138728222379
100
AcDbArc
 50
213.9632053284
 51
229.0348989409
  0
SPLINE
  5
198
330
1F
100
AcDbEntity
  8
0
  6
Continuous
 62
     7
370
    25
100
AcDbSpline
210
0.0
220
0.0
230
1.0
 70
     8
 71
     3
 72
    10
 73
     6
 74
     0
 42
0.00000001
 43
0.00000001
 40
0.0
 40
0.0
 40
0.0
 40
0.0
 40
0.5975855365574396
 40
0.9790563563181977
 40
1.0
 40
1.0
 40
1.0
 40
1.0
 10
712.6278424952354
 20
642.8363248843917
 30
0.0
 10
712.6302238499746
 20
642.8401534037104
 30
0.0
 10
712.6341253508501
 20
642.8464258717421
 30
0.0
 10
712.5597898061561
 20
642.8440949799308
 30
0.0
 10
712.5196470898464
 20
642.8415719842432
 30
0.0
 10
712.5175578638788
 20
642.8414406750396
 30
0.0
  0
SPLINE
  5
199
330
1F
100
AcDbEntity
  8
0
  6
Continuous
 62
     7
370
    25
100
AcDbSpline
210
0.0
220
0.0
230
1.0
 70
     8
 71
     3
 72
    14
 73
    10
 74
     0
 42
0.00000001
 43
0.00000001
 40
0.0
 40
0.0
 40
0.0
 40
0.0
 40
0.0129036569231467
 40
0.0519665716781158
 40
0.1318891824261232
 40
0.2280032005552138
 40
0.4679440229400807
 40
0.7079115564493598
 40
1.0
 40
1.0
 40
1.0
 40
1.0
 10
712.6278424952354
 20
642.8363248843917
 30
0.0
 10
712.5946816666633
 20
642.8272668119155
 30
0.0
 10
712.4611338991456
 20
642.7907874653706
 30
0.0
 10
712.0258784136057
 20
642.6724831738551
 30
0.0
 10
711.2223564301632
 20
642.4406788426938
 30
0.0
 10
709.5869763047303
 20
641.9137490802551
 30
0.0
 10
707.2747243723326
 20
640.9915119793608
 30
0.0
 10
704.1843122044264
 20
639.433044042675
 30
0.0
 10
702.1617247765091
 20
638.0031007854905
 30
0.0
 10
701.0513633874124
 20
637.2180895867352
 30
0.0
  0
LWPOLYLINE
  5
19A
330
1F
100
AcDbEntity
  8
0
  6
Continuous
 62
     7
370
    25
100
AcDbPolyline
 90
        4
 70
   128
 43
0.0
 10
712.6528564341
 20
642.6860402461
 10
712.649981428
 20
642.7033051815
 10
712.6384849043
 20
642.7723652091
 10
712.6278424952
 20
642.8363248844
  0
LINE
  5
19B
330
1F
100
AcDbEntity
  8
0
  6
Continuous
 62
     7
370
    25
100
AcDbLine
 10
710.8815525532
 20
642.1917074716
 30
0.0
 11
712.6528564341
 21
642.6860402461
 31
0.0
  0
ARC
  5
19C
330
1F
100
AcDbEntity
  8
0
  6
Continuous
 62
     7
370
    25
100
AcDbCircle
 10
720.1692189415
 20
612.0841428072
 30
0.0
 40
31.50755777528345
100
AcDbArc
 50
107.144095446
 51
127.2580276151
  0
LINE
  5
19D
330
1F
100
AcDbEntity
  8
0
  6
Continuous
 62
     7
370
    25
100
AcDbLine
 10
701.0513633874
 20
637.2180895867
 30
0.0
 11
701.0943699018
 21
637.1615495925
 31
0.0
  0
SPLINE
  5
19E
330
1F
100
AcDbEntity
  8
0
  6
Continuous
 62
     7
370
    25
100
AcDbSpline
210
0.0
220
0.0
230
1.0
 70
     8
 71
     3
 72
     9
 73
     5
 74
     0
 42
0.00000001
 43
0.00000001
 40
0.0
 40
0.0
 40
0.0
 40
0.0
 40
0.4998978730609642
 40
0.9999999999999999
 40
0.9999999999999999
 40
0.9999999999999999
 40
0.9999999999999999
 10
696.3485059848653
 20
637.7920488573658
 30
0.0
 10
696.2011360837924
 20
637.7667012734895
 30
0.0
 10
695.9063360676001
 20
637.7159957489371
 30
0.0
 10
695.663816331535
 20
637.5408857344121
 30
0.0
 10
695.5425316957043
 20
637.4533128436998
 30
0.0
  0
ARC
  5
19F
330
1F
100
AcDbEntity
  8
0
  6
Continuous
 62
     7
370
    25
100
AcDbCircle
 10
712.7469363895
 20
642.3506367226
 30
0.0
 40
0.5000763403715132
100
AcDbArc
 50
95.2487278379
 51
103.7774617599
  0
SPLINE
  5
1A0
330
1F
100
AcDbEntity
  8
0
  6
Continuous
 62
     7
370
    25
100
AcDbSpline
210
0.0
220
0.0
230
1.0
 70
     8
 71
     3
 72
    12
 73
     8
 74
     0
 42
0.00000001
 43
0.00000001
 40
0.0
 40
0.0
 40
0.0
 40
0.0
 40
0.0460726725321188
 40
0.2494576442748346
 40
0.4755636088397422
 40
0.7057929889265123
 40
1.0
 40
1.0
 40
1.0
 40
1.0
 10
683.3521445294656
 20
655.0134867824643
 30
0.0
 10
683.4781196365699
 20
655.0806216249664
 30
0.0
 10
684.160204085515
 20
655.4441190897089
 30
0.0
 10
685.4896984960332
 20
656.1085380889621
 30
0.0
 10
687.4668439171837
 20
656.9885511599739
 30
0.0
 10
689.9286793505144
 20
657.9519236059107
 30
0.0
 10
691.8482363695683
 20
658.5195236720982
 30
0.0
 10
692.9251012528606
 20
658.8379453563537
 30
0.0
  0
LINE
  5
1A1
330
1F
100
AcDbEntity
  8
0
  6
Continuous
 62
     7
370
    25
100
AcDbLine
 10
693.4491559464
 20
656.9081400988
 30
0.0
 11
692.9251012529
 21
658.8379453564
 31
0.0
  0
SPLINE
  5
1A2
330
1F
100
AcDbEntity
  8
0
  6
Continuous
 62
     7
370
    25
100
AcDbSpline
210
0.0
220
0.0
230
1.0
 70
     8
 71
     3
 72
    13
 73
     9
 74
     0
 42
0.00000001
 43
0.00000001
 40
0.0
 40
0.0
 40
0.0
 40
0.0
 40
0.2574896950994338
 40
0.4890886589321002
 40
0.720600476068343
 40
0.9447506334961284
 40
0.9460032291293332
 40
0.9999999999999999
 40
0.9999999999999999
 40
0.9999999999999999
 40
0.9999999999999999
 10
693.4491559464011
 20
656.9081400987651
 30
0.0
 10
692.5300177242668
 20
656.9027417156123
 30
0.0
 10
690.7841611366339
 20
656.8924877597186
 30
0.0
 10
688.2972394883142
 20
656.6372274407341
 30
0.0
 10
685.99817169226
 20
656.1398348865782
 30
0.0
 10
684.5402265367695
 20
655.5868401965861
 30
0.0
 10
683.6831654194968
 20
655.1811303735973
 30
0.0
 10
683.5161066930688
 20
655.0960123991041
 30
0.0
 10
683.3528354676465
 20
655.0128241915911
 30
0.0
  0
LINE
  5
1A3
330
1F
100
AcDbEntity
  8
0
  6
Continuous
 62
     7
370
    25
100
AcDbLine
 10
683.3528354676
 20
655.0128241916
 30
0.0
 11
683.3521445295
 21
655.0134867825
 31
0.0
  0
ARC
  5
1A4
330
1F
100
AcDbEntity
  8
0
  6
Continuous
 62
     7
370
    25
100
AcDbCircle
 10
705.5330263404
 20
612.409890382
 30
0.0
 40
48.10950076354648
100
AcDbArc
 50
104.94417913
 51
105.1927615195
  0
LWPOLYLINE
  5
1A5
330
1F
100
AcDbEntity
  8
0
  6
Continuous
 62
     7
370
    25
100
AcDbPolyline
 90
        3
 70
   128
 43
0.0
 10
683.3521445295
 20
655.0134867825
 10
683.3078193038
 20
655.0392818573
 10
683.2009081292
 20
655.1014293761
  0
ARC
  5
1A6
330
1F
100
AcDbEntity
  8
0
  6
Continuous
 62
     7
370
    25
100
AcDbCircle
 10
705.5330263404
 20
612.409890382
 30
0.0
 40
48.17977797259065
100
AcDbArc
 50
104.94417913
 51
117.6142494969
  0
LINE
  5
1A7
330
1F
100
AcDbEntity
  8
0
  6
Continuous
 62
     7
370
    25
100
AcDbLine
 10
693.1266511666
 20
658.8922087274
 30
0.0
 11
693.1085282302
 21
658.9601089872
 31
0.0
  0
LINE
  5
1A8
330
1F
100
AcDbEntity
  8
0
  6
Continuous
 62
     7
370
    25
100
AcDbLine
 10
699.5980376063
 20
655.8233636685
 30
0.0
 11
700.6666961733
 21
657.5135561194
 31
0.0
  0
SPLINE
  5
1A9
330
1F
100
AcDbEntity
  8
0
  6
Continuous
 62
     7
370
    25
100
AcDbSpline
210
0.0
220
0.0
230
1.0
 70
     8
 71
     3
 72
    14
 73
    10
 74
     0
 42
0.00000001
 43
0.00000001
 40
0.0
 40
0.0
 40
0.0
 40
0.0
 40
0.225645860719597
 40
0.4518169308148984
 40
0.8157761447763444
 40
0.8946140573305362
 40
0.963784618022166
 40
0.99407991431257
 40
1.0
 40
1.0
 40
1.0
 40
1.0
 10
700.6666961732695
 20
657.5135561194106
 30
0.0
 10
701.5317227440818
 20
656.9996798665496
 30
0.0
 10
703.2637893064881
 20
655.9707312714108
 30
0.0
 10
706.4988877253023
 20
654.5220916971089
 30
0.0
 10
709.2030995833105
 20
653.666582539162
 30
0.0
 10
711.1713167264231
 20
653.2164816324338
 30
0.0
 10
711.8206224275514
 20
653.0846491180935
 30
0.0
 10
712.1511060918359
 20
653.0210869463975
 30
0.0
 10
712.2443654786381
 20
653.0029489085333
 30
0.0
 10
712.2596104803714
 20
652.9999839049217
 30
0.0
  0
SPLINE
  5
1AA
330
1F
100
AcDbEntity
  8
0
  6
Continuous
 62
     7
370
    25
100
AcDbSpline
210
0.0
220
0.0
230
1.0
 70
     8
 71
     3
 72
    11
 73
     7
 74
     0
 42
0.00000001
 43
0.00000001
 40
0.0
 40
0.0
 40
0.0
 40
0.0
 40
0.0195561212296495
 40
0.1681891996745144
 40
0.5898876540792122
 40
1.0
 40
1.0
 40
1.0
 40
1.0
 10
712.1500429015266
 20
652.9877198193159
 30
0.0
 10
712.1520024319592
 20
652.987733043699
 30
0.0
 10
712.1688550507026
 20
652.9878467778271
 30
0.0
 10
712.2207520282801
 20
652.9888901661651
 30
0.0
 10
712.2699279441644
 20
652.9927721016552
 30
0.0
 10
712.2630175505213
 20
652.9976023972052
 30
0.0
 10
712.2596104803714
 20
652.9999839049217
 30
0.0
  0
SPLINE
  5
1AB
330
1F
100
AcDbEntity
  8
0
  6
Continuous
 62
     7
370
    25
100
AcDbSpline
210
0.0
220
0.0
230
1.0
 70
     8
 71
     3
 72
    17
 73
    13
 74
     0
 42
0.00000001
 43
0.00000001
 40
0.0
 40
0.0
 40
0.0
 40
0.0
 40
0.0068263121770663
 40
0.0088448507297267
 40
0.0223990310416085
 40
0.0309593028397562
 40
0.056321891214911
 40
0.1198824177066657
 40
0.1957460556357082
 40
0.5558621944880032
 40
0.7780336097977202
 40
0.9999999999999999
 40
0.9999999999999999
 40
0.9999999999999999
 40
0.9999999999999999
 10
712.1500429015266
 20
652.9877198193159
 30
0.0
 10
712.1463873644485
 20
652.9886255365439
 30
0.0
 10
712.1416508861049
 20
652.9897990740963
 30
0.0
 10
712.0978707395109
 20
652.9957993872946
 30
0.0
 10
712.022960443314
 20
653.0048300515781
 30
0.0
 10
711.8553025653615
 20
653.024459001404
 30
0.0
 10
711.4718493327017
 20
653.069044957006
 30
0.0
 10
710.7854260494937
 20
653.1533111309991
 30
0.0
 10
708.6684562857464
 20
653.4436154400738
 30
0.0
 10
705.8343011083829
 20
653.9749785239172
 30
0.0
 10
702.4008971389986
 20
654.863527540615
 30
0.0
 10
700.5320365462724
 20
655.5035167708536
 30
0.0
 10
699.5980376062801
 20
655.8233636684637
 30
0.0
  0
LINE
  5
1AC
330
1F
100
AcDbEntity
  8
0
  6
Continuous
 62
     7
370
    25
100
AcDbLine
 10
695.5938508288
 20
653.2984543251
 30
0.0
 11
695.6426328451
 21
655.8976005907
 31
0.0
  0
LINE
  5
1AD
330
1F
100
AcDbEntity
  8
0
  6
Continuous
 62
     7
370
    25
100
AcDbLine
 10
695.6426328451
 20
655.8976005907
 30
0.0
 11
699.5980376063
 21
655.8233636685
 31
0.0
  0
LINE
  5
1AE
330
1F
100
AcDbEntity
  8
0
  6
Continuous
 62
     7
370
    25
100
AcDbLine
 10
692.7385001325
 20
654.2601273453
 30
0.0
 11
694.2720645108
 21
656.3592036404
 31
0.0
  0
LINE
  5
1AF
330
1F
100
AcDbEntity
  8
0
  6
Continuous
 62
     7
370
    25
100
AcDbLine
 10
683.3528354676
 20
655.0128241916
 30
0.0
 11
683.3534243458
 21
655.0122582115
 31
0.0
  0
ARC
  5
1B0
330
1F
100
AcDbEntity
  8
0
  6
Continuous
 62
     7
370
    25
100
AcDbCircle
 10
687.4339477327
 20
646.9994864776
 30
0.0
 40
11.59155496206734
100
AcDbArc
 50
53.8485053452
 51
58.7394796353
  0
LWPOLYLINE
  5
1B1
330
1F
100
AcDbEntity
  8
0
  6
Continuous
 62
     7
370
    25
100
AcDbPolyline
 90
        4
 70
   128
 43
0.0
 10
712.2596104804
 20
652.9999839049
 10
712.2612193787
 20
653.0174122764
 10
712.2676584729
 20
653.0871257312
 10
712.2722023488
 20
653.1362838593
  0
ARC
  5
1B2
330
1F
100
AcDbEntity
  8
0
  6
Continuous
 62
     7
370
    25
100
AcDbCircle
 10
717.54222834
 20
684.2039303466
 30
0.0
 40
31.57783498432747
100
AcDbArc
 50
236.9141687812
 51
237.6960462086
  0
LINE
  5
1B3
330
1F
100
AcDbEntity
  8
0
  6
Continuous
 62
     7
370
    25
100
AcDbLine
 10
700.3040529548
 20
657.7463232801
 30
0.0
 11
700.3424169166
 21
657.8052053023
 31
0.0
  0
ARC
  5
1B4
330
1F
100
AcDbEntity
  8
0
  6
Continuous
 62
     7
370
    25
100
AcDbCircle
 10
717.54222834
 20
684.2039303466
 30
0.0
 40
31.50755777528341
100
AcDbArc
 50
236.9141687812
 51
257.0281009503
  0
LINE
  5
1B5
330
1F
100
AcDbEntity
  8
0
  6
Continuous
 62
     7
370
    25
100
AcDbLine
 10
712.2722023488
 20
653.1362838593
 30
0.0
 11
710.4696278019
 21
653.5004367572
 31
0.0
  0
LINE
  5
1B6
330
1F
100
AcDbEntity
  8
0
  6
Continuous
 62
     7
370
    25
100
AcDbLine
 10
712.7262693093
 20
642.6990394772
 30
0.0
 11
712.6528564341
 21
642.6860402461
 31
0.0
  0
SPLINE
  5
1B7
330
1F
100
AcDbEntity
  8
0
  6
Continuous
 62
     7
370
    25
100
AcDbSpline
210
0.0
220
0.0
230
1.0
 70
     8
 71
     3
 72
    10
 73
     6
 74
     0
 42
0.00000001
 43
0.00000001
 40
0.0
 40
0.0
 40
0.0
 40
0.0
 40
0.0490769085761691
 40
0.5995805843665489
 40
1.0
 40
1.0
 40
1.0
 40
1.0
 10
694.272064510795
 20
656.3592036404002
 30
0.0
 10
694.2915317774676
 20
656.3452803098
 30
0.0
 10
694.5293665447001
 20
656.1751767124088
 30
0.0
 10
694.9834646014427
 20
655.9575101932636
 30
0.0
 10
695.4473131821796
 20
655.9153525432416
 30
0.0
 10
695.6426328450591
 20
655.8976005907035
 30
0.0
  0
ARC
  5
1B8
330
1F
100
AcDbEntity
  8
0
  6
Continuous
 62
     7
370
    25
100
AcDbCircle
 10
712.3430711073
 20
653.4930464467
 30
0.0
 40
0.5000763405099364
100
AcDbArc
 50
260.392618536
 51
268.9234682327
  0
SPLINE
  5
1B9
330
1F
100
AcDbEntity
  8
0
  6
Continuous
 62
     7
370
    25
100
AcDbSpline
210
0.0
220
0.0
230
1.0
 70
     8
 71
     3
 72
     9
 73
     5
 74
     0
 42
0.00000001
 43
0.00000001
 40
0.0
 40
0.0
 40
0.0
 40
0.0
 40
0.8458911907782042
 40
1.0
 40
1.0
 40
1.0
 40
1.0
 10
712.2722023488476
 20
653.1362838592852
 30
0.0
 10
712.2931679966629
 20
653.1332302040428
 30
0.0
 10
712.3179532740646
 20
653.1296202181774
 30
0.0
 10
712.3425723977489
 20
653.1287883697127
 30
0.0
 10
712.3463664215839
 20
653.1286601745363
 30
0.0
  0
LINE
  5
1BA
330
1F
100
AcDbEntity
  8
0
  6
Continuous
 62
     7
370
    25
100
AcDbLine
 10
730.3686732835
 20
652.7181665568
 30
0.0
 11
730.368214654
 21
652.7181749542
 31
0.0
  0
LINE
  5
1BB
330
1F
100
AcDbEntity
  8
0
  6
Continuous
 62
     7
370
    25
100
AcDbLine
 10
701.0513633874
 20
637.2180895867
 30
0.0
 11
699.2501319594
 21
636.1548516412
 31
0.0
  0
LINE
  5
1BC
330
1F
100
AcDbEntity
  8
0
  6
Continuous
 62
     7
370
    25
100
AcDbLine
 10
698.4429744682
 20
637.984408538
 30
0.0
 11
699.2501319594
 21
636.1548516412
 31
0.0
  0
LINE
  5
1BD
330
1F
100
AcDbEntity
  8
0
  6
Continuous
 62
     7
370
    25
100
AcDbLine
 10
695.4756242231
 20
637.3968824476
 30
0.0
 11
695.4265273834
 21
635.3977898648
 31
0.0
  0
LINE
  5
1BE
330
1F
100
AcDbEntity
  8
0
  6
Continuous
 62
     7
370
    25
100
AcDbLine
 10
695.4265273834
 20
635.3977898648
 30
0.0
 11
693.9769945157
 21
635.5534152786
 31
0.0
  0
ARC
  5
1BF
330
1F
100
AcDbEntity
  8
0
  6
Continuous
 62
     7
370
    25
100
AcDbCircle
 10
705.5330263404
 20
612.409890382
 30
0.0
 40
46.10980537323365
100
AcDbArc
 50
104.94417913
 51
105.1927615195
  0
LINE
  5
1C0
330
1F
100
AcDbEntity
  8
0
  6
Continuous
 62
     7
370
    25
100
AcDbLine
 10
693.6423283374
 20
656.9601479857
 30
0.0
 11
693.1266511666
 21
658.8922087274
 31
0.0
  0
ARC
  5
1C1
330
1F
100
AcDbEntity
  8
0
  6
Continuous
 62
     7
370
    25
100
AcDbCircle
 10
717.54222834
 20
684.2039303466
 30
0.0
 40
33.57753037464031
100
AcDbArc
 50
236.9141687812
 51
237.6960462086
  0
ARC
  5
1C2
330
1F
100
AcDbEntity
  8
0
  6
Continuous
 62
     7
370
    25
100
AcDbCircle
 10
695.4294080919
 20
650.2645895415
 30
0.0
 40
6.929946387144247
100
AcDbArc
 50
56.9141687812
 51
104.94417913
  0
ARC
  5
1C3
330
1F
100
AcDbEntity
  8
0
  6
Continuous
 62
     7
370
    25
100
AcDbCircle
 10
695.4294080919
 20
650.2645895415
 30
0.0
 40
8.929641777457094
100
AcDbArc
 50
56.9141687812
 51
104.94417913
  0
LINE
  5
1C4
330
1F
100
AcDbEntity
  8
0
  6
Continuous
 62
     7
370
    25
100
AcDbLine
 10
699.2124296731
 20
656.0708710233
 30
0.0
 11
700.3040529548
 21
657.7463232801
 31
0.0
  0
ARC
  5
1C5
330
1F
100
AcDbEntity
  8
0
  6
Continuous
 62
     7
370
    25
100
AcDbCircle
 10
695.6457693704
 20
644.3247398045
 30
0.0
 40
6.929946387144357
100
AcDbArc
 50
268.5931235267
 51
293.8059444816
  0
ARC
  5
1C6
330
1F
100
AcDbEntity
  8
0
  6
Continuous
 62
     7
370
    25
100
AcDbCircle
 10
695.6457693704
 20
644.3247398045
 30
0.0
 40
8.929641777457094
100
AcDbArc
 50
268.5931235267
 51
293.8059444816
  0
ARC
  5
1C7
330
1F
100
AcDbEntity
  8
0
  6
Continuous
 62
     7
370
    25
100
AcDbCircle
 10
695.6457693704
 20
644.3247398045
 30
0.0
 40
8.999918986501177
100
AcDbArc
 50
259.2280172662
 51
307.2580276151
  0
ARC
  5
1C8
330
1F
100
AcDbEntity
  8
0
  6
Continuous
 62
     7
370
    25
100
AcDbCircle
 10
695.4294080919
 20
650.2645895415
 30
0.0
 40
8.999918986501214
100
AcDbArc
 50
56.9141687812
 51
104.94417913
  0
SPLINE
  5
1C9
330
1F
100
AcDbEntity
  8
0
  6
Continuous
 62
     7
370
    25
100
AcDbSpline
210
0.0
220
0.0
230
1.0
 70
     8
 71
     3
 72
    11
 73
     7
 74
     0
 42
0.00000001
 43
0.00000001
 40
0.0
 40
0.0
 40
0.0
 40
0.0
 40
0.2200386424382234
 40
0.6637869905998106
 40
0.8890365590789634
 40
1.0
 40
1.0
 40
1.0
 40
1.0
 10
477.5116114126999
 20
641.2767388761589
 30
0.0
 10
477.3094588869479
 20
641.5433390010579
 30
0.0
 10
476.6996286533845
 20
642.347587257815
 30
0.0
 10
476.1859269381281
 20
643.6147932697558
 30
0.0
 10
475.9433852631871
 20
644.7832862819081
 30
0.0
 10
475.9680713360005
 20
645.2943894204617
 30
0.0
 10
475.9762187053932
 20
645.4630734431908
 30
0.0
  0
SPLINE
  5
1CA
330
1F
100
AcDbEntity
  8
0
  6
Continuous
 62
     7
370
    25
100
AcDbSpline
210
0.0
220
0.0
230
1.0
 70
     8
 71
     3
 72
     9
 73
     5
 74
     0
 42
0.00000001
 43
0.00000001
 40
0.0
 40
0.0
 40
0.0
 40
0.0
 40
0.920963091990321
 40
1.0
 40
1.0
 40
1.0
 40
1.0
 10
475.8741119389653
 20
641.6098175870928
 30
0.0
 10
476.3880755854969
 20
641.5489882907242
 30
0.0
 10
476.9461475115074
 20
641.4829386336885
 30
0.0
 10
477.4701925158952
 20
641.2918425219625
 30
0.0
 10
477.5116114126999
 20
641.2767388761589
 30
0.0
  0
SPLINE
  5
1CB
330
1F
100
AcDbEntity
  8
0
  6
Continuous
 62
     7
370
    25
100
AcDbSpline
210
0.0
220
0.0
230
1.0
 70
     8
 71
     3
 72
    10
 73
     6
 74
     0
 42
0.00000001
 43
0.00000001
 40
0.0
 40
0.0
 40
0.0
 40
0.0
 40
0.2596150688488825
 40
0.6297606444810656
 40
0.9999999999999999
 40
0.9999999999999999
 40
0.9999999999999999
 40
0.9999999999999999
 10
428.7205511612671
 20
644.5684807391242
 30
0.0
 10
432.7959147453287
 20
644.2369962950883
 30
0.0
 10
442.6817184029249
 20
643.4328986822757
 30
0.0
 10
458.4043867039197
 20
642.4846469599468
 30
0.0
 10
470.0503784858559
 20
641.9014520012524
 30
0.0
 10
475.8741119389653
 20
641.6098175870928
 30
0.0
  0
SPLINE
  5
1CC
330
1F
100
AcDbEntity
  8
0
  6
Continuous
 62
     7
370
    25
100
AcDbSpline
210
0.0
220
0.0
230
1.0
 70
     8
 71
     3
 72
    11
 73
     7
 74
     0
 42
0.00000001
 43
0.00000001
 40
0.0
 40
0.0
 40
0.0
 40
0.0
 40
0.0614641195413888
 40
0.4999988937835381
 40
0.9375097801832786
 40
1.0
 40
1.0
 40
1.0
 40
1.0
 10
428.7651192751495
 20
650.2943396373279
 30
0.0
 10
428.7525439989099
 20
650.1779770187591
 30
0.0
 10
428.6502465242896
 20
649.231389302278
 30
0.0
 10
428.5525575263027
 20
647.4348510388891
 30
0.0
 10
428.6221210047514
 20
645.635057054841
 30
0.0
 10
428.7096160199901
 20
644.6869725012825
 30
0.0
 10
428.7205511612671
 20
644.5684807391242
 30
0.0
  0
SPLINE
  5
1CD
330
1F
100
AcDbEntity
  8
0
  6
Continuous
 62
     7
370
    25
100
AcDbSpline
210
0.0
220
0.0
230
1.0
 70
     8
 71
     3
 72
    10
 73
     6
 74
     0
 42
0.00000001
 43
0.00000001
 40
0.0
 40
0.0
 40
0.0
 40
0.0
 40
0.2594618540778863
 40
0.6296073956705963
 40
1.0
 40
1.0
 40
1.0
 40
1.0
 10
475.9590224141435
 20
652.5186346201267
 30
0.0
 10
471.8749750289579
 20
652.3830340586102
 30
0.0
 10
461.9646687640142
 20
652.0539871677241
 30
0.0
 10
446.2277248583031
 20
651.3896709287245
 30
0.0
 10
434.5872823207372
 20
650.6595312656377
 30
0.0
 10
428.7651192751495
 20
650.2943396373279
 30
0.0
  0
SPLINE
  5
1CE
330
1F
100
AcDbEntity
  8
0
  6
Continuous
 62
     7
370
    25
100
AcDbSpline
210
0.0
220
0.0
230
1.0
 70
     8
 71
     3
 72
     9
 73
     5
 74
     0
 42
0.00000001
 43
0.00000001
 40
0.0
 40
0.0
 40
0.0
 40
0.0
 40
0.0790369080192277
 40
1.0
 40
1.0
 40
1.0
 40
1.0
 10
477.6015083089669
 20
652.8261830544612
 30
0.0
 10
477.5598593216939
 20
652.81172598046
 30
0.0
 10
477.0329031398692
 20
652.6288105000403
 30
0.0
 10
476.4738706783874
 20
652.5714559988667
 30
0.0
 10
475.9590224141435
 20
652.5186346201267
 30
0.0
  0
SPLINE
  5
1CF
330
1F
100
AcDbEntity
  8
0
  6
Continuous
 62
     7
370
    25
100
AcDbSpline
210
0.0
220
0.0
230
1.0
 70
     8
 71
     3
 72
    11
 73
     7
 74
     0
 42
0.00000001
 43
0.00000001
 40
0.0
 40
0.0
 40
0.0
 40
0.0
 40
0.0728838064943127
 40
0.4140719411596071
 40
0.9209668754550698
 40
1.0
 40
1.0
 40
1.0
 40
1.0
 10
476.0011356096456
 20
648.6642562054944
 30
0.0
 10
475.9942803451793
 20
648.7747593444155
 30
0.0
 10
475.9553337972247
 20
649.4025565388563
 30
0.0
 10
476.3105794812057
 20
650.7828253531069
 30
0.0
 10
476.9601338638834
 20
652.047739432258
 30
0.0
 10
477.525278556517
 20
652.7336621174773
 30
0.0
 10
477.6015083089669
 20
652.8261830544612
 30
0.0
  0
SPLINE
  5
1D0
330
1F
100
AcDbEntity
  8
0
  6
Continuous
 62
     7
370
    25
100
AcDbSpline
210
0.0
220
0.0
230
1.0
 70
     8
 71
     3
 72
    10
 73
     6
 74
     0
 42
0.00000001
 43
0.00000001
 40
0.0
 40
0.0
 40
0.0
 40
0.0
 40
0.3880207377811384
 40
0.9790637766506752
 40
1.0
 40
1.0
 40
1.0
 40
1.0
 10
475.9762187053932
 20
645.4630734431908
 30
0.0
 10
476.0527287545018
 20
645.8733302224102
 30
0.0
 10
476.2457808528518
 20
646.9085005433473
 30
0.0
 10
476.1585900919638
 20
648.002981660443
 30
0.0
 10
476.0063440494521
 20
648.6423818922786
 30
0.0
 10
476.0011356096456
 20
648.6642562054944
 30
0.0
  0
ARC
  5
1D1
330
1F
100
AcDbEntity
  8
0
  6
Continuous
 62
     7
370
    25
100
AcDbCircle
 10
484.2339477327
 20
646.9994864776
 30
0.0
 40
8.399443654264502
100
AcDbArc
 50
190.539796382
 51
168.5682803961
  0
SPLINE
  5
1D2
330
1F
100
AcDbEntity
  8
0
  6
Continuous
 62
     7
370
    25
100
AcDbSpline
210
0.0
220
0.0
230
1.0
 70
     8
 71
     3
 72
     9
 73
     5
 74
     0
 42
0.00000001
 43
0.00000001
 40
0.0
 40
0.0
 40
0.0
 40
0.0
 40
0.6817923421275125
 40
1.0
 40
1.0
 40
1.0
 40
1.0
 10
477.6015083089669
 20
652.8261830544612
 30
0.0
 10
477.7452457122953
 20
653.0149803599172
 30
0.0
 10
477.9560685603193
 20
653.291893569102
 30
0.0
 10
478.1873002371211
 20
653.5230051694838
 30
0.0
 10
478.2608799274221
 20
653.5965466505485
 30
0.0
  0
ARC
  5
1D3
330
1F
100
AcDbEntity
  8
0
  6
Continuous
 62
     7
370
    25
100
AcDbCircle
 10
484.2339477327
 20
646.9994864776
 30
0.0
 40
8.899367501836407
100
AcDbArc
 50
226.9499575851
 51
132.1581191929
  0
LINE
  5
1D4
330
1F
100
AcDbEntity
  8
0
  6
Continuous
 62
     7
370
    25
100
AcDbLine
 10
478.1589113762
 20
640.4962045984
 30
0.0
 11
477.5116114127
 21
641.2767388762
 31
0.0
  0
SPLINE
  5
1D5
330
1F
100
AcDbEntity
  8
0
  6
Continuous
 62
     7
370
    25
100
AcDbSpline
210
0.0
220
0.0
230
1.0
 70
     8
 71
     3
 72
    10
 73
     6
 74
     0
 42
0.00000001
 43
0.00000001
 40
0.0
 40
0.0
 40
0.0
 40
0.0
 40
0.370289668858303
 40
0.7405318123903286
 40
0.9999999999999999
 40
0.9999999999999999
 40
0.9999999999999999
 40
0.9999999999999999
 10
428.7570471229665
 20
650.7372754641999
 30
0.0
 10
434.579426853154
 20
651.0121567792128
 30
0.0
 10
446.2234390323606
 20
651.5618841292257
 30
0.0
 10
461.9485969103914
 20
652.3087455783594
 30
0.0
 10
471.849742010035
 20
652.7804360986797
 30
0.0
 10
475.9294466729823
 20
652.9747932155436
 30
0.0
  0
ARC
  5
1D6
330
1F
100
AcDbEntity
  8
0
  6
Continuous
 62
     7
370
    25
100
AcDbCircle
 10
468.7087120974
 20
652.2775877385
 30
0.0
 40
7.254316183384772
100
AcDbArc
 50
1.9041783338
 51
5.5151561203
  0
ARC
  5
1D7
330
1F
100
AcDbEntity
  8
0
  6
Continuous
 62
     7
370
    25
100
AcDbCircle
 10
433.0165785407
 20
650.5933605594
 30
0.0
 40
4.261961918969972
100
AcDbArc
 50
178.0649089277
 51
184.0231996954
  0
SPLINE
  5
1D8
330
1F
100
AcDbEntity
  8
0
  6
Continuous
 62
     7
370
    25
100
AcDbSpline
210
0.0
220
0.0
230
1.0
 70
     8
 71
     3
 72
    10
 73
     6
 74
     0
 42
0.00000001
 43
0.00000001
 40
0.0
 40
0.0
 40
0.0
 40
0.0
 40
0.3702717503651152
 40
0.7405122151371734
 40
1.0
 40
1.0
 40
1.0
 40
1.0
 10
475.8374390486529
 20
641.1541746482096
 30
0.0
 10
470.0204536468685
 20
641.5219903151767
 30
0.0
 10
458.3869743413355
 20
642.2575905710413
 30
0.0
 10
442.6750732580355
 20
643.2487274042275
 30
0.0
 10
432.7821102499115
 20
643.8698022128804
 30
0.0
 10
428.7055850849752
 20
644.1257242338869
 30
0.0
  0
ARC
  5
1D9
330
1F
100
AcDbEntity
  8
0
  6
Continuous
 62
     7
370
    25
100
AcDbCircle
 10
432.9668406392
 20
644.2033162671
 30
0.0
 40
4.261961921737319
100
AcDbArc
 50
175.084877085
 51
181.0431678488
  0
ARC
  5
1DA
330
1F
100
AcDbEntity
  8
0
  6
Continuous
 62
     7
370
    25
100
AcDbCircle
 10
468.6284323178
 20
641.9636962625
 30
0.0
 40
7.254316183424788
100
AcDbArc
 50
353.5929206577
 51
357.2038984441
  0
SPLINE
  5
1DB
330
1F
100
AcDbEntity
  8
0
  6
Continuous
 62
     7
370
    25
100
AcDbSpline
210
0.0
220
0.0
230
1.0
 70
     8
 71
     3
 72
    12
 73
     8
 74
     0
 42
0.00000001
 43
0.00000001
 40
0.0
 40
0.0
 40
0.0
 40
0.0
 40
0.1224290494151405
 40
0.3423522449770235
 40
0.5614228816909423
 40
0.7807229538533393
 40
0.9999999999999999
 40
0.9999999999999999
 40
0.9999999999999999
 40
0.9999999999999999
 10
426.7857437891506
 20
644.6942183356555
 30
0.0
 10
426.7947292336385
 20
644.6917896401592
 30
0.0
 10
426.8198555178597
 20
644.6849982016935
 30
0.0
 10
427.0357042788089
 20
644.6663096263211
 30
0.0
 10
427.4713906420068
 20
644.637406646767
 30
0.0
 10
428.0550685505433
 20
644.6033104211652
 30
0.0
 10
428.4987313887007
 20
644.5800902267719
 30
0.0
 10
428.7205511612671
 20
644.5684807391242
 30
0.0
  0
SPLINE
  5
1DC
330
1F
100
AcDbEntity
  8
0
  6
Continuous
 62
     7
370
    25
100
AcDbSpline
210
0.0
220
0.0
230
1.0
 70
     8
 71
     3
 72
    11
 73
     7
 74
     0
 42
0.00000001
 43
0.00000001
 40
0.0
 40
0.0
 40
0.0
 40
0.0
 40
0.0800485240044349
 40
0.5000005853538924
 40
0.9209248322279618
 40
1.0
 40
1.0
 40
1.0
 40
1.0
 10
426.7857437891506
 20
644.6942183356555
 30
0.0
 10
426.7871683066567
 20
644.840456102866
 30
0.0
 10
426.7960661545021
 20
645.7538891750623
 30
0.0
 10
426.8104901151361
 20
647.4482378190534
 30
0.0
 10
426.8224268799848
 20
649.140823032613
 30
0.0
 10
426.8277475811931
 20
650.0542726645559
 30
0.0
 10
426.8285890528596
 20
650.1987351994737
 30
0.0
  0
SPLINE
  5
1DD
330
1F
100
AcDbEntity
  8
0
  6
Continuous
 62
     7
370
    25
100
AcDbSpline
210
0.0
220
0.0
230
1.0
 70
     8
 71
     3
 72
    12
 73
     8
 74
     0
 42
0.00000001
 43
0.00000001
 40
0.0
 40
0.0
 40
0.0
 40
0.0
 40
0.1130367476169224
 40
0.3328594693547942
 40
0.5544127937944849
 40
0.7774207483513252
 40
1.0
 40
1.0
 40
1.0
 40
1.0
 10
428.7651192751495
 20
650.2943396373279
 30
0.0
 10
428.6510128547503
 20
650.2902124047858
 30
0.0
 10
428.3150035184526
 20
650.2780589373269
 30
0.0
 10
427.7807526447824
 20
650.2566243827976
 30
0.0
 10
427.2640256882387
 20
650.2327703002112
 30
0.0
 10
426.9069593239345
 20
650.2121069981338
 30
0.0
 10
426.8546957154769
 20
650.203189605863
 30
0.0
 10
426.8285890528596
 20
650.1987351994737
 30
0.0
  0
SPLINE
  5
1DE
330
1F
100
AcDbEntity
  8
0
  6
Continuous
 62
     7
370
    25
100
AcDbSpline
210
0.0
220
0.0
230
1.0
 70
     8
 71
     3
 72
     9
 73
     5
 74
     0
 42
0.00000001
 43
0.00000001
 40
0.0
 40
0.0
 40
0.0
 40
0.0
 40
0.5000106123815418
 40
1.0
 40
1.0
 40
1.0
 40
1.0
 10
478.6551429639189
 20
640.0604973322812
 30
0.0
 10
478.2276749976648
 20
640.3516738531391
 30
0.0
 10
477.3727572105842
 20
640.9340145348117
 30
0.0
 10
476.3492045277423
 20
641.0807889821614
 30
0.0
 10
475.8374390486529
 20
641.1541746482096
 30
0.0
  0
SPLINE
  5
1DF
330
1F
100
AcDbEntity
  8
0
  6
Continuous
 62
     7
370
    25
100
AcDbSpline
210
0.0
220
0.0
230
1.0
 70
     8
 71
     3
 72
     9
 73
     5
 74
     0
 42
0.00000001
 43
0.00000001
 40
0.0
 40
0.0
 40
0.0
 40
0.0
 40
0.9838702326459061
 40
0.9999999999999999
 40
0.9999999999999999
 40
0.9999999999999999
 40
0.9999999999999999
 10
478.1589113761785
 20
640.496204598449
 30
0.0
 10
478.3191200124151
 20
640.3501207892859
 30
0.0
 10
478.4819551413993
 20
640.2016420526436
 30
0.0
 10
478.6523938275629
 20
640.0627378251551
 30
0.0
 10
478.6551429639189
 20
640.0604973322812
 30
0.0
  0
SPLINE
  5
1E0
330
1F
100
AcDbEntity
  8
0
  6
Continuous
 62
     7
370
    25
100
AcDbSpline
210
0.0
220
0.0
230
1.0
 70
     8
 71
     3
 72
     9
 73
     5
 74
     0
 42
0.00000001
 43
0.00000001
 40
0.0
 40
0.0
 40
0.0
 40
0.0
 40
0.5055561057107114
 40
1.0
 40
1.0
 40
1.0
 40
1.0
 10
475.9294466729823
 20
652.9747932155436
 30
0.0
 10
476.4480404432143
 20
653.0414148348173
 30
0.0
 10
477.4738292021157
 20
653.1731937185475
 30
0.0
 10
478.3370296023903
 20
653.7428255970792
 30
0.0
 10
478.7638337698541
 20
654.0244766014118
 30
0.0
  0
SPLINE
  5
1E1
330
1F
100
AcDbEntity
  8
0
  6
Continuous
 62
     7
370
    25
100
AcDbSpline
210
0.0
220
0.0
230
1.0
 70
     8
 71
     3
 72
     9
 73
     5
 74
     0
 42
0.00000001
 43
0.00000001
 40
0.0
 40
0.0
 40
0.0
 40
0.0
 40
0.0161297673533817
 40
0.9999999999999999
 40
0.9999999999999999
 40
0.9999999999999999
 40
0.9999999999999999
 10
478.7638337698541
 20
654.0244766014118
 30
0.0
 10
478.7610500902555
 20
654.0222791740721
 30
0.0
 10
478.5884698206462
 20
653.8860448880106
 30
0.0
 10
478.4233431466162
 20
653.7401188931051
 30
0.0
 10
478.2608799274221
 20
653.5965466505485
 30
0.0
  0
SPLINE
  5
1E2
330
1F
100
AcDbEntity
  8
0
  6
Continuous
 62
     7
370
    25
100
AcDbSpline
210
0.0
220
0.0
230
1.0
 70
     8
 71
     3
 72
    12
 73
     8
 74
     0
 42
0.00000001
 43
0.00000001
 40
0.0
 40
0.0
 40
0.0
 40
0.0
 40
0.2230315344150084
 40
0.4461337558340105
 40
0.667509989677706
 40
0.8870667292264924
 40
0.9999999999999999
 40
0.9999999999999999
 40
0.9999999999999999
 40
0.9999999999999999
 10
427.3048142054931
 20
650.6942066186709
 30
0.0
 10
427.3243326873274
 20
650.6921643889754
 30
0.0
 10
427.3633758371303
 20
650.6880792823254
 30
0.0
 10
427.6310109525797
 20
650.692939149335
 30
0.0
 10
428.0186496320069
 20
650.7055111980526
 30
0.0
 10
428.4195101162575
 20
650.7217289039182
 30
0.0
 10
428.6714674961428
 20
650.7333337665464
 30
0.0
 10
428.7570471229665
 20
650.7372754641999
 30
0.0
  0
ARC
  5
1E3
330
1F
100
AcDbEntity
  8
0
  6
Continuous
 62
     7
370
    25
100
AcDbCircle
 10
427.3286724952
 20
650.1946761318
 30
0.0
 40
0.5000999153470224
100
AcDbArc
 50
92.7344503137
 51
179.5349529273
  0
SPLINE
  5
1E4
330
1F
100
AcDbEntity
  8
0
  6
Continuous
 62
     7
370
    25
100
AcDbSpline
210
0.0
220
0.0
230
1.0
 70
     8
 71
     3
 72
    12
 73
     8
 74
     0
 42
0.00000001
 43
0.00000001
 40
0.0
 40
0.0
 40
0.0
 40
0.0
 40
0.2190444340109023
 40
0.4380981679380229
 40
0.6571027493691816
 40
0.8772791087290166
 40
1.0
 40
1.0
 40
1.0
 40
1.0
 10
428.7055850849752
 20
644.1257242338869
 30
0.0
 10
428.5392411035673
 20
644.1358480785492
 30
0.0
 10
428.2065460783256
 20
644.1560961976992
 30
0.0
 10
427.7685528286567
 20
644.179024466992
 30
0.0
 10
427.4416849037685
 20
644.1928748204671
 30
0.0
 10
427.279860125142
 20
644.1959583321428
 30
0.0
 10
427.2609620567881
 20
644.1925968925964
 30
0.0
 10
427.2541985502642
 20
644.1913938533291
 30
0.0
  0
ARC
  5
1E5
330
1F
100
AcDbEntity
  8
0
  6
Continuous
 62
     7
370
    25
100
AcDbCircle
 10
427.2858298247
 20
644.6904924286
 30
0.0
 40
0.5000999153473545
100
AcDbArc
 50
179.5731238513
 51
266.3736264642
  0
LINE
  5
1E6
330
1F
100
AcDbEntity
  8
0
  6
Continuous
 62
     7
370
    25
100
AcDbLine
 10
475.929446673
 20
652.9747932155
 30
0.0
 11
475.9030161909
 21
653.0462913762
 31
0.0
  0
LINE
  5
1E7
330
1F
100
AcDbEntity
  8
0
  6
Continuous
 62
     7
370
    25
100
AcDbLine
 10
427.3001585332
 20
650.6986814443
 30
0.0
 11
427.3048142055
 21
650.6942066187
 31
0.0
  0
ELLIPSE
  5
1E8
330
1F
100
AcDbEntity
  8
0
  6
Continuous
 62
     7
370
    25
100
AcDbEllipse
 10
428.8005329461
 20
650.7702980197
 30
0.0
 11
1.500598900238004
 21
0.07119499874534085
 31
0.0
210
0.0
220
0.0
230
1.0
 40
0.0174284859
 41
2.255125316694893
 42
3.158083049605442
  0
LINE
  5
1E9
330
1F
100
AcDbEntity
  8
0
  6
Continuous
 62
     7
370
    25
100
AcDbLine
 10
431.3176962775
 20
650.9594711989
 30
0.0
 11
427.8509630682
 21
650.7455564803
 31
0.0
  0
LINE
  5
1EA
330
1F
100
AcDbEntity
  8
0
  6
Continuous
 62
     7
370
    25
100
AcDbLine
 10
431.3176955117
 20
650.9593728107
 30
0.0
 11
431.3176962775
 21
650.9594711989
 31
0.0
  0
ELLIPSE
  5
1EB
330
1F
100
AcDbEntity
  8
0
  6
Continuous
 62
     7
370
    25
100
AcDbEllipse
 10
440.7694614693
 20
651.2154595565
 30
0.0
 11
14.50578936896761
 21
0.688218321205227
 31
0.0
210
0.0
220
0.0
230
1.0
 40
0.0174284859
 41
1.543516838852441
 42
2.279642175407895
  0
ELLIPSE
  5
1EC
330
1F
100
AcDbEntity
  8
0
  6
Continuous
 62
     7
370
    25
100
AcDbEllipse
 10
442.0978278256
 20
652.1554323457
 30
0.0
 11
35.71689647762952
 21
1.694566349148659
 31
0.0
210
0.0
220
0.0
230
1.0
 40
0.0174284859
 41
4.685109492442207
 42
5.167309992307919
  0
ELLIPSE
  5
1ED
330
1F
100
AcDbEntity
  8
0
  6
Continuous
 62
     7
370
    25
100
AcDbEllipse
 10
461.1203776657
 20
652.3797747088
 30
0.0
 11
7.502994501190187
 21
0.355974993726818
 31
0.0
210
0.0
220
0.0
230
1.0
 40
0.0174284859
 41
1.834826681007921
 42
2.025717338718003
  0
LINE
  5
1EE
330
1F
100
AcDbEntity
  8
0
  6
Continuous
 62
     7
370
    25
100
AcDbLine
 10
459.1747540782
 20
652.2625703126
 30
0.0
 11
459.1563069678
 21
652.4131089988
 31
0.0
  0
SPLINE
  5
1EF
330
1F
100
AcDbEntity
  8
0
  6
Continuous
 62
     7
370
    25
100
AcDbSpline
210
0.0
220
0.0
230
1.0
 70
     8
 71
     3
 72
    10
 73
     6
 74
     0
 42
0.00000001
 43
0.00000001
 40
0.0
 40
0.0
 40
0.0
 40
0.0
 40
0.0186368637458806
 40
0.3939469944633819
 40
1.0
 40
1.0
 40
1.0
 40
1.0
 10
459.3585235828247
 20
652.2616262960752
 30
0.0
 10
459.3560667669788
 20
652.2615576659462
 30
0.0
 10
459.3041344659425
 20
652.2601069587126
 30
0.0
 10
459.200117908302
 20
652.258236525217
 30
0.0
 10
459.1844376293837
 20
652.2609157339656
 30
0.0
 10
459.1747540781935
 20
652.2625703126373
 30
0.0
  0
LINE
  5
1F0
330
1F
100
AcDbEntity
  8
0
  6
Continuous
 62
     7
370
    25
100
AcDbLine
 10
475.9030161909
 20
653.0462913762
 30
0.0
 11
459.3585235828
 21
652.2616262961
 31
0.0
  0
LINE
  5
1F1
330
1F
100
AcDbEntity
  8
0
  6
Continuous
 62
     7
370
    25
100
AcDbLine
 10
459.2774333751
 20
642.1090171684
 30
0.0
 11
475.8037331895
 21
641.0671600168
 31
0.0
  0
SPLINE
  5
1F2
330
1F
100
AcDbEntity
  8
0
  6
Continuous
 62
     7
370
    25
100
AcDbSpline
210
0.0
220
0.0
230
1.0
 70
     8
 71
     3
 72
    11
 73
     7
 74
     0
 42
0.00000001
 43
0.00000001
 40
0.0
 40
0.0
 40
0.0
 40
0.0
 40
0.4177469294495093
 40
0.8392770662410532
 40
0.9817832068818869
 40
1.0
 40
1.0
 40
1.0
 40
1.0
 10
459.0937440023974
 20
642.1117964293793
 30
0.0
 10
459.0983893208995
 20
642.1128434958158
 30
0.0
 10
459.1077220269218
 20
642.1149471111507
 30
0.0
 10
459.1832068487406
 20
642.1131573499838
 30
0.0
 10
459.2534456918902
 20
642.1101400328389
 30
0.0
 10
459.274991331207
 20
642.1091314805747
 30
0.0
 10
459.27743337507
 20
642.1090171684009
 30
0.0
  0
LINE
  5
1F3
330
1F
100
AcDbEntity
  8
0
  6
Continuous
 62
     7
370
    25
100
AcDbLine
 10
459.0750750149
 20
641.9768876776
 30
0.0
 11
459.0937440024
 21
642.1117964294
 31
0.0
  0
ELLIPSE
  5
1F4
330
1F
100
AcDbEntity
  8
0
  6
Continuous
 62
     7
370
    25
100
AcDbEllipse
 10
461.0394266334
 20
641.9796444811
 30
0.0
 11
7.496544176181544
 21
-0.4727262374860857
 31
0.0
210
0.0
220
0.0
230
1.0
 40
0.0174284859
 41
4.257467968461632
 42
4.448358626171804
  0
ELLIPSE
  5
1F5
330
1F
100
AcDbEntity
  8
0
  6
Continuous
 62
     7
370
    25
100
AcDbEllipse
 10
442.0226738231
 20
642.5000716767
 30
0.0
 11
35.68619065870001
 21
-2.250343390744888
 31
0.0
210
0.0
220
0.0
230
1.0
 40
0.0174284859
 41
1.115875314871753
 42
1.598075814737375
  0
ELLIPSE
  5
1F6
330
1F
100
AcDbEntity
  8
0
  6
Continuous
 62
     7
370
    25
100
AcDbEllipse
 10
440.7091003785
 20
643.4606084155
 30
0.0
 11
14.49331874061756
 21
-0.9139373924730309
 31
0.0
210
0.0
220
0.0
230
1.0
 40
0.0174284859
 41
4.00354313177173
 42
4.739668468327177
  0
LINE
  5
1F7
330
1F
100
AcDbEntity
  8
0
  6
Continuous
 62
     7
370
    25
100
AcDbLine
 10
431.2624652023
 20
643.8636954136
 30
0.0
 11
431.2624659681
 21
643.8637938018
 31
0.0
  0
LINE
  5
1F8
330
1F
100
AcDbEntity
  8
0
  6
Continuous
 62
     7
370
    25
100
AcDbLine
 10
427.799481909
 20
644.1315486591
 30
0.0
 11
431.2624652023
 21
643.8636954136
 31
0.0
  0
ELLIPSE
  5
1F9
330
1F
100
AcDbEntity
  8
0
  6
Continuous
 62
     7
370
    25
100
AcDbEllipse
 10
428.748551598
 20
644.0920287632
 30
0.0
 11
1.49930883523632
 21
-0.09454524749719442
 31
0.0
210
0.0
220
0.0
230
1.0
 40
0.0174284859
 41
3.125102257564412
 42
4.028059990478568
  0
LINE
  5
1FA
330
1F
100
AcDbEntity
  8
0
  6
Continuous
 62
     7
370
    25
100
AcDbLine
 10
427.2541985503
 20
644.1913938533
 30
0.0
 11
427.2494737853
 21
644.1869920418
 31
0.0
  0
LINE
  5
1FB
330
1F
100
AcDbEntity
  8
0
  6
Continuous
 62
     7
370
    25
100
AcDbLine
 10
475.8037331895
 20
641.0671600168
 30
0.0
 11
475.8374390487
 21
641.1541746482
 31
0.0
  0
SPLINE
  5
1FC
330
1F
100
AcDbEntity
  8
0
  6
Continuous
 62
     7
370
    25
100
AcDbSpline
210
0.0
220
0.0
230
1.0
 70
     8
 71
     3
 72
     9
 73
     5
 74
     0
 42
0.00000001
 43
0.00000001
 40
0.0
 40
0.0
 40
0.0
 40
0.0
 40
0.5001021276704752
 40
1.0
 40
1.0
 40
1.0
 40
1.0
 10
478.7311272141531
 20
654.0904246148762
 30
0.0
 10
478.2999622825087
 20
653.8072463406493
 30
0.0
 10
477.4378085187309
 20
653.2410054499214
 30
0.0
 10
476.4145439644111
 20
653.1111872287614
 30
0.0
 10
475.9030161908765
 20
653.0462913762138
 30
0.0
  0
LINE
  5
1FD
330
1F
100
AcDbEntity
  8
0
  6
Continuous
 62
     7
370
    25
100
AcDbLine
 10
478.7311272142
 20
654.0904246149
 30
0.0
 11
478.7638337699
 21
654.0244766014
 31
0.0
  0
SPLINE
  5
1FE
330
1F
100
AcDbEntity
  8
0
  6
Continuous
 62
     7
370
    25
100
AcDbSpline
210
0.0
220
0.0
230
1.0
 70
     8
 71
     3
 72
     9
 73
     5
 74
     0
 42
0.00000001
 43
0.00000001
 40
0.0
 40
0.0
 40
0.0
 40
0.0
 40
0.4007227371565439
 40
0.9999999999999999
 40
0.9999999999999999
 40
0.9999999999999999
 40
0.9999999999999999
 10
475.8037331895017
 20
641.0671600168391
 30
0.0
 10
476.2120301592439
 20
641.0155732454019
 30
0.0
 10
477.2309315887945
 20
640.8868389195109
 30
0.0
 10
478.0956217571278
 20
640.31998422878
 30
0.0
 10
478.6138109144142
 20
639.9802811012889
 30
0.0
  0
LINE
  5
1FF
330
1F
100
AcDbEntity
  8
0
  6
Continuous
 62
     7
370
    25
100
AcDbLine
 10
478.6551429639
 20
640.0604973323
 30
0.0
 11
478.6138109144
 21
639.9802811013
 31
0.0
  0
ARC
  5
200
330
1F
100
AcDbEntity
  8
0
  6
Continuous
 62
     7
370
    25
100
AcDbCircle
 10
484.2339477327
 20
646.9994864776
 30
0.0
 40
8.975658044222174
100
AcDbArc
 50
64.7189237837
 51
127.8127363719
  0
LWPOLYLINE
  5
201
330
1F
100
AcDbEntity
  8
0
  6
Continuous
 62
     7
370
    25
100
AcDbPolyline
 90
        3
 70
   128
 43
0.0
 10
488.2333603001
 20
655.2192660812
 10
488.1282662335
 20
655.1538296791
 10
488.067085414
 20
655.1154887474
  0
ARC
  5
202
330
1F
100
AcDbEntity
  8
0
  6
Continuous
 62
     7
370
    25
100
AcDbCircle
 10
484.2339477327
 20
646.9994864776
 30
0.0
 40
9.141120151092148
100
AcDbArc
 50
295.0537548066
 51
64.0543178179
  0
LWPOLYLINE
  5
203
330
1F
100
AcDbEntity
  8
0
  6
Continuous
 62
     7
370
    25
100
AcDbPolyline
 90
        3
 70
   128
 43
0.0
 10
487.9564957212
 20
638.8142669665
 10
488.0008608767
 20
638.7855108872
 10
488.1049236029
 20
638.7184464804
  0
ARC
  5
204
330
1F
100
AcDbEntity
  8
0
  6
Continuous
 62
     7
370
    25
100
AcDbCircle
 10
484.2339477327
 20
646.9994864776
 30
0.0
 40
8.99195095466078
100
AcDbArc
 50
231.316445536
 51
294.4555195556
  0
LINE
  5
205
330
1F
100
AcDbEntity
  8
0
  6
Continuous
 62
     7
370
    25
100
AcDbLine
 10
426.7810190242
 20
644.6898165241
 30
0.0
 11
426.7857437892
 21
644.6942183357
 31
0.0
  0
LINE
  5
206
330
1F
100
AcDbEntity
  8
0
  6
Continuous
 62
     7
370
    25
100
AcDbLine
 10
426.8239333806
 20
650.2032100251
 30
0.0
 11
426.7810190242
 21
644.6898165241
 31
0.0
  0
LINE
  5
207
330
1F
100
AcDbEntity
  8
0
  6
Continuous
 62
     7
370
    25
100
AcDbLine
 10
426.8285890529
 20
650.1987351995
 30
0.0
 11
426.8239333806
 21
650.2032100251
 31
0.0
  0
ARC
  5
208
330
1F
100
AcDbEntity
  8
0
  6
Continuous
 62
     7
370
    25
100
AcDbCircle
 10
427.2811050598
 20
644.686090617
 30
0.0
 40
0.5000999153473007
100
AcDbArc
 50
179.5731238507
 51
266.3736264642
  0
ARC
  5
209
330
1F
100
AcDbEntity
  8
0
  6
Continuous
 62
     7
370
    25
100
AcDbCircle
 10
427.324016823
 20
650.1991509574
 30
0.0
 40
0.5000999153468986
100
AcDbArc
 50
92.7344503137
 51
179.5349529273
  0
LINE
  5
20A
330
1F
100
AcDbEntity
  8
0
  6
Continuous
 62
     7
370
    25
100
AcDbLine
 10
427.799481909
 20
644.1315486591
 30
0.0
 11
427.7923772503
 21
644.1319710071
 31
0.0
  0
LINE
  5
20B
330
1F
100
AcDbEntity
  8
0
  6
Continuous
 62
     7
370
    25
100
AcDbLine
 10
427.8509630682
 20
650.7455564803
 30
0.0
 11
427.8438526959
 21
650.7452447772
 31
0.0
  0
SPLINE
  5
20C
330
1F
100
AcDbEntity
  8
0
  6
Continuous
 62
     7
370
    25
100
AcDbSpline
210
0.0
220
0.0
230
1.0
 70
     8
 71
     3
 72
    12
 73
     8
 74
     0
 42
0.00000001
 43
0.00000001
 40
0.0
 40
0.0
 40
0.0
 40
0.0
 40
0.1662426524176549
 40
0.3368059756191313
 40
0.6054181071254576
 40
0.8801435087136178
 40
1.0
 40
1.0
 40
1.0
 40
1.0
 10
478.2029582806783
 20
658.7234437158776
 30
0.0
 10
478.839410278628
 20
658.5629999072275
 30
0.0
 10
480.1288557547844
 20
658.237942331939
 30
0.0
 10
482.3078158395878
 20
657.5579968693323
 30
0.0
 10
484.6630856451033
 20
656.6874435285824
 30
0.0
 10
486.6220051355738
 20
655.8295417701717
 30
0.0
 10
487.7315600073495
 20
655.2830309915466
 30
0.0
 10
488.0685936022059
 20
655.1170252382188
 30
0.0
  0
LINE
  5
20D
330
1F
100
AcDbEntity
  8
0
  6
Continuous
 62
     7
370
    25
100
AcDbLine
 10
478.2029582807
 20
658.7234437159
 30
0.0
 11
478.2193566189
 21
658.7927917129
 31
0.0
  0
ARC
  5
20E
330
1F
100
AcDbEntity
  8
0
  6
Continuous
 62
     7
370
    25
100
AcDbCircle
 10
467.1323032035
 20
611.9060318329
 30
0.0
 40
48.17977797259053
100
AcDbArc
 50
64.0258863013
 51
76.6959574571
  0
LWPOLYLINE
  5
20F
330
1F
100
AcDbEntity
  8
0
  6
Continuous
 62
     7
370
    25
100
AcDbPolyline
 90
        3
 70
   128
 43
0.0
 10
488.0685936022
 20
655.1170252382
 10
488.1282717164
 20
655.1540855646
 10
488.2333603118
 20
655.2192676203
  0
SPLINE
  5
210
330
1F
100
AcDbEntity
  8
0
  6
Continuous
 62
     7
370
    25
100
AcDbSpline
210
0.0
220
0.0
230
1.0
 70
     8
 71
     3
 72
    11
 73
     7
 74
     0
 42
0.00000001
 43
0.00000001
 40
0.0
 40
0.0
 40
0.0
 40
0.0
 40
0.1345990676765952
 40
0.4126978815969506
 40
0.696947259295463
 40
1.0
 40
1.0
 40
1.0
 40
1.0
 10
488.067870275065
 20
655.1162892798105
 30
0.0
 10
487.6400629884643
 20
655.3105088518597
 30
0.0
 10
486.328351369955
 20
655.9060107920509
 30
0.0
 10
483.9574582142682
 20
656.5469517478621
 30
0.0
 10
480.9067918079761
 20
656.9472111722188
 30
0.0
 10
478.7160395210503
 20
656.9914053841064
 30
0.0
 10
477.5855932584643
 20
657.0142099622207
 30
0.0
  0
ARC
  5
211
330
1F
100
AcDbEntity
  8
0
  6
Continuous
 62
     7
370
    25
100
AcDbCircle
 10
482.0731638162
 20
656.359437438
 30
0.0
 40
4.535087272520535
100
AcDbArc
 50
148.5825010297
 51
171.6986650873
  0
LINE
  5
212
330
1F
100
AcDbEntity
  8
0
  6
Continuous
 62
     7
370
    25
100
AcDbLine
 10
488.0685936022
 20
655.1170252382
 30
0.0
 11
488.0678702751
 21
655.1162892798
 31
0.0
  0
LINE
  5
213
330
1F
100
AcDbEntity
  8
0
  6
Continuous
 62
     7
370
    25
100
AcDbLine
 10
478.7311272142
 20
654.0904246149
 30
0.0
 11
476.5550151712
 21
656.8945640239
 31
0.0
  0
ARC
  5
214
330
1F
100
AcDbEntity
  8
0
  6
Continuous
 62
     7
370
    25
100
AcDbCircle
 10
484.2339477327
 20
646.9994864776
 30
0.0
 40
12.52511736202733
100
AcDbArc
 50
127.4123452592
 51
127.8127363719
  0
LINE
  5
215
330
1F
100
AcDbEntity
  8
0
  6
Continuous
 62
     7
370
    25
100
AcDbLine
 10
477.5855932585
 20
657.0142099622
 30
0.0
 11
476.6243503236
 21
656.9479834597
 31
0.0
  0
LINE
  5
216
330
1F
100
AcDbEntity
  8
0
  6
Continuous
 62
     7
370
    25
100
AcDbLine
 10
488.067085414
 20
655.1154887474
 30
0.0
 11
488.0678702751
 21
655.1162892798
 31
0.0
  0
ARC
  5
217
330
1F
100
AcDbEntity
  8
0
  6
Continuous
 62
     7
370
    25
100
AcDbCircle
 10
466.3578887566
 20
652.4153867927
 30
0.0
 40
6.834138728223932
100
AcDbArc
 50
31.4311455193
 51
46.5028391318
  0
SPLINE
  5
218
330
1F
100
AcDbEntity
  8
0
  6
Continuous
 62
     7
370
    25
100
AcDbSpline
210
0.0
220
0.0
230
1.0
 70
     8
 71
     3
 72
    16
 73
    12
 74
     0
 42
0.00000001
 43
0.00000001
 40
0.0
 40
0.0
 40
0.0
 40
0.0
 40
0.2861254310575655
 40
0.7591203623085446
 40
0.8520758313858449
 40
0.9266344548631253
 40
0.9604862301433738
 40
0.983533543656923
 40
0.9930756629548344
 40
0.9972242292023602
 40
1.0
 40
1.0
 40
1.0
 40
1.0
 10
472.1892369134773
 20
655.9792092951582
 30
0.0
 10
470.9570015420602
 20
655.4587172247004
 30
0.0
 10
467.6877536526221
 20
654.0777979277187
 30
0.0
 10
463.8823651734284
 20
653.089574926563
 30
0.0
 10
461.0804146072693
 20
652.5494471053137
 30
0.0
 10
460.2141053164009
 20
652.4016829623955
 30
0.0
 10
459.6878460748315
 20
652.3172558357919
 30
0.0
 10
459.4538864892912
 20
652.2799663282809
 30
0.0
 10
459.3761272359209
 20
652.266251176779
 30
0.0
 10
459.3600170067644
 20
652.2626427215286
 30
0.0
 10
459.3589509391621
 20
652.2619171551189
 30
0.0
 10
459.3585235828247
 20
652.2616262960752
 30
0.0
  0
SPLINE
  5
219
330
1F
100
AcDbEntity
  8
0
  6
Continuous
 62
     7
370
    25
100
AcDbSpline
210
0.0
220
0.0
230
1.0
 70
     8
 71
     3
 72
    10
 73
     6
 74
     0
 42
0.00000001
 43
0.00000001
 40
0.0
 40
0.0
 40
0.0
 40
0.0
 40
0.5975855365574313
 40
0.9790563563181972
 40
1.0
 40
1.0
 40
1.0
 40
1.0
 10
459.2485726344177
 20
652.2716092902075
 30
0.0
 10
459.2460244668481
 20
652.2678897132683
 30
0.0
 10
459.2418496675878
 20
652.2617957313657
 30
0.0
 10
459.3162156104314
 20
652.2608403222125
 30
0.0
 10
459.3564305956259
 20
652.2615874137289
 30
0.0
 10
459.3585235828247
 20
652.2616262960752
 30
0.0
  0
SPLINE
  5
21A
330
1F
100
AcDbEntity
  8
0
  6
Continuous
 62
     7
370
    25
100
AcDbSpline
210
0.0
220
0.0
230
1.0
 70
     8
 71
     3
 72
    14
 73
    10
 74
     0
 42
0.00000001
 43
0.00000001
 40
0.0
 40
0.0
 40
0.0
 40
0.0
 40
0.012903656923147
 40
0.0519665716781149
 40
0.1318891824261224
 40
0.2280032005552129
 40
0.467944022940081
 40
0.7079115564493589
 40
1.0
 40
1.0
 40
1.0
 40
1.0
 10
459.2485726344177
 20
652.2716092902075
 30
0.0
 10
459.2821012578033
 20
652.2791935266517
 30
0.0
 10
459.4171302360853
 20
652.309737330564
 30
0.0
 10
459.8571872573868
 20
652.4086972269199
 30
0.0
 10
460.670165472368
 20
652.6047769244572
 30
0.0
 10
462.3272278198068
 20
653.058943750531
 30
0.0
 10
464.6779651604313
 20
653.8781288483793
 30
0.0
 10
467.8342106445896
 20
655.2985457311818
 30
0.0
 10
469.9179959365753
 20
656.6377382039954
 30
0.0
 10
471.0619537697211
 20
657.3729289768919
 30
0.0
  0
LINE
  5
21B
330
1F
100
AcDbEntity
  8
0
  6
Continuous
 62
     7
370
    25
100
AcDbLine
 10
473.6339412662
 20
656.4921237734
 30
0.0
 11
475.7348629744
 21
656.5917653847
 31
0.0
  0
LINE
  5
21C
330
1F
100
AcDbEntity
  8
0
  6
Continuous
 62
     7
370
    25
100
AcDbLine
 10
475.9030161909
 20
653.0462913762
 30
0.0
 11
475.7348629744
 21
656.5917653847
 31
0.0
  0
LINE
  5
21D
330
1F
100
AcDbEntity
  8
0
  6
Continuous
 62
     7
370
    25
100
AcDbLine
 10
473.6339412662
 20
656.4921237734
 30
0.0
 11
472.1892369135
 21
655.9792092952
 31
0.0
  0
LWPOLYLINE
  5
21E
330
1F
100
AcDbEntity
  8
0
  6
Continuous
 62
     7
370
    25
100
AcDbPolyline
 90
        4
 70
   128
 43
0.0
 10
459.2302224522
 20
652.422852275
 10
459.2323319141
 20
652.405477183
 10
459.240766252
 20
652.3359766836
 10
459.2485726344
 20
652.2716092902
  0
LINE
  5
21F
330
1F
100
AcDbEntity
  8
0
  6
Continuous
 62
     7
370
    25
100
AcDbLine
 10
461.0216357643
 20
652.8384490453
 30
0.0
 11
459.2302224522
 21
652.422852275
 31
0.0
  0
ARC
  5
220
330
1F
100
AcDbEntity
  8
0
  6
Continuous
 62
     7
370
    25
100
AcDbCircle
 10
453.0731412644
 20
683.326932644
 30
0.0
 40
31.50755777528335
100
AcDbArc
 50
284.6120356368
 51
304.7259678059
  0
LINE
  5
221
330
1F
100
AcDbEntity
  8
0
  6
Continuous
 62
     7
370
    25
100
AcDbLine
 10
471.0619537697
 20
657.3729289769
 30
0.0
 11
471.0214870908
 21
657.4313137276
 31
0.0
  0
SPLINE
  5
222
330
1F
100
AcDbEntity
  8
0
  6
Continuous
 62
     7
370
    25
100
AcDbSpline
210
0.0
220
0.0
230
1.0
 70
     8
 71
     3
 72
     9
 73
     5
 74
     0
 42
0.00000001
 43
0.00000001
 40
0.0
 40
0.0
 40
0.0
 40
0.0
 40
0.4998978730609572
 40
0.9999999999999999
 40
0.9999999999999999
 40
0.9999999999999999
 40
0.9999999999999999
 10
475.734862974403
 20
656.5917653846567
 30
0.0
 10
475.8832088076782
 20
656.6105776546018
 30
0.0
 10
476.1799610870323
 20
656.6482098810202
 30
0.0
 10
476.4299801206606
 20
656.8124347950608
 30
0.0
 10
476.5550151711533
 20
656.8945640238688
 30
0.0
  0
ARC
  5
223
330
1F
100
AcDbEntity
  8
0
  6
Continuous
 62
     7
370
    25
100
AcDbCircle
 10
459.151051941
 20
652.7620846316
 30
0.0
 40
0.5000763403572819
100
AcDbArc
 50
272.7166680289
 51
281.2454019511
  0
SPLINE
  5
224
330
1F
100
AcDbEntity
  8
0
  6
Continuous
 62
     7
370
    25
100
AcDbSpline
210
0.0
220
0.0
230
1.0
 70
     8
 71
     3
 72
    12
 73
     8
 74
     0
 42
0.00000001
 43
0.00000001
 40
0.0
 40
0.0
 40
0.0
 40
0.0
 40
0.0460726725321177
 40
0.2494576442748343
 40
0.4755636088397426
 40
0.7057929889265104
 40
0.9999999999999999
 40
0.9999999999999999
 40
0.9999999999999999
 40
0.9999999999999999
 10
487.9577200116831
 20
638.8129830547659
 30
0.0
 10
487.8289019896323
 20
638.7514791371458
 30
0.0
 10
487.1314247530222
 20
638.4184699679361
 30
0.0
 10
485.7738754173143
 20
637.8134346009643
 30
0.0
 10
483.7597827993345
 20
637.0216278393568
 30
0.0
 10
481.2577907088221
 20
636.1679559179454
 30
0.0
 10
479.3150321727701
 20
635.6857129759212
 30
0.0
 10
478.2251513182687
 20
635.415176344643
 30
0.0
  0
LINE
  5
225
330
1F
100
AcDbEntity
  8
0
  6
Continuous
 62
     7
370
    25
100
AcDbLine
 10
477.7868639845
 20
637.3662493487
 30
0.0
 11
478.2251513183
 21
635.4151763446
 31
0.0
  0
SPLINE
  5
226
330
1F
100
AcDbEntity
  8
0
  6
Continuous
 62
     7
370
    25
100
AcDbSpline
210
0.0
220
0.0
230
1.0
 70
     8
 71
     3
 72
    13
 73
     9
 74
     0
 42
0.00000001
 43
0.00000001
 40
0.0
 40
0.0
 40
0.0
 40
0.0
 40
0.257489695099433
 40
0.4890886589320979
 40
0.7206004760683425
 40
0.9447506334961265
 40
0.9460032291293301
 40
1.0
 40
1.0
 40
1.0
 40
1.0
 10
477.7868639844669
 20
637.3662493486761
 30
0.0
 10
478.7053433052571
 20
637.3310364077313
 30
0.0
 10
480.4499483430962
 20
637.2641512065306
 30
0.0
 10
482.9457188970878
 20
637.4092940918381
 30
0.0
 10
485.2645160224754
 20
637.8046318905383
 30
0.0
 10
486.7454681439064
 20
638.2926769884557
 30
0.0
 10
487.6196160861017
 20
638.6601271134642
 30
0.0
 10
487.7902720817602
 20
638.7377815969368
 30
0.0
 10
487.957059020297
 20
638.8136755232653
 30
0.0
  0
LINE
  5
227
330
1F
100
AcDbEntity
  8
0
  6
Continuous
 62
     7
370
    25
100
AcDbLine
 10
487.9570590203
 20
638.8136755233
 30
0.0
 11
487.9577200117
 21
638.8129830548
 31
0.0
  0
ARC
  5
228
330
1F
100
AcDbEntity
  8
0
  6
Continuous
 62
     7
370
    25
100
AcDbCircle
 10
467.68065293
 20
682.3548995805
 30
0.0
 40
48.10950076354636
100
AcDbArc
 50
282.4121193209
 51
282.6607017104
  0
LWPOLYLINE
  5
229
330
1F
100
AcDbEntity
  8
0
  6
Continuous
 62
     7
370
    25
100
AcDbPolyline
 90
        3
 70
   128
 43
0.0
 10
487.9577200117
 20
638.8129830548
 10
488.0008623757
 20
638.7852549474
 10
488.1049235906
 20
638.7184449414
  0
ARC
  5
22A
330
1F
100
AcDbEntity
  8
0
  6
Continuous
 62
     7
370
    25
100
AcDbCircle
 10
467.68065293
 20
682.3548995805
 30
0.0
 40
48.17977797259062
100
AcDbArc
 50
282.4121193209
 51
295.0821896878
  0
LINE
  5
22B
330
1F
100
AcDbEntity
  8
0
  6
Continuous
 62
     7
370
    25
100
AcDbLine
 10
478.0214009174
 20
635.3698701054
 30
0.0
 11
478.036506435
 21
635.3012354971
 31
0.0
  0
LINE
  5
22C
330
1F
100
AcDbEntity
  8
0
  6
Continuous
 62
     7
370
    25
100
AcDbLine
 10
475.8037331895
 20
641.0671600168
 30
0.0
 11
475.6401726852
 21
638.4727065182
 31
0.0
  0
LINE
  5
22D
330
1F
100
AcDbEntity
  8
0
  6
Continuous
 62
     7
370
    25
100
AcDbLine
 10
475.6401726852
 20
638.4727065182
 30
0.0
 11
471.69190942
 21
638.7216144023
 31
0.0
  0
SPLINE
  5
22E
330
1F
100
AcDbEntity
  8
0
  6
Continuous
 62
     7
370
    25
100
AcDbSpline
210
0.0
220
0.0
230
1.0
 70
     8
 71
     3
 72
    17
 73
    13
 74
     0
 42
0.00000001
 43
0.00000001
 40
0.0
 40
0.0
 40
0.0
 40
0.0
 40
0.0068263121770663
 40
0.0088448507297259
 40
0.0223990310416089
 40
0.0309593028397554
 40
0.0563218912149117
 40
0.1198824177066657
 40
0.1957460556357085
 40
0.5558621944880033
 40
0.77803360979772
 40
0.9999999999999999
 40
0.9999999999999999
 40
0.9999999999999999
 40
0.9999999999999999
 10
459.27743337507
 20
642.1090171684009
 30
0.0
 10
459.2810453299581
 20
642.1079508396939
 30
0.0
 10
459.2857253388709
 20
642.1065691978941
 30
0.0
 10
459.3291976568491
 20
642.0986406063491
 30
0.0
 10
459.4036358547033
 20
642.0863093422654
 30
0.0
 10
459.5702628656848
 20
642.0592927006871
 30
0.0
 10
459.95137198079
 20
641.9978099270191
 30
0.0
 10
460.6334023356077
 20
641.883300945201
 30
0.0
 10
462.7354800337748
 20
641.4997557414041
 30
0.0
 10
465.5433933370176
 20
640.8437030166017
 30
0.0
 10
468.9341904585065
 20
639.8043392434404
 30
0.0
 10
470.7729527057287
 20
639.0824115960568
 30
0.0
 10
471.6919094200433
 20
638.7216144022842
 30
0.0
  0
LINE
  5
22F
330
1F
100
AcDbEntity
  8
0
  6
Continuous
 62
     7
370
    25
100
AcDbLine
 10
471.69190942
 20
638.7216144023
 30
0.0
 11
470.5496242359
 21
637.0802837798
 31
0.0
  0
SPLINE
  5
230
330
1F
100
AcDbEntity
  8
0
  6
Continuous
 62
     7
370
    25
100
AcDbSpline
210
0.0
220
0.0
230
1.0
 70
     8
 71
     3
 72
    14
 73
    10
 74
     0
 42
0.00000001
 43
0.00000001
 40
0.0
 40
0.0
 40
0.0
 40
0.0
 40
0.2256458607195981
 40
0.4518169308148987
 40
0.8157761447763435
 40
0.8946140573305364
 40
0.9637846180221666
 40
0.99407991431257
 40
1.0
 40
1.0
 40
1.0
 40
1.0
 10
470.5496242359193
 20
637.0802837798412
 30
0.0
 10
469.7081444560817
 20
637.6318738011346
 30
0.0
 10
468.0232262827257
 20
638.7363377150488
 30
0.0
 10
464.8552850008706
 20
640.3264843844998
 30
0.0
 10
462.1915084018635
 20
641.3006260184044
 30
0.0
 10
460.2450976484558
 20
641.8372401513692
 30
0.0
 10
459.6022500409388
 20
641.9976292372356
 30
0.0
 10
459.2748971166055
 20
642.0757295890907
 30
0.0
 10
459.182530092301
 20
642.0979699682566
 30
0.0
 10
459.1674309640105
 20
642.101605576752
 30
0.0
  0
SPLINE
  5
231
330
1F
100
AcDbEntity
  8
0
  6
Continuous
 62
     7
370
    25
100
AcDbSpline
210
0.0
220
0.0
230
1.0
 70
     8
 71
     3
 72
    11
 73
     7
 74
     0
 42
0.00000001
 43
0.00000001
 40
0.0
 40
0.0
 40
0.0
 40
0.0
 40
0.0195561212296628
 40
0.1681891996745099
 40
0.5898876540792127
 40
1.0
 40
1.0
 40
1.0
 40
1.0
 10
459.2774333750699
 20
642.1090171684009
 30
0.0
 10
459.2754751735773
 20
642.109090525843
 30
0.0
 10
459.258633984162
 20
642.1097214244426
 30
0.0
 10
459.2067415805593
 20
642.1109717800955
 30
0.0
 10
459.1574421795
 20
642.1092661478452
 30
0.0
 10
459.16413243152
 20
642.1041352782006
 30
0.0
 10
459.1674309640105
 20
642.101605576752
 30
0.0
  0
LINE
  5
232
330
1F
100
AcDbEntity
  8
0
  6
Continuous
 62
     7
370
    25
100
AcDbLine
 10
478.6138109144
 20
639.9802811013
 30
0.0
 11
476.9890099932
 21
637.9510046387
 31
0.0
  0
LINE
  5
233
330
1F
100
AcDbEntity
  8
0
  6
Continuous
 62
     7
370
    25
100
AcDbLine
 10
487.9570590203
 20
638.8136755233
 30
0.0
 11
487.9564957212
 21
638.8142669665
 31
0.0
  0
ARC
  5
234
330
1F
100
AcDbEntity
  8
0
  6
Continuous
 62
     7
370
    25
100
AcDbCircle
 10
484.2339477327
 20
646.9994864776
 30
0.0
 40
11.59155496206745
100
AcDbArc
 50
231.316445536
 51
236.2074198262
  0
LWPOLYLINE
  5
235
330
1F
100
AcDbEntity
  8
0
  6
Continuous
 62
     7
370
    25
100
AcDbPolyline
 90
        4
 70
   128
 43
0.0
 10
459.167430964
 20
642.1016055768
 10
459.165053679
 20
642.0842652999
 10
459.1555410428
 20
642.0149043781
 10
459.148829876
 20
641.9659949863
  0
ARC
  5
236
330
1F
100
AcDbEntity
  8
0
  6
Continuous
 62
     7
370
    25
100
AcDbCircle
 10
452.511430407
 20
611.1615024488
 30
0.0
 40
31.57783498432747
100
AcDbArc
 50
54.382108972
 51
55.1639863994
  0
LINE
  5
237
330
1F
100
AcDbEntity
  8
0
  6
Continuous
 62
     7
370
    25
100
AcDbLine
 10
470.9016301105
 20
636.8317228834
 30
0.0
 11
470.8607022917
 21
636.7745932085
 31
0.0
  0
ARC
  5
238
330
1F
100
AcDbEntity
  8
0
  6
Continuous
 62
     7
370
    25
100
AcDbCircle
 10
452.511430407
 20
611.1615024488
 30
0.0
 40
31.50755777528332
100
AcDbArc
 50
54.382108972
 51
74.4960411411
  0
LINE
  5
239
330
1F
100
AcDbEntity
  8
0
  6
Continuous
 62
     7
370
    25
100
AcDbLine
 10
459.148829876
 20
641.9659949863
 30
0.0
 11
460.9335568023
 21
641.5225627719
 31
0.0
  0
LINE
  5
23A
330
1F
100
AcDbEntity
  8
0
  6
Continuous
 62
     7
370
    25
100
AcDbLine
 10
459.1563069678
 20
652.4131089988
 30
0.0
 11
459.2302224522
 21
652.422852275
 31
0.0
  0
SPLINE
  5
23B
330
1F
100
AcDbEntity
  8
0
  6
Continuous
 62
     7
370
    25
100
AcDbSpline
210
0.0
220
0.0
230
1.0
 70
     8
 71
     3
 72
    10
 73
     6
 74
     0
 42
0.00000001
 43
0.00000001
 40
0.0
 40
0.0
 40
0.0
 40
0.0
 40
0.0490769085761659
 40
0.5995805843665435
 40
1.0
 40
1.0
 40
1.0
 40
1.0
 10
476.9890099931524
 20
637.9510046387063
 30
0.0
 10
476.9701768436191
 20
637.965774408013
 30
0.0
 10
476.7400891887465
 20
638.1462190849232
 30
0.0
 10
476.2960506449463
 20
638.383734411405
 30
0.0
 10
475.8345173964713
 20
638.4463429879679
 30
0.0
 10
475.6401726851939
 20
638.4727065181702
 30
0.0
  0
ARC
  5
23C
330
1F
100
AcDbEntity
  8
0
  6
Continuous
 62
     7
370
    25
100
AcDbCircle
 10
459.0622691104
 20
641.6127115894
 30
0.0
 40
0.5000763405093894
100
AcDbArc
 50
77.8605587269
 51
86.3914084236
  0
SPLINE
  5
23D
330
1F
100
AcDbEntity
  8
0
  6
Continuous
 62
     7
370
    25
100
AcDbSpline
210
0.0
220
0.0
230
1.0
 70
     8
 71
     3
 72
     9
 73
     5
 74
     0
 42
0.00000001
 43
0.00000001
 40
0.0
 40
0.0
 40
0.0
 40
0.0
 40
0.8458911907780439
 40
1.0
 40
1.0
 40
1.0
 40
1.0
 10
459.1488298759867
 20
641.9659949863266
 30
0.0
 10
459.1280196034083
 20
641.9699718888731
 30
0.0
 10
459.1034180083032
 20
641.9746733239868
 30
0.0
 10
459.0788596710358
 20
641.9765919937068
 30
0.0
 10
459.075075014923
 20
641.9768876776126
 30
0.0
  0
LINE
  5
23E
330
1F
100
AcDbEntity
  8
0
  6
Continuous
 62
     7
370
    25
100
AcDbLine
 10
471.0619537697
 20
657.3729289769
 30
0.0
 11
472.908398728
 21
658.3555533211
 31
0.0
  0
LINE
  5
23F
330
1F
100
AcDbEntity
  8
0
  6
Continuous
 62
     7
370
    25
100
AcDbLine
 10
473.6339412662
 20
656.4921237734
 30
0.0
 11
472.908398728
 21
658.3555533211
 31
0.0
  0
LINE
  5
240
330
1F
100
AcDbEntity
  8
0
  6
Continuous
 62
     7
370
    25
100
AcDbLine
 10
476.6243503236
 20
656.9479834597
 30
0.0
 11
476.7617159341
 21
658.9429552247
 31
0.0
  0
LINE
  5
241
330
1F
100
AcDbEntity
  8
0
  6
Continuous
 62
     7
370
    25
100
AcDbLine
 10
476.7617159341
 20
658.9429552247
 30
0.0
 11
478.2029582807
 21
658.7234437159
 31
0.0
  0
ARC
  5
242
330
1F
100
AcDbEntity
  8
0
  6
Continuous
 62
     7
370
    25
100
AcDbCircle
 10
476.1483096624
 20
650.0344068009
 30
0.0
 40
6.929946387144318
100
AcDbArc
 50
86.0610637176
 51
111.2738846725
  0
ARC
  5
243
330
1F
100
AcDbEntity
  8
0
  6
Continuous
 62
     7
370
    25
100
AcDbCircle
 10
476.1483096624
 20
650.0344068009
 30
0.0
 40
8.929641777457139
100
AcDbArc
 50
86.0610637176
 51
111.2738846725
  0
ARC
  5
244
330
1F
100
AcDbEntity
  8
0
  6
Continuous
 62
     7
370
    25
100
AcDbCircle
 10
452.511430407
 20
611.1615024488
 30
0.0
 40
33.57753037464037
100
AcDbArc
 50
54.382108972
 51
55.1639863994
  0
LINE
  5
245
330
1F
100
AcDbEntity
  8
0
  6
Continuous
 62
     7
370
    25
100
AcDbLine
 10
472.0662063898
 20
638.4573131589
 30
0.0
 11
470.9016301105
 21
636.8317228834
 31
0.0
  0
ARC
  5
246
330
1F
100
AcDbEntity
  8
0
  6
Continuous
 62
     7
370
    25
100
AcDbCircle
 10
467.68065293
 20
682.3548995805
 30
0.0
 40
46.10980537323363
100
AcDbArc
 50
282.4121193209
 51
282.6607017104
  0
ARC
  5
247
330
1F
100
AcDbEntity
  8
0
  6
Continuous
 62
     7
370
    25
100
AcDbCircle
 10
476.1020466574
 20
644.0907978942
 30
0.0
 40
6.929946387144346
100
AcDbArc
 50
234.382108972
 51
282.4121193209
  0
LINE
  5
248
330
1F
100
AcDbEntity
  8
0
  6
Continuous
 62
     7
370
    25
100
AcDbLine
 10
477.5915825707
 20
637.3228262858
 30
0.0
 11
478.0214009174
 21
635.3698701054
 31
0.0
  0
ARC
  5
249
330
1F
100
AcDbEntity
  8
0
  6
Continuous
 62
     7
370
    25
100
AcDbCircle
 10
476.1020466574
 20
644.0907978942
 30
0.0
 40
8.929641777457134
100
AcDbArc
 50
234.382108972
 51
282.4121193209
  0
ARC
  5
24A
330
1F
100
AcDbEntity
  8
0
  6
Continuous
 62
     7
370
    25
100
AcDbCircle
 10
476.1483096624
 20
650.0344068009
 30
0.0
 40
8.999918986501246
100
AcDbArc
 50
76.6959574571
 51
124.7259678059
  0
ARC
  5
24B
330
1F
100
AcDbEntity
  8
0
  6
Continuous
 62
     7
370
    25
100
AcDbCircle
 10
476.1020466574
 20
644.0907978942
 30
0.0
 40
8.999918986501328
100
AcDbArc
 50
234.382108972
 51
282.4121193209
  0
CIRCLE
  5
24C
330
1F
100
AcDbEntity
  8
0
  6
Continuous
 62
     7
370
    25
100
AcDbCircle
 10
687.4339477327
 20
646.9994864776
 30
0.0
 40
5.328914336627651
  0
CIRCLE
  5
24D
330
1F
100
AcDbEntity
  8
0
  6
Continuous
 62
     7
370
    25
100
AcDbCircle
 10
687.4339477327
 20
646.9994864776
 30
0.0
 40
5.925127771161327
  0
CIRCLE
  5
24E
330
1F
100
AcDbEntity
  8
0
  6
Continuous
 62
     7
370
    25
100
AcDbCircle
 10
687.4339477327
 20
646.9994864776
 30
0.0
 40
4.452105871057278
  0
CIRCLE
  5
24F
330
1F
100
AcDbEntity
  8
0
  6
Continuous
 62
     7
370
    25
100
AcDbCircle
 10
687.4339477327
 20
646.9994864776
 30
0.0
 40
5.07456925368923
  0
CIRCLE
  5
250
330
1F
100
AcDbEntity
  8
0
  6
Continuous
 62
     7
370
    25
100
AcDbCircle
 10
687.4339477327
 20
646.9994864776
 30
0.0
 40
7.149999999999959
  0
CIRCLE
  5
251
330
1F
100
AcDbEntity
  8
0
  6
Continuous
 62
     7
370
    25
100
AcDbCircle
 10
484.2339477327
 20
646.9994864776
 30
0.0
 40
5.32891433662763
  0
CIRCLE
  5
252
330
1F
100
AcDbEntity
  8
0
  6
Continuous
 62
     7
370
    25
100
AcDbCircle
 10
484.2339477327
 20
646.9994864776
 30
0.0
 40
5.074569253689207
  0
CIRCLE
  5
253
330
1F
100
AcDbEntity
  8
0
  6
Continuous
 62
     7
370
    25
100
AcDbCircle
 10
484.2339477327
 20
646.9994864776
 30
0.0
 40
4.452105871057297
  0
CIRCLE
  5
254
330
1F
100
AcDbEntity
  8
0
  6
Continuous
 62
     7
370
    25
100
AcDbCircle
 10
484.2339477327
 20
646.9994864776
 30
0.0
 40
5.925127771161422
  0
CIRCLE
  5
255
330
1F
100
AcDbEntity
  8
0
  6
Continuous
 62
     7
370
    25
100
AcDbCircle
 10
484.2339477327
 20
646.9994864776
 30
0.0
 40
7.15000000000011
  0
ARC
  5
256
330
1F
100
AcDbEntity
  8
0
  6
Continuous
 62
     7
370
    25
100
AcDbCircle
 10
687.4339477327
 20
646.9994864776
 30
0.0
 40
10.30000000000001
100
AcDbArc
 50
114.8169591247
 51
129.3552372715
  0
SPLINE
  5
257
330
1F
100
AcDbEntity
  8
0
  6
Continuous
 62
     7
370
    25
100
AcDbSpline
210
0.0
220
0.0
230
1.0
 70
    24
 71
     3
 72
    10
 73
     6
 74
     0
 42
0.00000001
 43
0.00000001
 40
0.0
 40
0.0
 40
0.0
 40
0.0
 40
0.0762794235929206
 40
0.6729425033993389
 40
1.0
 40
1.0
 40
1.0
 40
1.0
 10
683.1108239103752
 20
656.3483153035008
 30
0.0
 10
683.1859860292795
 20
656.3510531121756
 30
0.0
 10
683.8490715912022
 20
656.3752062551415
 30
0.0
 10
684.862088320925
 20
656.4121057735515
 30
0.0
 10
685.831740784457
 20
656.4474257321265
 30
0.0
 10
686.1750611731062
 20
656.4599313074342
 30
0.0
  0
SPLINE
  5
258
330
1F
100
AcDbEntity
  8
0
  6
Continuous
 62
     7
370
    25
100
AcDbSpline
210
0.0
220
0.0
230
1.0
 70
    24
 71
     3
 72
    10
 73
     6
 74
     0
 42
0.00000001
 43
0.00000001
 40
0.0
 40
0.0
 40
0.0
 40
0.0
 40
0.3848035719694382
 40
0.9302662133992796
 40
1.0
 40
1.0
 40
1.0
 40
1.0
 10
687.1610653842522
 20
637.48324638454
 30
0.0
 10
686.7189369001583
 20
637.467141686898
 30
0.0
 10
685.6500871786521
 20
637.4282084305961
 30
0.0
 10
684.5406595371288
 20
637.3877971081745
 30
0.0
 10
683.8776059355184
 20
637.3636451293753
 30
0.0
 10
683.8024474393816
 20
637.3609074526613
 30
0.0
  0
ARC
  5
259
330
1F
100
AcDbEntity
  8
0
  6
Continuous
 62
     7
370
    25
100
AcDbCircle
 10
687.4339477327
 20
646.9994864776
 30
0.0
 40
10.30000000000007
100
AcDbArc
 50
234.8169591247
 51
249.3552372715
  0
SPLINE
  5
25A
330
1F
100
AcDbEntity
  8
0
  6
Continuous
 62
     7
370
    25
100
AcDbSpline
210
0.0
220
0.0
230
1.0
 70
    24
 71
     3
 72
    11
 73
     7
 74
     0
 42
0.00000001
 43
0.00000001
 40
0.0
 40
0.0
 40
0.0
 40
0.0
 40
0.2431641197380924
 40
0.4936284730588971
 40
0.7421706076863294
 40
1.0
 40
1.0
 40
1.0
 40
1.0
 10
681.4991863850214
 20
638.5811370107367
 30
0.0
 10
681.1658531986759
 20
639.1128021604915
 30
0.0
 10
680.4891795513763
 20
640.1920940244999
 30
0.0
 10
679.4157564060134
 20
641.904199811465
 30
0.0
 10
678.3196851461064
 20
643.6524292539914
 30
0.0
 10
677.6247723298748
 20
644.760812522273
 30
0.0
 10
677.2709432941026
 20
645.3251684730075
 30
0.0
  0
ARC
  5
25B
330
1F
100
AcDbEntity
  8
0
  6
Continuous
 62
     7
370
    25
100
AcDbCircle
 10
687.4339477327
 20
646.9994864776
 30
0.0
 40
10.30000000000005
100
AcDbArc
 50
174.8169591247
 51
189.3552372715
  0
SPLINE
  5
25C
330
1F
100
AcDbEntity
  8
0
  6
Continuous
 62
     7
370
    25
100
AcDbSpline
210
0.0
220
0.0
230
1.0
 70
    24
 71
     3
 72
    11
 73
     7
 74
     0
 42
0.00000001
 43
0.00000001
 40
0.0
 40
0.0
 40
0.0
 40
0.0
 40
0.2431641197380931
 40
0.4936284730588939
 40
0.7421706076863286
 40
1.0
 40
1.0
 40
1.0
 40
1.0
 10
677.1760625626645
 20
647.9299658366683
 30
0.0
 10
677.4698314954862
 20
648.4844734188453
 30
0.0
 10
678.0661888441655
 20
649.6101359194823
 30
0.0
 10
679.0122043769622
 20
651.3958005258595
 30
0.0
 10
679.9781798558806
 20
653.2191408025601
 30
0.0
 10
680.5906115152262
 20
654.3751445889731
 30
0.0
 10
680.9024435874531
 20
654.9637474979155
 30
0.0
  0
ARC
  5
25D
330
1F
100
AcDbEntity
  8
0
  6
Continuous
 62
     7
370
    25
100
AcDbCircle
 10
484.2339477327
 20
646.9994864776
 30
0.0
 40
10.30000000000014
100
AcDbArc
 50
292.2848993156
 51
306.8231774624
  0
SPLINE
  5
25E
330
1F
100
AcDbEntity
  8
0
  6
Continuous
 62
     7
370
    25
100
AcDbSpline
210
0.0
220
0.0
230
1.0
 70
    24
 71
     3
 72
    10
 73
     6
 74
     0
 42
0.00000001
 43
0.00000001
 40
0.0
 40
0.0
 40
0.0
 40
0.0
 40
0.0753950068353589
 40
0.6651401158242031
 40
1.0
 40
1.0
 40
1.0
 40
1.0
 10
488.1398344347622
 20
637.4687966247358
 30
0.0
 10
488.0646252471437
 20
637.4693820271527
 30
0.0
 10
487.4011244416743
 20
637.4745464889364
 30
0.0
 10
486.3754072807151
 20
637.4825303180972
 30
0.0
 10
485.3927355222265
 20
637.4901790966682
 30
0.0
 10
485.03684586809
 20
637.4929492191803
 30
0.0
  0
SPLINE
  5
25F
330
1F
100
AcDbEntity
  8
0
  6
Continuous
 62
     7
370
    25
100
AcDbSpline
210
0.0
220
0.0
230
1.0
 70
    24
 71
     3
 72
    10
 73
     6
 74
     0
 42
0.00000001
 43
0.00000001
 40
0.0
 40
0.0
 40
0.0
 40
0.0
 40
0.3848035719694745
 40
0.9302662133992786
 40
1.0
 40
1.0
 40
1.0
 40
1.0
 10
484.9269758890839
 20
656.4943799608471
 30
0.0
 10
485.3693841842938
 20
656.4909364070269
 30
0.0
 10
486.4389103517743
 20
656.4826115836458
 30
0.0
 10
487.5490401199364
 20
656.4739707158194
 30
0.0
 10
488.2125133501723
 20
656.4688064686719
 30
0.0
 10
488.2877194120812
 20
656.4682210905844
 30
0.0
  0
ARC
  5
260
330
1F
100
AcDbEntity
  8
0
  6
Continuous
 62
     7
370
    25
100
AcDbCircle
 10
484.2339477327
 20
646.9994864776
 30
0.0
 40
10.3000000000002
100
AcDbArc
 50
52.2848993156
 51
66.8231774624
  0
SPLINE
  5
261
330
1F
100
AcDbEntity
  8
0
  6
Continuous
 62
     7
370
    25
100
AcDbSpline
210
0.0
220
0.0
230
1.0
 70
    24
 71
     3
 72
    11
 73
     7
 74
     0
 42
0.00000001
 43
0.00000001
 40
0.0
 40
0.0
 40
0.0
 40
0.0
 40
0.2431641197380933
 40
0.4936284730588963
 40
0.7421706076863291
 40
1.0
 40
1.0
 40
1.0
 40
1.0
 10
490.5348239098616
 20
655.1474285122479
 30
0.0
 10
490.8443435348678
 20
654.6015563236186
 30
0.0
 10
491.4726751326304
 20
653.4934238604549
 30
0.0
 10
492.4694121604325
 20
651.7355675602503
 30
0.0
 10
493.4871793052703
 20
649.9406223161274
 30
0.0
 10
494.1324470526861
 20
648.8026210746013
 30
0.0
 10
494.4609982889706
 20
648.2231845286186
 30
0.0
  0
ARC
  5
262
330
1F
100
AcDbEntity
  8
0
  6
Continuous
 62
     7
370
    25
100
AcDbCircle
 10
484.2339477327
 20
646.9994864776
 30
0.0
 40
10.30000000000001
100
AcDbArc
 50
352.2848993156
 51
6.8231774624
  0
SPLINE
  5
263
330
1F
100
AcDbEntity
  8
0
  6
Continuous
 62
     7
370
    25
100
AcDbSpline
210
0.0
220
0.0
230
1.0
 70
    24
 71
     3
 72
    11
 73
     7
 74
     0
 42
0.00000001
 43
0.00000001
 40
0.0
 40
0.0
 40
0.0
 40
0.0
 40
0.2431641197380923
 40
0.493628473058895
 40
0.7421706076863306
 40
1.0
 40
1.0
 40
1.0
 40
1.0
 10
494.4407106118916
 20
645.6167386594144
 30
0.0
 10
494.1227312418224
 20
645.0757507068745
 30
0.0
 10
493.4772261768458
 20
643.9775333496297
 30
0.0
 10
492.4532464785671
 20
642.2354056125581
 30
0.0
 10
491.4076618711735
 20
640.45652078793
 30
0.0
 10
490.7447577601817
 20
639.3287019056622
 30
0.0
 10
490.4072266096217
 20
638.7544499156035
 30
0.0
  0
ARC
  5
264
330
1F
100
AcDbEntity
  8
0
  6
Continuous
 62
     7
370
    25
100
AcDbCircle
 10
484.2339477327
 20
646.9994864776
 30
0.0
 40
14.87500000000001
100
AcDbArc
 50
232.9377854295
 51
29.554038389
  0
ARC
  5
265
330
1F
100
AcDbEntity
  8
0
  6
Continuous
 62
     7
370
    25
100
AcDbCircle
 10
484.2339477327
 20
646.9994864776
 30
0.0
 40
14.87500000000006
100
AcDbArc
 50
29.554038389
 51
126.1697339483
  0
ARC
  5
266
330
1F
100
AcDbEntity
  8
0
  6
Continuous
 62
     7
370
    25
100
AcDbCircle
 10
484.2339477327
 20
646.9994864776
 30
0.0
 40
10.57499999999999
100
AcDbArc
 50
261.2049401497
 51
29.554038389
  0
ARC
  5
267
330
1F
100
AcDbEntity
  8
0
  6
Continuous
 62
     7
370
    25
100
AcDbCircle
 10
484.2339477327
 20
646.9994864776
 30
0.0
 40
10.57500000000003
100
AcDbArc
 50
29.554038389
 51
97.9031366283
  0
SPLINE
  5
268
330
1F
100
AcDbEntity
  8
0
  6
Continuous
 62
     7
370
    25
100
AcDbSpline
210
0.0
220
0.0
230
1.0
 70
     8
 71
     3
 72
     9
 73
     5
 74
     0
 42
0.00000001
 43
0.00000001
 40
0.0
 40
0.0
 40
0.0
 40
0.0
 40
0.5850553834533949
 40
1.0
 40
1.0
 40
1.0
 40
1.0
 10
473.0049112148687
 20
633.8579972590494
 30
0.0
 10
473.2616696118616
 20
633.4694405052013
 30
0.0
 10
473.70053130642
 20
632.8053038015023
 30
0.0
 10
474.3686404362766
 20
632.3219301535048
 30
0.0
 10
474.6458687229762
 20
632.1213568604876
 30
0.0
  0
LINE
  5
269
330
1F
100
AcDbEntity
  8
0
  6
Continuous
 62
     7
370
    25
100
AcDbLine
 10
471.58003228
 20
636.3709292991
 30
0.0
 11
473.0049112149
 21
633.857997259
 31
0.0
  0
SPLINE
  5
26A
330
1F
100
AcDbEntity
  8
0
  6
Continuous
 62
     7
370
    25
100
AcDbSpline
210
0.0
220
0.0
230
1.0
 70
    24
 71
     3
 72
     9
 73
     5
 74
     0
 42
0.00000001
 43
0.00000001
 40
0.0
 40
0.0
 40
0.0
 40
0.0
 40
0.8701391747228723
 40
1.0
 40
1.0
 40
1.0
 40
1.0
 10
473.21083702101
 20
660.3141787472807
 30
0.0
 10
472.7605116344323
 20
659.5480265003335
 30
0.0
 10
472.2429790377403
 20
658.6675325871715
 30
0.0
 10
471.7023091957343
 20
657.7476745763732
 30
0.0
 10
471.6320973638489
 20
657.6282210559532
 30
0.0
  0
SPLINE
  5
26B
330
1F
100
AcDbEntity
  8
0
  6
Continuous
 62
     7
370
    25
100
AcDbSpline
210
0.0
220
0.0
230
1.0
 70
     8
 71
     3
 72
     9
 73
     5
 74
     0
 42
0.00000001
 43
0.00000001
 40
0.0
 40
0.0
 40
0.0
 40
0.0
 40
0.5841917497409249
 40
1.0
 40
1.0
 40
1.0
 40
1.0
 10
474.8786288892103
 20
662.025064980111
 30
0.0
 10
474.4887328105488
 20
661.738815130621
 30
0.0
 10
473.821321675704
 20
661.2488221623586
 30
0.0
 10
473.3901300545348
 20
660.5886738584433
 30
0.0
 10
473.21083702101
 20
660.3141787472807
 30
0.0
  0
ARC
  5
26C
330
1F
100
AcDbEntity
  8
0
  6
Continuous
 62
     7
370
    25
100
AcDbCircle
 10
484.2339477327
 20
646.9994864776
 30
0.0
 40
17.69999999999999
100
AcDbArc
 50
117.2006019616
 51
121.9074748164
  0
SPLINE
  5
26D
330
1F
100
AcDbEntity
  8
0
  6
Continuous
 62
     7
370
    25
100
AcDbSpline
210
0.0
220
0.0
230
1.0
 70
     8
 71
     3
 72
     9
 73
     5
 74
     0
 42
0.00000001
 43
0.00000001
 40
0.0
 40
0.0
 40
0.0
 40
0.0
 40
0.5850553834536345
 40
1.0
 40
1.0
 40
1.0
 40
1.0
 10
478.4676024848648
 20
663.2948619713219
 30
0.0
 10
478.002723266724
 20
663.2667810538151
 30
0.0
 10
477.2081331624565
 20
663.2187840294289
 30
0.0
 10
476.4554647388429
 20
662.8818713744718
 30
0.0
 10
476.1431490284201
 20
662.742071282051
 30
0.0
  0
SPLINE
  5
26E
330
1F
100
AcDbEntity
  8
0
  6
Continuous
 62
     7
370
    25
100
AcDbSpline
210
0.0
220
0.0
230
1.0
 70
    24
 71
     3
 72
    11
 73
     7
 74
     0
 42
0.00000001
 43
0.00000001
 40
0.0
 40
0.0
 40
0.0
 40
0.0
 40
0.2328716322111475
 40
0.4710265024313241
 40
0.7311421212560292
 40
1.0
 40
1.0
 40
1.0
 40
1.0
 10
490.2532541260136
 20
663.2031265175046
 30
0.0
 10
489.3594247717406
 20
663.2100837773955
 30
0.0
 10
487.5514874522997
 20
663.224156138901
 30
0.0
 10
484.6239033946655
 20
663.2469434450502
 30
0.0
 10
481.5368979963377
 20
663.2709716320164
 30
0.0
 10
479.5019116195429
 20
663.2868112651968
 30
0.0
 10
478.4676024848648
 20
663.2948619713219
 30
0.0
  0
SPLINE
  5
26F
330
1F
100
AcDbEntity
  8
0
  6
Continuous
 62
     7
370
    25
100
AcDbSpline
210
0.0
220
0.0
230
1.0
 70
     8
 71
     3
 72
     9
 73
     5
 74
     0
 42
0.00000001
 43
0.00000001
 40
0.0
 40
0.0
 40
0.0
 40
0.0
 40
0.5841917497409252
 40
1.0
 40
1.0
 40
1.0
 40
1.0
 10
492.5688210007297
 20
662.6142195078332
 30
0.0
 10
492.1259733199112
 20
662.8087544920452
 30
0.0
 10
491.3679213942979
 20
663.1417530054581
 30
0.0
 10
490.5806203822573
 20
663.1851017513319
 30
0.0
 10
490.2532541260136
 20
663.2031265175046
 30
0.0
  0
ARC
  5
270
330
1F
100
AcDbEntity
  8
0
  6
Continuous
 62
     7
370
    25
100
AcDbCircle
 10
484.2339477327
 20
646.9994864776
 30
0.0
 40
17.70000000000001
100
AcDbArc
 50
57.2006019616
 51
61.9074748164
  0
SPLINE
  5
271
330
1F
100
AcDbEntity
  8
0
  6
Continuous
 62
     7
370
    25
100
AcDbSpline
210
0.0
220
0.0
230
1.0
 70
     8
 71
     3
 72
     9
 73
     5
 74
     0
 42
0.00000001
 43
0.00000001
 40
0.0
 40
0.0
 40
0.0
 40
0.0
 40
0.5850553834535985
 40
1.0
 40
1.0
 40
1.0
 40
1.0
 10
495.4629842505947
 20
660.1409756960903
 30
0.0
 10
495.2062258536018
 20
660.5295324499383
 30
0.0
 10
494.7673641590436
 20
661.1936691536366
 30
0.0
 10
494.0992550291874
 20
661.6770428016339
 30
0.0
 10
493.8220267424882
 20
661.8776160946506
 30
0.0
  0
SPLINE
  5
272
330
1F
100
AcDbEntity
  8
0
  6
Continuous
 62
     7
370
    25
100
AcDbSpline
210
0.0
220
0.0
230
1.0
 70
    24
 71
     3
 72
    11
 73
     7
 74
     0
 42
0.00000001
 43
0.00000001
 40
0.0
 40
0.0
 40
0.0
 40
0.0
 40
0.2556279644380978
 40
0.5185037642963888
 40
0.7560467972580112
 40
1.0
 40
1.0
 40
1.0
 40
1.0
 10
501.2763648377357
 20
649.8884342477932
 30
0.0
 10
500.7917099002474
 20
650.7431769848697
 30
0.0
 10
499.8086585739776
 20
652.4768970324922
 30
0.0
 10
498.3089881034852
 20
655.1217322410316
 30
0.0
 10
496.8374278032146
 20
657.7169920465853
 30
0.0
 10
495.9251803581114
 20
659.3258415966582
 30
0.0
 10
495.4629842505947
 20
660.1409756960903
 30
0.0
  0
SPLINE
  5
273
330
1F
100
AcDbEntity
  8
0
  6
Continuous
 62
     7
370
    25
100
AcDbSpline
210
0.0
220
0.0
230
1.0
 70
     8
 71
     3
 72
     9
 73
     5
 74
     0
 42
0.00000001
 43
0.00000001
 40
0.0
 40
0.0
 40
0.0
 40
0.0
 40
0.5841917497409257
 40
1.0
 40
1.0
 40
1.0
 40
1.0
 10
501.9241398442517
 20
647.5886410052916
 30
0.0
 10
501.8711882420947
 20
648.0694258389933
 30
0.0
 10
501.7805474513261
 20
648.8924173206688
 30
0.0
 10
501.4244380604548
 20
649.595914370458
 30
0.0
 10
501.2763648377357
 20
649.888434247793
 30
0.0
  0
ARC
  5
274
330
1F
100
AcDbEntity
  8
0
  6
Continuous
 62
     7
370
    25
100
AcDbCircle
 10
484.2339477327
 20
646.9994864776
 30
0.0
 40
17.70000000000011
100
AcDbArc
 50
357.2006019616
 51
1.9074748164
  0
SPLINE
  5
275
330
1F
100
AcDbEntity
  8
0
  6
Continuous
 62
     7
370
    25
100
AcDbSpline
210
0.0
220
0.0
230
1.0
 70
     8
 71
     3
 72
     9
 73
     5
 74
     0
 42
0.00000001
 43
0.00000001
 40
0.0
 40
0.0
 40
0.0
 40
0.0
 40
0.5850553834536166
 40
1.0
 40
1.0
 40
1.0
 40
1.0
 10
501.2293294984622
 20
643.8456002023377
 30
0.0
 10
501.43745031961
 20
644.2622378736924
 30
0.0
 10
501.7931787293193
 20
644.974371601777
 30
0.0
 10
501.8777380230768
 20
645.7946579047313
 30
0.0
 10
501.9128254468004
 20
646.1350312901689
 30
0.0
  0
SPLINE
  5
276
330
1F
100
AcDbEntity
  8
0
  6
Continuous
 62
     7
370
    25
100
AcDbSpline
210
0.0
220
0.0
230
1.0
 70
    24
 71
     3
 72
    11
 73
     7
 74
     0
 42
0.00000001
 43
0.00000001
 40
0.0
 40
0.0
 40
0.0
 40
0.0
 40
0.2328716322111473
 40
0.4710265024313207
 40
0.731142121256029
 40
1.0
 40
1.0
 40
1.0
 40
1.0
 10
495.2570584444543
 20
633.6847942078576
 30
0.0
 10
495.709998285397
 20
634.4553945053608
 30
0.0
 10
496.6261539676724
 20
636.0140779716938
 30
0.0
 10
498.1096803824985
 20
638.5380464842448
 30
0.0
 10
499.673992101982
 20
641.1994574873332
 30
0.0
 10
500.7052028151002
 20
642.9538875694026
 30
0.0
 10
501.2293294984622
 20
643.8456002023377
 30
0.0
  0
SPLINE
  5
277
330
1F
100
AcDbEntity
  8
0
  6
Continuous
 62
     7
370
    25
100
AcDbSpline
210
0.0
220
0.0
230
1.0
 70
     8
 71
     3
 72
     9
 73
     5
 74
     0
 42
0.00000001
 43
0.00000001
 40
0.0
 40
0.0
 40
0.0
 40
0.0
 40
0.5841917497409135
 40
1.0
 40
1.0
 40
1.0
 40
1.0
 10
493.5892665762541
 20
631.9739079750274
 30
0.0
 10
493.9791626549156
 20
632.2601578245174
 30
0.0
 10
494.6465737897603
 20
632.7501507927798
 30
0.0
 10
495.0777654109296
 20
633.4102990966951
 30
0.0
 10
495.2570584444543
 20
633.6847942078576
 30
0.0
  0
ARC
  5
278
330
1F
100
AcDbEntity
  8
0
  6
Continuous
 62
     7
370
    25
100
AcDbCircle
 10
484.2339477327
 20
646.9994864776
 30
0.0
 40
17.70000000000015
100
AcDbArc
 50
297.2006019616
 51
301.9074748164
  0
SPLINE
  5
279
330
1F
100
AcDbEntity
  8
0
  6
Continuous
 62
     7
370
    25
100
AcDbSpline
210
0.0
220
0.0
230
1.0
 70
     8
 71
     3
 72
     9
 73
     5
 74
     0
 42
0.00000001
 43
0.00000001
 40
0.0
 40
0.0
 40
0.0
 40
0.0
 40
0.5850553834536076
 40
1.0
 40
1.0
 40
1.0
 40
1.0
 10
490.0002929805996
 20
630.7041109838163
 30
0.0
 10
490.4651721987403
 20
630.7321919013233
 30
0.0
 10
491.2597623030079
 20
630.7801889257095
 30
0.0
 10
492.0124307266215
 20
631.1171015806666
 30
0.0
 10
492.3247464370444
 20
631.2569016730873
 30
0.0
  0
SPLINE
  5
27A
330
1F
100
AcDbEntity
  8
0
  6
Continuous
 62
     7
370
    25
100
AcDbSpline
210
0.0
220
0.0
230
1.0
 70
    24
 71
     3
 72
    11
 73
     7
 74
     0
 42
0.00000001
 43
0.00000001
 40
0.0
 40
0.0
 40
0.0
 40
0.0
 40
0.2328716322111484
 40
0.4710265024313229
 40
0.7311421212560314
 40
1.0
 40
1.0
 40
1.0
 40
1.0
 10
478.2146413394508
 20
630.7958464376336
 30
0.0
 10
479.1084706937237
 20
630.7888891777429
 30
0.0
 10
480.9164080131646
 20
630.7748168162374
 30
0.0
 10
483.8439920707988
 20
630.7520295100882
 30
0.0
 10
486.9309974691266
 20
630.728001323122
 30
0.0
 10
488.9659838459214
 20
630.7121616899416
 30
0.0
 10
490.0002929805996
 20
630.7041109838163
 30
0.0
  0
SPLINE
  5
27B
330
1F
100
AcDbEntity
  8
0
  6
Continuous
 62
     7
370
    25
100
AcDbSpline
210
0.0
220
0.0
230
1.0
 70
     8
 71
     3
 72
     9
 73
     5
 74
     0
 42
0.00000001
 43
0.00000001
 40
0.0
 40
0.0
 40
0.0
 40
0.0
 40
0.5841917497409241
 40
1.0
 40
1.0
 40
1.0
 40
1.0
 10
475.8990744647347
 20
631.384753447305
 30
0.0
 10
476.3419221455532
 20
631.1902184630932
 30
0.0
 10
477.0999740711666
 20
630.8572199496803
 30
0.0
 10
477.887275083207
 20
630.8138712038063
 30
0.0
 10
478.2146413394508
 20
630.7958464376336
 30
0.0
  0
ARC
  5
27C
330
1F
100
AcDbEntity
  8
0
  6
Continuous
 62
     7
370
    25
100
AcDbCircle
 10
484.2339477327
 20
646.9994864776
 30
0.0
 40
17.70000000000014
100
AcDbArc
 50
237.2006019616
 51
241.9074748164
  0
ARC
  5
27D
330
1F
100
AcDbEntity
  8
0
  6
Continuous
 62
     7
370
    25
100
AcDbCircle
 10
484.2339477327
 20
646.9994864776
 30
0.0
 40
16.20000000000003
100
AcDbArc
 50
223.4791145547
 51
135.6282666545
  0
ARC
  5
27E
330
1F
100
AcDbEntity
  8
0
  6
Continuous
 62
     7
370
    25
100
AcDbCircle
 10
687.4339477327
 20
646.9994864776
 30
0.0
 40
14.87500000000006
100
AcDbArc
 50
55.4698452397
 51
212.0860981981
  0
ARC
  5
27F
330
1F
100
AcDbEntity
  8
0
  6
Continuous
 62
     7
370
    25
100
AcDbCircle
 10
687.4339477327
 20
646.9994864776
 30
0.0
 40
14.87500000000006
100
AcDbArc
 50
212.0860981981
 51
308.7017937578
  0
ARC
  5
280
330
1F
100
AcDbEntity
  8
0
  6
Continuous
 62
     7
370
    25
100
AcDbCircle
 10
687.4339477327
 20
646.9994864776
 30
0.0
 40
10.5750000000001
100
AcDbArc
 50
83.7369999588
 51
212.0860981981
  0
ARC
  5
281
330
1F
100
AcDbEntity
  8
0
  6
Continuous
 62
     7
370
    25
100
AcDbCircle
 10
687.4339477327
 20
646.9994864776
 30
0.0
 40
10.5750000000001
100
AcDbArc
 50
212.0860981981
 51
280.4351964375
  0
SPLINE
  5
282
330
1F
100
AcDbEntity
  8
0
  6
Continuous
 62
     7
370
    25
100
AcDbSpline
210
0.0
220
0.0
230
1.0
 70
     8
 71
     3
 72
     9
 73
     5
 74
     0
 42
0.00000001
 43
0.00000001
 40
0.0
 40
0.0
 40
0.0
 40
0.0
 40
0.5850553834534028
 40
1.0
 40
1.0
 40
1.0
 40
1.0
 10
698.0714509404406
 20
660.6242259431875
 30
0.0
 10
697.7977774128635
 20
661.001060158315
 30
0.0
 10
697.3300037023445
 20
661.6451602312059
 30
0.0
 10
696.6411922024971
 20
662.0985459507143
 30
0.0
 10
696.3553735788199
 20
662.2866759142432
 30
0.0
  0
LINE
  5
283
330
1F
100
AcDbEntity
  8
0
  6
Continuous
 62
     7
370
    25
100
AcDbLine
 10
699.6706875173
 20
658.0734497559
 30
0.0
 11
698.0714509404
 21
660.6242259432
 31
0.0
  0
SPLINE
  5
284
330
1F
100
AcDbEntity
  8
0
  6
Continuous
 62
     7
370
    25
100
AcDbSpline
210
0.0
220
0.0
230
1.0
 70
    24
 71
     3
 72
     9
 73
     5
 74
     0
 42
0.00000001
 43
0.00000001
 40
0.0
 40
0.0
 40
0.0
 40
0.0
 40
0.8701391747229769
 40
1.0
 40
1.0
 40
1.0
 40
1.0
 10
699.0345178816418
 20
634.1847772643167
 30
0.0
 10
699.4505562183699
 20
634.9700761384222
 30
0.0
 10
699.9286847164468
 20
635.8725741489908
 30
0.0
 10
700.4281888272336
 20
636.8154199907866
 30
0.0
 10
700.4930548432897
 20
636.9378587299112
 30
0.0
  0
SPLINE
  5
285
330
1F
100
AcDbEntity
  8
0
  6
Continuous
 62
     7
370
    25
100
AcDbSpline
210
0.0
220
0.0
230
1.0
 70
     8
 71
     3
 72
     9
 73
     5
 74
     0
 42
0.00000001
 43
0.00000001
 40
0.0
 40
0.0
 40
0.0
 40
0.0
 40
0.5841917497409231
 40
1.0
 40
1.0
 40
1.0
 40
1.0
 10
697.4439385602092
 20
632.4018810700436
 30
0.0
 10
697.8208079074096
 20
632.7050764255974
 30
0.0
 10
698.4659203167641
 20
633.2240761473297
 30
0.0
 10
698.8675266534793
 20
633.9026292754183
 30
0.0
 10
699.0345178816418
 20
634.1847772643167
 30
0.0
  0
ARC
  5
286
330
1F
100
AcDbEntity
  8
0
  6
Continuous
 62
     7
370
    25
100
AcDbCircle
 10
687.4339477327
 20
646.9994864776
 30
0.0
 40
17.70000000000006
100
AcDbArc
 50
299.7326617707
 51
304.4395346255
  0
SPLINE
  5
287
330
1F
100
AcDbEntity
  8
0
  6
Continuous
 62
     7
370
    25
100
AcDbSpline
210
0.0
220
0.0
230
1.0
 70
     8
 71
     3
 72
     9
 73
     5
 74
     0
 42
0.00000001
 43
0.00000001
 40
0.0
 40
0.0
 40
0.0
 40
0.0
 40
0.5850553834536324
 40
1.0
 40
1.0
 40
1.0
 40
1.0
 10
693.914566626049
 20
630.9747687340464
 30
0.0
 10
694.3777513931531
 20
631.0233598537077
 30
0.0
 10
695.1694452741149
 20
631.1064137337945
 30
0.0
 10
695.9064945748453
 20
631.4762491313269
 30
0.0
 10
696.2123292143127
 20
631.6297103385411
 30
0.0
  0
SPLINE
  5
288
330
1F
100
AcDbEntity
  8
0
  6
Continuous
 62
     7
370
    25
100
AcDbSpline
210
0.0
220
0.0
230
1.0
 70
    24
 71
     3
 72
    11
 73
     7
 74
     0
 42
0.00000001
 43
0.00000001
 40
0.0
 40
0.0
 40
0.0
 40
0.0
 40
0.2328716322111469
 40
0.4710265024313247
 40
0.7311421212560292
 40
1.0
 40
1.0
 40
1.0
 40
1.0
 10
682.1363690863998
 20
630.5457434236035
 30
0.0
 10
683.0296331181149
 20
630.5782809045912
 30
0.0
 10
684.8364269667751
 20
630.644094055476
 30
0.0
 10
687.7621594077674
 20
630.7506649687707
 30
0.0
 10
690.8472123598266
 20
630.8630391920793
 30
0.0
 10
692.8809116635377
 20
630.937117460183
 30
0.0
 10
693.914566626049
 20
630.9747687340464
 30
0.0
  0
SPLINE
  5
289
330
1F
100
AcDbEntity
  8
0
  6
Continuous
 62
     7
370
    25
100
AcDbSpline
210
0.0
220
0.0
230
1.0
 70
     8
 71
     3
 72
     9
 73
     5
 74
     0
 42
0.00000001
 43
0.00000001
 40
0.0
 40
0.0
 40
0.0
 40
0.0
 40
0.5841917497409286
 40
1.0
 40
1.0
 40
1.0
 40
1.0
 10
679.7970460291323
 20
631.031777425562
 30
0.0
 10
680.2480555829516
 20
630.8569966747557
 30
0.0
 10
681.0200787312059
 20
630.5578128008241
 30
0.0
 10
681.8085261463058
 20
630.5492880749524
 30
0.0
 10
682.1363690863998
 20
630.5457434236035
 30
0.0
  0
ARC
  5
28A
330
1F
100
AcDbEntity
  8
0
  6
Continuous
 62
     7
370
    25
100
AcDbCircle
 10
687.4339477327
 20
646.9994864776
 30
0.0
 40
17.70000000000013
100
AcDbArc
 50
239.7326617707
 51
244.4395346255
  0
SPLINE
  5
28B
330
1F
100
AcDbEntity
  8
0
  6
Continuous
 62
     7
370
    25
100
AcDbSpline
210
0.0
220
0.0
230
1.0
 70
     8
 71
     3
 72
     9
 73
     5
 74
     0
 42
0.00000001
 43
0.00000001
 40
0.0
 40
0.0
 40
0.0
 40
0.0
 40
0.5850553834535948
 40
1.0
 40
1.0
 40
1.0
 40
1.0
 10
676.7964445250243
 20
633.3747470119499
 30
0.0
 10
677.0701180526014
 20
632.9979127968226
 30
0.0
 10
677.5378917631203
 20
632.3538127239323
 30
0.0
 10
678.2267032629672
 20
631.9004270044242
 30
0.0
 10
678.512521886644
 20
631.7122970408954
 30
0.0
  0
SPLINE
  5
28C
330
1F
100
AcDbEntity
  8
0
  6
Continuous
 62
     7
370
    25
100
AcDbSpline
210
0.0
220
0.0
230
1.0
 70
    24
 71
     3
 72
    11
 73
     7
 74
     0
 42
0.00000001
 43
0.00000001
 40
0.0
 40
0.0
 40
0.0
 40
0.0
 40
0.2556279644380977
 40
0.5185037642963876
 40
0.7560467972580118
 40
1.0
 40
1.0
 40
1.0
 40
1.0
 10
670.5357989374899
 20
643.3604526368563
 30
0.0
 10
671.057741850117
 20
642.5279556993391
 30
0.0
 10
672.1164263549205
 20
640.8393579873612
 30
0.0
 10
673.7314772144172
 20
638.2633580802113
 30
0.0
 10
675.3162551869895
 20
635.7356433112341
 30
0.0
 10
676.2986883609946
 20
634.1686661785099
 30
0.0
 10
676.7964445250243
 20
633.3747470119499
 30
0.0
  0
SPLINE
  5
28D
330
1F
100
AcDbEntity
  8
0
  6
Continuous
 62
     7
370
    25
100
AcDbSpline
210
0.0
220
0.0
230
1.0
 70
     8
 71
     3
 72
     9
 73
     5
 74
     0
 42
0.00000001
 43
0.00000001
 40
0.0
 40
0.0
 40
0.0
 40
0.0
 40
0.5841917497409219
 40
1.0
 40
1.0
 40
1.0
 40
1.0
 10
669.787055201655
 20
645.6293828330877
 30
0.0
 10
669.8611954082738
 20
645.1514067267277
 30
0.0
 10
669.9881061471737
 20
644.3332231310638
 30
0.0
 10
670.3749472255583
 20
643.6461452771033
 30
0.0
 10
670.5357989374899
 20
643.3604526368563
 30
0.0
  0
ARC
  5
28E
330
1F
100
AcDbEntity
  8
0
  6
Continuous
 62
     7
370
    25
100
AcDbCircle
 10
687.4339477327
 20
646.9994864776
 30
0.0
 40
17.70000000000011
100
AcDbArc
 50
179.7326617707
 51
184.4395346255
  0
SPLINE
  5
28F
330
1F
100
AcDbEntity
  8
0
  6
Continuous
 62
     7
370
    25
100
AcDbSpline
210
0.0
220
0.0
230
1.0
 70
     8
 71
     3
 72
     9
 73
     5
 74
     0
 42
0.00000001
 43
0.00000001
 40
0.0
 40
0.0
 40
0.0
 40
0.0
 40
0.5850553834536123
 40
1.0
 40
1.0
 40
1.0
 40
1.0
 10
670.3158256317072
 20
649.3994647554731
 30
0.0
 10
670.1263143921802
 20
648.9740394206842
 30
0.0
 10
669.8023942217375
 20
648.2468854677071
 30
0.0
 10
669.7541564208539
 20
647.4236643506667
 30
0.0
 10
669.7341404050633
 20
647.0820731799236
 30
0.0
  0
SPLINE
  5
290
330
1F
100
AcDbEntity
  8
0
  6
Continuous
 62
     7
370
    25
100
AcDbSpline
210
0.0
220
0.0
230
1.0
 70
    24
 71
     3
 72
    11
 73
     7
 74
     0
 42
0.00000001
 43
0.00000001
 40
0.0
 40
0.0
 40
0.0
 40
0.0
 40
0.2328716322111472
 40
0.4710265024313207
 40
0.7311421212560303
 40
1.0
 40
1.0
 40
1.0
 40
1.0
 10
675.8333775838221
 20
659.814195690822
 30
0.0
 10
675.4149238530749
 20
659.0243376065758
 30
0.0
 10
674.568522789314
 20
657.4267016587925
 30
0.0
 10
673.1979496870358
 20
654.8396575835693
 30
0.0
 10
671.7527421431215
 20
652.1117362434117
 30
0.0
 10
670.8000461533123
 20
650.3134618486873
 30
0.0
 10
670.3158256317072
 20
649.3994647554731
 30
0.0
  0
SPLINE
  5
291
330
1F
100
AcDbEntity
  8
0
  6
Continuous
 62
     7
370
    25
100
AcDbSpline
210
0.0
220
0.0
230
1.0
 70
     8
 71
     3
 72
     9
 73
     5
 74
     0
 42
0.00000001
 43
0.00000001
 40
0.0
 40
0.0
 40
0.0
 40
0.0
 40
0.584191749740919
 40
1.0
 40
1.0
 40
1.0
 40
1.0
 10
677.4239569052548
 20
661.5970918850951
 30
0.0
 10
677.0470875580544
 20
661.2938965295413
 30
0.0
 10
676.4019751486999
 20
660.7748968078091
 30
0.0
 10
676.0003688119846
 20
660.0963436797203
 30
0.0
 10
675.8333775838221
 20
659.814195690822
 30
0.0
  0
ARC
  5
292
330
1F
100
AcDbEntity
  8
0
  6
Continuous
 62
     7
370
    25
100
AcDbCircle
 10
687.4339477327
 20
646.9994864776
 30
0.0
 40
17.70000000000006
100
AcDbArc
 50
119.7326617707
 51
124.4395346255
  0
SPLINE
  5
293
330
1F
100
AcDbEntity
  8
0
  6
Continuous
 62
     7
370
    25
100
AcDbSpline
210
0.0
220
0.0
230
1.0
 70
     8
 71
     3
 72
     9
 73
     5
 74
     0
 42
0.00000001
 43
0.00000001
 40
0.0
 40
0.0
 40
0.0
 40
0.0
 40
0.5850553834536034
 40
1.0
 40
1.0
 40
1.0
 40
1.0
 10
680.953328839415
 20
663.0242042210925
 30
0.0
 10
680.490144072311
 20
662.975613101431
 30
0.0
 10
679.6984501913491
 20
662.8925592213443
 30
0.0
 10
678.9614008906186
 20
662.5227238238119
 30
0.0
 10
678.6555662511512
 20
662.3692626165976
 30
0.0
  0
SPLINE
  5
294
330
1F
100
AcDbEntity
  8
0
  6
Continuous
 62
     7
370
    25
100
AcDbSpline
210
0.0
220
0.0
230
1.0
 70
    24
 71
     3
 72
    11
 73
     7
 74
     0
 42
0.00000001
 43
0.00000001
 40
0.0
 40
0.0
 40
0.0
 40
0.0
 40
0.2328716322111495
 40
0.471026502431323
 40
0.7311421212560321
 40
1.0
 40
1.0
 40
1.0
 40
1.0
 10
692.7315263790643
 20
663.453229531535
 30
0.0
 10
691.838262347349
 20
663.4206920505476
 30
0.0
 10
690.031468498689
 20
663.3548788996628
 30
0.0
 10
687.1057360576965
 20
663.2483079863679
 30
0.0
 10
684.0206831056372
 20
663.1359337630596
 30
0.0
 10
681.9869838019264
 20
663.0618554949559
 30
0.0
 10
680.953328839415
 20
663.0242042210925
 30
0.0
  0
SPLINE
  5
295
330
1F
100
AcDbEntity
  8
0
  6
Continuous
 62
     7
370
    25
100
AcDbSpline
210
0.0
220
0.0
230
1.0
 70
     8
 71
     3
 72
     9
 73
     5
 74
     0
 42
0.00000001
 43
0.00000001
 40
0.0
 40
0.0
 40
0.0
 40
0.0
 40
0.5841917497409252
 40
1.0
 40
1.0
 40
1.0
 40
1.0
 10
695.0708494363316
 20
662.9671955295768
 30
0.0
 10
694.6198398825125
 20
663.1419762803831
 30
0.0
 10
693.847816734258
 20
663.4411601543146
 30
0.0
 10
693.0593693191582
 20
663.4496848801864
 30
0.0
 10
692.7315263790642
 20
663.453229531535
 30
0.0
  0
ARC
  5
296
330
1F
100
AcDbEntity
  8
0
  6
Continuous
 62
     7
370
    25
100
AcDbCircle
 10
687.4339477327
 20
646.9994864776
 30
0.0
 40
17.70000000000007
100
AcDbArc
 50
59.7326617707
 51
64.4395346255
  0
ARC
  5
297
330
1F
100
AcDbEntity
  8
0
  6
Continuous
 62
     7
370
    25
100
AcDbCircle
 10
687.4339477327
 20
646.9994864776
 30
0.0
 40
16.19999999999996
100
AcDbArc
 50
46.011174365
 51
318.1603264627
  0
LWPOLYLINE
  5
298
330
1F
100
AcDbEntity
  8
0
  6
Continuous
 62
     7
370
    25
100
AcDbPolyline
 90
        3
 70
   128
 43
0.0
 10
694.1400717949
 20
668.8766785742
 10
617.03548439
 20
668.8767114888
 10
585.8339477327
 20
668.8767114888
  0
LINE
  5
299
330
1F
100
AcDbEntity
  8
0
  6
Continuous
 62
     7
370
    25
100
AcDbLine
 10
694.1339477321
 20
665.9086416018
 30
0.0
 11
694.1400717949
 21
668.8766785742
 31
0.0
  0
LWPOLYLINE
  5
29A
330
1F
100
AcDbEntity
  8
0
  6
Continuous
 62
     7
370
    25
100
AcDbPolyline
 90
        3
 70
   128
 43
0.0
 10
585.8339477327
 20
665.9086815182
 10
617.03548439
 20
665.9086815182
 10
694.1339477321
 20
665.9086416018
  0
LINE
  5
29B
330
1F
100
AcDbEntity
  8
0
  6
Continuous
 62
     7
370
    25
100
AcDbLine
 10
585.8339477327
 20
668.8767114888
 30
0.0
 11
585.8339477327
 21
665.9086815182
 31
0.0
  0
LWPOLYLINE
  5
29C
330
1F
100
AcDbEntity
  8
0
  6
Continuous
 62
     7
370
    25
100
AcDbPolyline
 90
        3
 70
   128
 43
0.0
 10
585.8339477327
 20
665.9086815182
 10
554.6324110754
 20
665.9086815182
 10
477.5339477334
 20
665.9086416018
  0
LINE
  5
29D
330
1F
100
AcDbEntity
  8
0
  6
Continuous
 62
     7
370
    25
100
AcDbLine
 10
477.5278236757
 20
625.1222943809
 30
0.0
 11
477.5339477378
 21
628.0903313533
 31
0.0
  0
LINE
  5
29E
330
1F
100
AcDbEntity
  8
0
  6
Continuous
 62
     7
370
    25
100
AcDbLine
 10
477.5339477334
 20
665.9086416018
 30
0.0
 11
477.5278236705
 21
668.8766785742
 31
0.0
  0
LINE
  5
29F
330
1F
100
AcDbEntity
  8
0
  6
Continuous
 62
     7
370
    25
100
AcDbLine
 10
694.1400717897
 20
625.1222943809
 30
0.0
 11
694.1339477276
 21
628.0903313533
 31
0.0
  0
LWPOLYLINE
  5
2A0
330
1F
100
AcDbEntity
  8
0
  6
Continuous
 62
     7
370
    25
100
AcDbPolyline
 90
        3
 70
   128
 43
0.0
 10
477.5278236705
 20
668.8766785742
 10
554.6324110754
 20
668.8767114888
 10
585.8339477327
 20
668.8767114888
  0
LINE
  5
2A1
330
1F
100
AcDbEntity
  8
0
  6
Continuous
 62
     7
370
    25
100
AcDbLine
 10
585.8339477327
 20
672.3994864776
 30
0.0
 11
585.8339477327
 21
668.8767114888
 31
0.0
  0
LINE
  5
2A2
330
1F
100
AcDbEntity
  8
0
  6
Continuous
 62
     7
370
    25
100
AcDbLine
 10
585.8339477327
 20
672.3994864776
 30
0.0
 11
693.7339477327
 21
672.3994864776
 31
0.0
  0
SPLINE
  5
2A3
330
1F
100
AcDbEntity
  8
0
  6
Continuous
 62
     7
370
    25
100
AcDbSpline
210
0.0
220
0.0
230
1.0
 70
     8
 71
     3
 72
    14
 73
    10
 74
     0
 42
0.00000001
 43
0.00000001
 40
0.0
 40
0.0
 40
0.0
 40
0.0
 40
0.1473776825775477
 40
0.2947408781010602
 40
0.4421256621925532
 40
0.5894814694904856
 40
0.736866253580924
 40
0.8842220608798848
 40
1.0
 40
1.0
 40
1.0
 40
1.0
 10
693.7339477327321
 20
672.3994864775693
 30
0.0
 10
695.3970319539682
 20
672.3076374734376
 30
0.0
 10
698.7230369172042
 20
672.1239484938237
 30
0.0
 10
703.5155691158953
 20
670.6015804598437
 30
0.0
 10
707.9404563629707
 20
668.2654328462189
 30
0.0
 10
711.812152672368
 20
665.0727311968335
 30
0.0
 10
714.9788460735891
 20
661.2024773886044
 30
0.0
 10
717.2424126835176
 20
657.1128870550748
 30
0.0
 10
718.004408165492
 20
654.2407122922502
 30
0.0
 10
718.3396835443532
 20
652.9769653219051
 30
0.0
  0
SPLINE
  5
2A4
330
1F
100
AcDbEntity
  8
0
  6
Continuous
 62
     7
370
    25
100
AcDbSpline
210
0.0
220
0.0
230
1.0
 70
     8
 71
     3
 72
    15
 73
    11
 74
     0
 42
0.00000001
 43
0.00000001
 40
0.0
 40
0.0
 40
0.0
 40
0.0
 40
0.034811890196805
 40
0.1726843247824976
 40
0.3105838713011028
 40
0.4484563058874635
 40
0.5863558524066643
 40
0.7242282869924638
 40
0.8621209221083294
 40
1.0
 40
1.0
 40
1.0
 40
1.0
 10
718.7725335042252
 20
643.2940678071618
 30
0.0
 10
718.7392174425095
 20
642.8758056379527
 30
0.0
 10
718.5739531724778
 20
640.8010168268994
 30
0.0
 10
717.2987110671816
 20
637.2240867085011
 30
0.0
 10
715.0102035713729
 20
632.7898537219529
 30
0.0
 10
711.8032407167121
 20
628.9274824942752
 30
0.0
 10
707.9424353262665
 20
625.7329053960128
 30
0.0
 10
703.5145218494204
 20
623.3973007424158
 30
0.0
 10
698.7229902287905
 20
621.8751133371851
 30
0.0
 10
695.3969073935212
 20
621.691359086258
 30
0.0
 10
693.7339477327321
 20
621.5994864775693
 30
0.0
  0
LINE
  5
2A5
330
1F
100
AcDbEntity
  8
0
  6
Continuous
 62
     7
370
    25
100
AcDbLine
 10
693.7339477327
 20
621.5994864776
 30
0.0
 11
593.6655433272
 21
621.5994864776
 31
0.0
  0
LINE
  5
2A6
330
1F
100
AcDbEntity
  8
0
  6
Continuous
 62
     7
370
    25
100
AcDbLine
 10
477.9339477327
 20
621.5994864776
 30
0.0
 11
577.8654859828
 21
621.5994864776
 31
0.0
  0
ARC
  5
2A7
330
1F
100
AcDbEntity
  8
0
  6
Continuous
 62
     7
370
    25
100
AcDbCircle
 10
477.9176434443
 20
647.0296861703
 30
0.0
 40
25.36980554635336
100
AcDbArc
 50
89.9631780001
 51
168.5083651755
  0
ARC
  5
2A8
330
1F
100
AcDbEntity
  8
0
  6
Continuous
 62
     7
370
    25
100
AcDbCircle
 10
477.8827149697
 20
646.9034966482
 30
0.0
 40
25.30406203579113
100
AcDbArc
 50
190.2500004693
 51
270.1160060032
  0
LINE
  5
2A9
330
1F
100
AcDbEntity
  8
0
  6
Continuous
 62
     7
370
    25
100
AcDbLine
 10
585.8339477327
 20
672.3994864776
 30
0.0
 11
477.9339477327
 21
672.3994864776
 31
0.0
  0
LINE
  5
2AA
330
1F
100
AcDbEntity
  8
0
  6
Continuous
 62
     8
370
    25
100
AcDbLine
 10
577.7543362474
 20
639.4468661759
 30
0.0
 11
577.9131224516
 21
639.2805019563
 31
0.0
  0
ARC
  5
2AB
330
1F
100
AcDbEntity
  8
0
  6
Continuous
 62
     8
370
    25
100
AcDbCircle
 10
585.8339477327
 20
646.9994864776
 30
0.0
 40
11.05993649053892
100
AcDbArc
 50
315.4306603848
 51
223.0691854905
  0
ARC
  5
2AC
330
1F
100
AcDbEntity
  8
0
  6
Continuous
 62
     8
370
    25
100
AcDbCircle
 10
585.8339477327
 20
646.9994864776
 30
0.0
 40
11.30993649053885
100
AcDbArc
 50
314.152481793
 51
225.5387845812
  0
LINE
  5
2AD
330
1F
100
AcDbEntity
  8
0
  6
Continuous
 62
     8
370
    25
100
AcDbLine
 10
593.7006032211
 20
634.6125108211
 30
0.0
 11
593.958148532
 21
634.7184854445
 31
0.0
  0
ARC
  5
2AE
330
1F
100
AcDbEntity
  8
0
  6
Continuous
 62
     8
370
    25
100
AcDbCircle
 10
577.6443852233
 20
635.1064534553
 30
0.0
 40
0.3529502268467463
100
AcDbArc
 50
279.3841588732
 51
316.6932874055
  0
ARC
  5
2AF
330
1F
100
AcDbEntity
  8
0
  6
Continuous
 62
     8
370
    25
100
AcDbCircle
 10
585.8339477327
 20
646.9994864776
 30
0.0
 40
9.374999999999918
100
AcDbArc
 50
327.2684268638
 51
212.4228395103
  0
LWPOLYLINE
  5
2B0
330
1F
100
AcDbEntity
  8
0
  6
Continuous
 62
     8
370
    25
100
AcDbPolyline
 90
       17
 70
   128
 43
0.0
 10
577.2397523247
 20
389.3487178086
 10
577.286872789
 20
389.6494204329
 10
577.6556843553
 20
390.2360194723
 10
578.3744412813
 20
390.7801340454
 10
579.4095352918
 20
391.2563219593
 10
580.7125665415
 20
391.6423171965
 10
582.2226067372
 20
391.9200710487
 10
583.8690480778
 20
392.0765960545
 10
585.574904796
 20
392.1045732785
 10
587.2604129276
 20
392.002694537
 10
588.8467599857
 20
391.7757235665
 10
590.2597701449
 20
391.4342732774
 10
591.4333726207
 20
390.9943095058
 10
592.3126910656
 20
390.4764044685
 10
592.8566095264
 20
389.9047748296
 10
593.0396949805
 20
389.3061493557
 10
593.0396949805
 20
389.3061493557
  0
LWPOLYLINE
  5
2B1
330
1F
100
AcDbEntity
  8
0
  6
Continuous
 62
     8
370
    25
100
AcDbPolyline
 90
       17
 70
   128
 43
0.0
 10
577.872890707
 20
624.3478649045
 10
577.9200111712
 20
624.6485675288
 10
578.2888227376
 20
625.2351665682
 10
579.0075796635
 20
625.7792811412
 10
580.0426736741
 20
626.2554690552
 10
581.3457049237
 20
626.6414642924
 10
582.8557451195
 20
626.9192181446
 10
584.50218646
 20
627.0757431504
 10
586.2080431782
 20
627.1037203744
 10
587.8935513098
 20
627.0018416328
 10
589.4798983679
 20
626.7748706624
 10
590.8929085271
 20
626.4334203733
 10
592.0665110029
 20
625.9934566016
 10
592.9458294478
 20
625.4755515644
 10
593.4897479087
 20
624.9039219255
 10
593.6728333628
 20
624.3052964516
 10
593.6728333628
 20
624.3052964516
  0
ARC
  5
2B2
330
1F
100
AcDbEntity
  8
0
  6
Continuous
 62
     8
370
    25
100
AcDbCircle
 10
585.0122149388
 20
342.0005934382
 30
0.0
 40
8.410472292019548
100
AcDbArc
 50
159.780825367
 51
269.8456331871
  0
ARC
  5
2B3
330
1F
100
AcDbEntity
  8
0
  6
Continuous
 62
     8
370
    25
100
AcDbCircle
 10
585.0122149388
 20
342.0005934382
 30
0.0
 40
8.410472292019573
100
AcDbArc
 50
269.8456331871
 51
19.9104410072
  0
SPLINE
  5
2B4
330
1F
100
AcDbEntity
  8
0
  6
Continuous
 62
     8
370
    25
100
AcDbSpline
210
0.0
220
0.0
230
1.0
 70
     8
 71
     3
 72
    15
 73
    11
 74
     0
 42
0.00000001
 43
0.00000001
 40
0.0
 40
0.0
 40
0.0
 40
0.0
 40
0.1324546049825738
 40
0.2649146153392694
 40
0.3973785913440437
 40
0.5298513634951496
 40
0.6623328692905568
 40
0.7948183914806634
 40
0.9273651405410646
 40
1.0
 40
1.0
 40
1.0
 40
1.0
 10
477.5339477333519
 20
665.908641601793
 30
0.0
 10
476.4718790731351
 20
665.8533453896116
 30
0.0
 10
474.3476984104679
 20
665.7427507086513
 30
0.0
 10
471.25122238143
 20
664.9108194465828
 30
0.0
 10
468.3370651119545
 20
663.5994534017549
 30
0.0
 10
465.6814176409235
 20
661.81564869248
 30
0.0
 10
463.3624559943855
 20
659.6086810571553
 30
0.0
 10
461.4629827238834
 20
657.0422903498287
 30
0.0
 10
460.1664362347921
 20
654.6400086445642
 30
0.0
 10
459.7124443678102
 20
653.0576126172875
 30
0.0
 10
459.5517299856018
 20
652.4974400273607
 30
0.0
  0
SPLINE
  5
2B5
330
1F
100
AcDbEntity
  8
0
  6
Continuous
 62
     8
370
    25
100
AcDbSpline
210
0.0
220
0.0
230
1.0
 70
     8
 71
     3
 72
    16
 73
    12
 74
     0
 42
0.00000001
 43
0.00000001
 40
0.0
 40
0.0
 40
0.0
 40
0.0
 40
0.0099085901320864
 40
0.1399807350295409
 40
0.2700815551690939
 40
0.4001762789673581
 40
0.5304622973427976
 40
0.6607478636624662
 40
0.7910997668127874
 40
0.9214594016058587
 40
1.0
 40
1.0
 40
1.0
 40
1.0
 10
459.3838289915554
 20
641.9076072427074
 30
0.0
 10
459.399632979157
 20
641.8283124783603
 30
0.0
 10
459.6228992331226
 20
640.7080986790871
 30
0.0
 10
460.5349735787128
 20
638.6691054422872
 30
0.0
 10
462.1366247937231
 20
635.9161947978643
 30
0.0
 10
464.2234641859827
 20
633.4818252089769
 30
0.0
 10
466.6839061050477
 20
631.435982849983
 30
0.0
 10
469.452495726718
 20
629.819823199969
 30
0.0
 10
472.4569144024546
 20
628.7109997159528
 30
0.0
 10
475.188455158433
 20
628.166731465344
 30
0.0
 10
476.893063178392
 20
628.1112069905291
 30
0.0
 10
477.5339477378412
 20
628.0903313533364
 30
0.0
  0
SPLINE
  5
2B6
330
1F
100
AcDbEntity
  8
0
  6
Continuous
 62
     8
370
    25
100
AcDbSpline
210
0.0
220
0.0
230
1.0
 70
     8
 71
     3
 72
    15
 73
    11
 74
     0
 42
0.00000001
 43
0.00000001
 40
0.0
 40
0.0
 40
0.0
 40
0.0
 40
0.1367240813320421
 40
0.2734537422723665
 40
0.4101874966875111
 40
0.546930330779629
 40
0.6836821800320256
 40
0.8204381751416054
 40
0.957257370678191
 40
1.0
 40
1.0
 40
1.0
 40
1.0
 10
694.1339477321123
 20
665.908641601793
 30
0.0
 10
695.1960195783947
 20
665.853346560238
 30
0.0
 10
697.3202066133233
 20
665.7427542205785
 30
0.0
 10
700.4166348484293
 20
664.91080539803
 30
0.0
 10
703.3309737456467
 20
663.5995060869946
 30
0.0
 10
705.9859424399829
 20
661.8154519811096
 30
0.0
 10
708.3074377704124
 20
659.6094152737002
 30
0.0
 10
710.1974532829169
 20
657.0395495902858
 30
0.0
 10
711.4013149988057
 20
654.869427734845
 30
0.0
 10
711.7967651585391
 20
653.531736426672
 30
0.0
 10
711.8908975255166
 20
653.2133143802412
 30
0.0
  0
SPLINE
  5
2B7
330
1F
100
AcDbEntity
  8
0
  6
Continuous
 62
     8
370
    25
100
AcDbSpline
210
0.0
220
0.0
230
1.0
 70
     8
 71
     3
 72
    16
 73
    12
 74
     0
 42
0.00000001
 43
0.00000001
 40
0.0
 40
0.0
 40
0.0
 40
0.0
 40
0.0386369743893394
 40
0.1649349601308445
 40
0.2912607890767556
 40
0.4175806985721499
 40
0.5440863520621524
 40
0.6705915666131853
 40
0.7971611931726337
 40
0.9237383270343319
 40
1.0
 40
1.0
 40
1.0
 40
1.0
 10
712.4308241015898
 20
642.6240758027975
 30
0.0
 10
712.3710862402318
 20
642.3046906788
 30
0.0
 10
712.1160750252717
 20
640.9412875261077
 30
0.0
 10
711.1442382472449
 20
638.6662282922623
 30
0.0
 10
709.528238485532
 20
635.9169657219288
 30
0.0
 10
707.4452450679877
 20
633.4816183057396
 30
0.0
 10
704.983771162166
 20
631.4360383262205
 30
0.0
 10
702.2154582879392
 20
629.819808314016
 30
0.0
 10
699.2109651828896
 20
628.7110037534248
 30
0.0
 10
696.479442501222
 20
628.1667309074777
 30
0.0
 10
694.7748328866151
 20
628.1112068380971
 30
0.0
 10
694.1339477276231
 20
628.0903313533364
 30
0.0
  0
LWPOLYLINE
  5
2B8
330
1F
100
AcDbEntity
  8
0
  6
Continuous
 62
     8
370
    25
100
AcDbPolyline
 90
        3
 70
   128
 43
0.0
 10
694.1339477276
 20
628.0903313533
 10
656.2324110719
 20
628.090291437
 10
593.6830309555
 20
628.090291437
  0
LWPOLYLINE
  5
2B9
330
1F
100
AcDbEntity
  8
0
  6
Continuous
 62
     8
370
    25
100
AcDbPolyline
 90
        3
 70
   128
 43
0.0
 10
477.5339477378
 20
628.0903313533
 10
515.4354843936
 20
628.090291437
 10
577.8829736111
 20
628.090291437
  0
SPLINE
  5
2BA
330
1F
100
AcDbEntity
  8
0
  6
Continuous
 62
     8
370
    25
100
AcDbSpline
210
0.0
220
0.0
230
1.0
 70
     8
 71
     3
 72
    16
 73
    12
 74
     0
 42
0.00000001
 43
0.00000001
 40
0.0
 40
0.0
 40
0.0
 40
0.0
 40
0.075663437563266
 40
0.2011906469677001
 40
0.3267112874712727
 40
0.4521602391713325
 40
0.5776096864412117
 40
0.7028909108651483
 40
0.8281773576040012
 40
0.9534649029239257
 40
1.0
 40
1.0
 40
1.0
 40
1.0
 10
477.5278236757273
 20
625.1222943809485
 30
0.0
 10
476.7859640845263
 20
625.1462176748814
 30
0.0
 10
474.8133440725406
 20
625.2098302087416
 30
0.0
 10
471.6524316271574
 20
625.83888039333
 30
0.0
 10
468.1759420410733
 20
627.1209656294518
 30
0.0
 10
464.9726340455277
 20
628.990068749277
 30
0.0
 10
462.1239850390724
 20
631.3561954589824
 30
0.0
 10
459.7142060609896
 20
634.1737375874927
 30
0.0
 10
457.8401039287286
 20
637.3539493142962
 30
0.0
 10
456.693739441867
 20
640.0640964448534
 30
0.0
 10
456.3878436582368
 20
641.7222398848011
 30
0.0
 10
456.3049972429571
 20
642.1713184513276
 30
0.0
  0
SPLINE
  5
2BB
330
1F
100
AcDbEntity
  8
0
  6
Continuous
 62
     8
370
    25
100
AcDbSpline
210
0.0
220
0.0
230
1.0
 70
     8
 71
     3
 72
    15
 73
    11
 74
     0
 42
0.00000001
 43
0.00000001
 40
0.0
 40
0.0
 40
0.0
 40
0.0
 40
0.1095500313431953
 40
0.2368487464756971
 40
0.3640693604216803
 40
0.4912865761329062
 40
0.6184930304372444
 40
0.7456920957650995
 40
0.8728482897029631
 40
1.0
 40
1.0
 40
1.0
 40
1.0
 10
456.3713801339067
 20
652.2627942010872
 30
0.0
 10
456.6562991743124
 20
653.2836047955226
 30
0.0
 10
457.2722982456021
 20
655.4906120114647
 30
0.0
 10
458.9219731645339
 20
658.6248199130763
 30
0.0
 10
461.1306640105325
 20
661.5908117180528
 30
0.0
 10
463.812081629764
 20
664.1451869566721
 30
0.0
 10
466.8865676458648
 20
666.2082673809622
 30
0.0
 10
470.2588132085711
 20
667.7246186760376
 30
0.0
 10
473.8417208136132
 20
668.6859813551876
 30
0.0
 10
476.2991371602594
 20
668.8131135816623
 30
0.0
 10
477.5278236705274
 20
668.8766785741811
 30
0.0
  0
SPLINE
  5
2BC
330
1F
100
AcDbEntity
  8
0
  6
Continuous
 62
     8
370
    25
100
AcDbSpline
210
0.0
220
0.0
230
1.0
 70
     8
 71
     3
 72
    16
 73
    12
 74
     0
 42
0.00000001
 43
0.00000001
 40
0.0
 40
0.0
 40
0.0
 40
0.0
 40
0.0736104332429657
 40
0.1957316659759468
 40
0.3178465080445068
 40
0.4398916064686433
 40
0.5619371870161186
 40
0.6838191091709817
 40
0.8057061119417375
 40
0.927594183485355
 40
0.9999999999999999
 40
0.9999999999999999
 40
0.9999999999999999
 40
0.9999999999999999
 10
694.140071789737
 20
625.1222943809485
 30
0.0
 10
694.8819317920508
 20
625.1462175703085
 30
0.0
 10
696.8545528971935
 20
625.2098298261075
 30
0.0
 10
700.0154529571333
 20
625.8388831611235
 30
0.0
 10
703.4919935425539
 20
627.1209554247814
 30
0.0
 10
706.6951119197452
 20
628.9901067769451
 30
0.0
 10
709.5444680312851
 20
631.3560536236199
 30
0.0
 10
711.9516114710083
 20
634.1742661417609
 30
0.0
 10
713.8355472236377
 20
637.3519765363025
 30
0.0
 10
715.0577886244727
 20
640.3246017984341
 30
0.0
 10
715.4000179331663
 20
642.2552818378169
 30
0.0
 10
715.5275535585988
 20
642.9747716070376
 30
0.0
  0
SPLINE
  5
2BD
330
1F
100
AcDbEntity
  8
0
  6
Continuous
 62
     8
370
    25
100
AcDbSpline
210
0.0
220
0.0
230
1.0
 70
     8
 71
     3
 72
    15
 73
    11
 74
     0
 42
0.00000001
 43
0.00000001
 40
0.0
 40
0.0
 40
0.0
 40
0.0
 40
0.0831317955618572
 40
0.2142072613141651
 40
0.3452023087418426
 40
0.4761938571145369
 40
0.6071743248064989
 40
0.738147184302785
 40
0.869075900483055
 40
1.0
 40
1.0
 40
1.0
 40
1.0
 10
715.0459726096891
 20
653.0588126789659
 30
0.0
 10
714.8323440161015
 20
653.8097917181236
 30
0.0
 10
714.2818832006999
 20
655.7448535340642
 30
0.0
 10
712.740586504182
 20
658.6228590870292
 30
0.0
 10
710.538660765768
 20
661.5913369685542
 30
0.0
 10
707.8554309017978
 20
664.1450462341511
 30
0.0
 10
704.7814303820405
 20
666.2083050711358
 30
0.0
 10
701.4090549178405
 20
667.7246086293419
 30
0.0
 10
697.826181485373
 20
668.6859838664053
 30
0.0
 10
695.3687605830188
 20
668.813114418725
 30
0.0
 10
694.1400717949368
 20
668.876678574181
 30
0.0
  0
LWPOLYLINE
  5
2BE
330
1F
100
AcDbEntity
  8
0
  6
Continuous
 62
     8
370
    25
100
AcDbPolyline
 90
        3
 70
   128
 43
0.0
 10
577.8749770983
 20
625.1222614663
 10
515.4354843936
 20
625.1222614663
 10
477.5278236757
 20
625.1222943809
  0
LWPOLYLINE
  5
2BF
330
1F
100
AcDbEntity
  8
0
  6
Continuous
 62
     8
370
    25
100
AcDbPolyline
 90
        3
 70
   128
 43
0.0
 10
593.6750344427
 20
625.1222614663
 10
656.2324110719
 20
625.1222614663
 10
694.1400717897
 20
625.1222943809
  0
ENDSEC
  0
SECTION
  2
OBJECTS
  0
DICTIONARY
  5
C
330
0
100
AcDbDictionary
281
     1
  3
ACAD_GROUP
350
D
  3
ACAD_LAYOUT
350
1A
  3
ACAD_MLINESTYLE
350
17
  3
ACAD_PLOTSETTINGS
350
19
  3
ACAD_PLOTSTYLENAME
350
E
  3
ACAD_SCALELIST
350
47
  3
DWGPROPS
350
2C0
  0
DICTIONARY
  5
D
102
{ACAD_REACTORS
330
C
102
}
330
C
100
AcDbDictionary
281
     1
  0
DICTIONARY
  5
1A
102
{ACAD_REACTORS
330
C
102
}
330
C
100
AcDbDictionary
281
     1
  3
Layout1
350
1E
  3
Layout2
350
26
  3
Model
350
22
  0
DICTIONARY
  5
17
102
{ACAD_REACTORS
330
C
102
}
330
C
100
AcDbDictionary
281
     1
  3
Standard
350
18
  0
DICTIONARY
  5
19
102
{ACAD_REACTORS
330
C
102
}
330
C
100
AcDbDictionary
281
     1
  0
ACDBDICTIONARYWDFLT
  5
E
102
{ACAD_REACTORS
330
C
102
}
330
C
100
AcDbDictionary
281
     1
  3
Normal
350
F
100
AcDbDictionaryWithDefault
340
F
  0
DICTIONARY
  5
47
102
{ACAD_REACTORS
330
C
102
}
330
C
100
AcDbDictionary
281
     1
  3
A0
350
48
  3
A1
350
49
  3
A2
350
4A
  3
A3
350
4B
  3
A4
350
4C
  3
A5
350
4D
  3
A6
350
4E
  3
A7
350
4F
  3
A8
350
50
  3
A9
350
51
  3
B0
350
52
  3
B1
350
53
  3
B2
350
54
  3
B3
350
55
  3
B4
350
56
  3
B5
350
57
  3
B6
350
58
  3
B7
350
59
  3
B8
350
5A
  3
B9
350
5B
  3
C0
350
5C
  3
C1
350
5D
  3
C2
350
5E
  3
C3
350
5F
  3
C4
350
60
  3
C5
350
61
  3
C6
350
62
  3
C7
350
63
  3
C8
350
64
  3
C9
350
65
  3
D0
350
66
  3
D1
350
67
  3
D2
350
68
  0
XRECORD
  5
2C0
102
{ACAD_REACTORS
330
C
102
}
330
C
100
AcDbXrecord
280
     1
  1
DWGPROPS COOKIE
  2

  3

  4

  6

  7

  8
designer5
  9

300
=
301
=
302
=
303
=
304
=
305
=
306
=
307
=
308
=
309
=
 40
0.0
 41
2460383.283302512
 42
2460383.283303079
  1

 90
        0
  0
LAYOUT
  5
1E
102
{ACAD_REACTORS
330
1A
102
}
330
1A
100
AcDbPlotSettings
  1

  2
none_device
  4

  6

 40
0.0
 41
0.0
 42
0.0
 43
0.0
 44
0.0
 45
0.0
 46
0.0
 47
0.0
 48
0.0
 49
0.0
140
0.0
141
0.0
142
1.0
143
1.0
 70
   688
 72
     1
 73
     0
 74
     5
  7

 75
    16
147
1.0
148
0.0
149
0.0
100
AcDbLayout
  1
Layout1
 70
     1
 71
     1
 10
0.0
 20
0.0
 11
420.0
 21
297.0
 12
0.0
 22
0.0
 32
0.0
 14
1.0000000000E+20
 24
1.0000000000E+20
 34
1.0000000000E+20
 15
-1.0000000000E+20
 25
-1.0000000000E+20
 35
-1.0000000000E+20
146
0.0
 13
0.0
 23
0.0
 33
0.0
 16
1.0
 26
0.0
 36
0.0
 17
0.0
 27
1.0
 37
0.0
 76
     0
330
1B
  0
LAYOUT
  5
26
102
{ACAD_REACTORS
330
1A
102
}
330
1A
100
AcDbPlotSettings
  1

  2
none_device
  4

  6

 40
0.0
 41
0.0
 42
0.0
 43
0.0
 44
0.0
 45
0.0
 46
0.0
 47
0.0
 48
0.0
 49
0.0
140
0.0
141
0.0
142
1.0
143
1.0
 70
   688
 72
     1
 73
     0
 74
     5
  7

 75
    16
147
1.0
148
0.0
149
0.0
100
AcDbLayout
  1
Layout2
 70
     1
 71
     2
 10
0.0
 20
0.0
 11
0.0
 21
0.0
 12
0.0
 22
0.0
 32
0.0
 14
0.0
 24
0.0
 34
0.0
 15
0.0
 25
0.0
 35
0.0
146
0.0
 13
0.0
 23
0.0
 33
0.0
 16
1.0
 26
0.0
 36
0.0
 17
0.0
 27
1.0
 37
0.0
 76
     0
330
23
  0
LAYOUT
  5
22
102
{ACAD_REACTORS
330
1A
102
}
330
1A
100
AcDbPlotSettings
  1

  2
none_device
  4
Letter_(8.50_x_11.00_Inches)
  6

 40
6.35
 41
6.35
 42
6.35000508
 43
6.35000508
 44
215.9
 45
279.4
 46
0.0
 47
0.0
 48
0.0
 49
0.0
140
0.0
141
0.0
142
1.0
143
1.0
 70
  1712
 72
     1
 73
     0
 74
     0
  7

 75
     0
147
1.0
148
0.0
149
0.0
100
AcDbLayout
  1
Model
 70
     1
 71
     0
 10
0.0
 20
0.0
 11
1189.0
 21
841.0
 12
0.0
 22
0.0
 32
0.0
 14
0.0
 24
0.0
 34
0.0
 15
1189.0
 25
841.0
 35
0.0
146
0.0
 13
0.0
 23
0.0
 33
0.0
 16
1.0
 26
0.0
 36
0.0
 17
0.0
 27
1.0
 37
0.0
 76
     0
330
1F
331
29
  0
MLINESTYLE
  5
18
102
{ACAD_REACTORS
330
17
102
}
330
17
100
AcDbMlineStyle
  2
Standard
 70
     0
  3

 62
   256
 51
90.0
 52
90.0
 71
     2
 49
0.5
 62
   256
  6
BYLAYER
 49
-0.5
 62
   256
  6
BYLAYER
  0
ACDBPLACEHOLDER
  5
F
102
{ACAD_REACTORS
330
E
102
}
330
E
  0
SCALE
  5
48
102
{ACAD_REACTORS
330
47
102
}
330
47
100
AcDbScale
 70
     0
300
1:1
140
1.0
141
1.0
290
     1
  0
SCALE
  5
49
102
{ACAD_REACTORS
330
47
102
}
330
47
100
AcDbScale
 70
     0
300
1:2
140
1.0
141
2.0
290
     0
  0
SCALE
  5
4A
102
{ACAD_REACTORS
330
47
102
}
330
47
100
AcDbScale
 70
     0
300
1:4
140
1.0
141
4.0
290
     0
  0
SCALE
  5
4B
102
{ACAD_REACTORS
330
47
102
}
330
47
100
AcDbScale
 70
     0
300
1:5
140
1.0
141
5.0
290
     0
  0
SCALE
  5
4C
102
{ACAD_REACTORS
330
47
102
}
330
47
100
AcDbScale
 70
     0
300
1:8
140
1.0
141
8.0
290
     0
  0
SCALE
  5
4D
102
{ACAD_REACTORS
330
47
102
}
330
47
100
AcDbScale
 70
     0
300
1:10
140
1.0
141
10.0
290
     0
  0
SCALE
  5
4E
102
{ACAD_REACTORS
330
47
102
}
330
47
100
AcDbScale
 70
     0
300
1:16
140
1.0
141
16.0
290
     0
  0
SCALE
  5
4F
102
{ACAD_REACTORS
330
47
102
}
330
47
100
AcDbScale
 70
     0
300
1:20
140
1.0
141
20.0
290
     0
  0
SCALE
  5
50
102
{ACAD_REACTORS
330
47
102
}
330
47
100
AcDbScale
 70
     0
300
1:30
140
1.0
141
30.0
290
     0
  0
SCALE
  5
51
102
{ACAD_REACTORS
330
47
102
}
330
47
100
AcDbScale
 70
     0
300
1:40
140
1.0
141
40.0
290
     0
  0
SCALE
  5
52
102
{ACAD_REACTORS
330
47
102
}
330
47
100
AcDbScale
 70
     0
300
1:50
140
1.0
141
50.0
290
     0
  0
SCALE
  5
53
102
{ACAD_REACTORS
330
47
102
}
330
47
100
AcDbScale
 70
     0
300
1:100
140
1.0
141
100.0
290
     0
  0
SCALE
  5
54
102
{ACAD_REACTORS
330
47
102
}
330
47
100
AcDbScale
 70
     0
300
2:1
140
2.0
141
1.0
290
     0
  0
SCALE
  5
55
102
{ACAD_REACTORS
330
47
102
}
330
47
100
AcDbScale
 70
     0
300
4:1
140
4.0
141
1.0
290
     0
  0
SCALE
  5
56
102
{ACAD_REACTORS
330
47
102
}
330
47
100
AcDbScale
 70
     0
300
8:1
140
8.0
141
1.0
290
     0
  0
SCALE
  5
57
102
{ACAD_REACTORS
330
47
102
}
330
47
100
AcDbScale
 70
     0
300
10:1
140
10.0
141
1.0
290
     0
  0
SCALE
  5
58
102
{ACAD_REACTORS
330
47
102
}
330
47
100
AcDbScale
 70
     0
300
100:1
140
100.0
141
1.0
290
     0
  0
SCALE
  5
59
102
{ACAD_REACTORS
330
47
102
}
330
47
100
AcDbScale
 70
     0
300
1/128" = 1'-0"
140
0.0078125
141
12.0
290
     0
  0
SCALE
  5
5A
102
{ACAD_REACTORS
330
47
102
}
330
47
100
AcDbScale
 70
     0
300
1/64" = 1'-0"
140
0.015625
141
12.0
290
     0
  0
SCALE
  5
5B
102
{ACAD_REACTORS
330
47
102
}
330
47
100
AcDbScale
 70
     0
300
1/32" = 1'-0"
140
0.03125
141
12.0
290
     0
  0
SCALE
  5
5C
102
{ACAD_REACTORS
330
47
102
}
330
47
100
AcDbScale
 70
     0
300
1/16" = 1'-0"
140
0.0625
141
12.0
290
     0
  0
SCALE
  5
5D
102
{ACAD_REACTORS
330
47
102
}
330
47
100
AcDbScale
 70
     0
300
3/32" = 1'-0"
140
0.09375
141
12.0
290
     0
  0
SCALE
  5
5E
102
{ACAD_REACTORS
330
47
102
}
330
47
100
AcDbScale
 70
     0
300
1/8" = 1'-0"
140
0.125
141
12.0
290
     0
  0
SCALE
  5
5F
102
{ACAD_REACTORS
330
47
102
}
330
47
100
AcDbScale
 70
     0
300
3/16" = 1'-0"
140
0.1875
141
12.0
290
     0
  0
SCALE
  5
60
102
{ACAD_REACTORS
330
47
102
}
330
47
100
AcDbScale
 70
     0
300
1/4" = 1'-0"
140
0.25
141
12.0
290
     0
  0
SCALE
  5
61
102
{ACAD_REACTORS
330
47
102
}
330
47
100
AcDbScale
 70
     0
300
3/8" = 1'-0"
140
0.375
141
12.0
290
     0
  0
SCALE
  5
62
102
{ACAD_REACTORS
330
47
102
}
330
47
100
AcDbScale
 70
     0
300
1/2" = 1'-0"
140
0.5
141
12.0
290
     0
  0
SCALE
  5
63
102
{ACAD_REACTORS
330
47
102
}
330
47
100
AcDbScale
 70
     0
300
3/4" = 1'-0"
140
0.75
141
12.0
290
     0
  0
SCALE
  5
64
102
{ACAD_REACTORS
330
47
102
}
330
47
100
AcDbScale
 70
     0
300
1" = 1'-0"
140
1.0
141
12.0
290
     0
  0
SCALE
  5
65
102
{ACAD_REACTORS
330
47
102
}
330
47
100
AcDbScale
 70
     0
300
1-1/2" = 1'-0"
140
1.5
141
12.0
290
     0
  0
SCALE
  5
66
102
{ACAD_REACTORS
330
47
102
}
330
47
100
AcDbScale
 70
     0
300
3" = 1'-0"
140
3.0
141
12.0
290
     0
  0
SCALE
  5
67
102
{ACAD_REACTORS
330
47
102
}
330
47
100
AcDbScale
 70
     0
300
6" = 1'-0"
140
6.0
141
12.0
290
     0
  0
SCALE
  5
68
102
{ACAD_REACTORS
330
47
102
}
330
47
100
AcDbScale
 70
     0
300
1'-0" = 1'-0"
140
12.0
141
12.0
290
     0
  0
ENDSEC
  0
EOF
